  0
SECTION
  2
HEADER
  9
$ACADVER
  1
AC1009
  9
$INSBASE
 10
4231.0519721768023373
 20
194.3872534550964986
 30
0.0
  9
$EXTMIN
 10
4222.2732178844062219
 20
185.5808321312622127
 30
-0.0000000349181948
  9
$EXTMAX
 10
4256.3533616205222643
 20
194.542737203694287
 30
0.0000000814935746
  9
$LIMMIN
 10
0.0
 20
0.0
  9
$LIMMAX
 10
11.6929133858000007
 20
8.2677165353999982
  9
$ORTHOMODE
 70
     0
  9
$REGENMODE
 70
     1
  9
$FILLMODE
 70
     1
  9
$QTEXTMODE
 70
     0
  9
$MIRRTEXT
 70
     0
  9
$DRAGMODE
 70
     2
  9
$LTSCALE
 40
0.6431102362
  9
$OSMODE
 70
  4095
  9
$ATTMODE
 70
     1
  9
$TEXTSIZE
 40
0.2
  9
$TRACEWID
 40
0.05
  9
$TEXTSTYLE
  7
STANDARD
  9
$CLAYER
  8
0
  9
$CELTYPE
  6
BYLAYER
  9
$CECOLOR
 62
   256
  9
$DIMSCALE
 40
1.0
  9
$DIMASZ
 40
0.1875
  9
$DIMEXO
 40
0.0625
  9
$DIMDLI
 40
0.4443307087
  9
$DIMRND
 40
0.0
  9
$DIMDLE
 40
0.0
  9
$DIMEXE
 40
0.125
  9
$DIMTP
 40
0.01
  9
$DIMTM
 40
0.01
  9
$DIMTXT
 40
2.0
  9
$DIMCEN
 40
0.1052362205
  9
$DIMTSZ
 40
0.0
  9
$DIMTOL
 70
     1
  9
$DIMLIM
 70
     0
  9
$DIMTIH
 70
     1
  9
$DIMTOH
 70
     1
  9
$DIMSE1
 70
     0
  9
$DIMSE2
 70
     0
  9
$DIMTAD
 70
     0
  9
$DIMZIN
 70
     0
  9
$DIMBLK
  1

  9
$DIMASO
 70
     1
  9
$DIMSHO
 70
     1
  9
$DIMPOST
  1
\X
  9
$DIMAPOST
  1

  9
$DIMALT
 70
     1
  9
$DIMALTD
 70
     2
  9
$DIMALTF
 40
25.3999999999999986
  9
$DIMLFAC
 40
1.0
  9
$DIMTOFL
 70
     0
  9
$DIMTVP
 40
0.0
  9
$DIMTIX
 70
     0
  9
$DIMSOXD
 70
     0
  9
$DIMSAH
 70
     0
  9
$DIMBLK1
  1

  9
$DIMBLK2
  1

  9
$DIMSTYLE
  2
STANDARD
  9
$DIMCLRD
 70
     0
  9
$DIMCLRE
 70
     0
  9
$DIMCLRT
 70
     0
  9
$DIMTFAC
 40
1.0
  9
$DIMGAP
 40
0.09
  9
$LUNITS
 70
     2
  9
$LUPREC
 70
     4
  9
$SKETCHINC
 40
0.1
  9
$FILLETRAD
 40
0.0
  9
$AUNITS
 70
     0
  9
$AUPREC
 70
     0
  9
$MENU
  1
.
  9
$ELEVATION
 40
0.0
  9
$PELEVATION
 40
0.0
  9
$THICKNESS
 40
0.0
  9
$LIMCHECK
 70
     0
  9
$BLIPMODE
 70
     0
  9
$CHAMFERA
 40
0.0
  9
$CHAMFERB
 40
0.0
  9
$SKPOLY
 70
     0
  9
$TDCREATE
 40
2458060.468368056230247
  9
$TDUPDATE
 40
2459149.5093518518842757
  9
$TDINDWG
 40
0.4341505787
  9
$TDUSRTIMER
 40
0.4341505787
  9
$USRTIMER
 70
     1
  9
$ANGBASE
 50
0.0
  9
$ANGDIR
 70
     0
  9
$PDMODE
 70
     0
  9
$PDSIZE
 40
0.3125
  9
$PLINEWID
 40
0.0
  9
$COORDS
 70
     1
  9
$SPLFRAME
 70
     0
  9
$SPLINETYPE
 70
     6
  9
$SPLINESEGS
 70
     8
  9
$ATTDIA
 70
     1
  9
$ATTREQ
 70
     1
  9
$HANDLING
 70
     1
  9
$HANDSEED
  5
17A1C
  9
$SURFTAB1
 70
     6
  9
$SURFTAB2
 70
     6
  9
$SURFTYPE
 70
     6
  9
$SURFU
 70
     6
  9
$SURFV
 70
     6
  9
$UCSNAME
  2

  9
$UCSORG
 10
0.0
 20
0.0
 30
0.0
  9
$UCSXDIR
 10
1.0
 20
0.0
 30
0.0
  9
$UCSYDIR
 10
0.0
 20
1.0
 30
0.0
  9
$PUCSNAME
  2

  9
$PUCSORG
 10
0.0
 20
0.0
 30
0.0
  9
$PUCSXDIR
 10
1.0
 20
0.0
 30
0.0
  9
$PUCSYDIR
 10
0.0
 20
1.0
 30
0.0
  9
$USERI1
 70
     0
  9
$USERI2
 70
     0
  9
$USERI3
 70
     0
  9
$USERI4
 70
     0
  9
$USERI5
 70
     0
  9
$USERR1
 40
0.0
  9
$USERR2
 40
0.0
  9
$USERR3
 40
0.0
  9
$USERR4
 40
0.0
  9
$USERR5
 40
0.0
  9
$WORLDVIEW
 70
     1
  9
$SHADEDGE
 70
     3
  9
$SHADEDIF
 70
    70
  9
$TILEMODE
 70
     1
  9
$MAXACTVP
 70
    64
  9
$PLIMCHECK
 70
     0
  9
$PEXTMIN
 10
1.0000000000000000E+20
 20
1.0000000000000000E+20
 30
1.0000000000000000E+20
  9
$PEXTMAX
 10
-1.0000000000000000E+20
 20
-1.0000000000000000E+20
 30
-1.0000000000000000E+20
  9
$PLIMMIN
 10
0.0
 20
0.0
  9
$PLIMMAX
 10
12.0
 20
9.0
  9
$UNITMODE
 70
     0
  9
$VISRETAIN
 70
     1
  9
$PLINEGEN
 70
     0
  9
$PSLTSCALE
 70
     1
  0
ENDSEC
  0
SECTION
  2
TABLES
  0
TABLE
  2
VPORT
 70
     1
  0
VPORT
  2
*ACTIVE
 70
     0
 10
0.0
 20
0.0
 11
1.0
 21
1.0
 12
341.5533528803471199
 22
55.1184688739932795
 13
0.0
 23
0.0
 14
1.0
 24
1.0
 15
0.0
 25
0.0
 16
0.0
 26
0.0
 36
60.4960186965801583
 17
3911.3653564453120453
 27
132.5796051025390057
 37
0.0
 40
67.0091280394480862
 41
1.7926829268292681
 42
50.0
 43
0.0
 44
0.0
 50
0.0
 51
0.0
 71
     0
 72
   100
 73
     1
 74
     1
 75
     0
 76
     0
 77
     0
 78
     0
  0
ENDTAB
  0
TABLE
  2
LTYPE
 70
     2
  0
LTYPE
  2
CONTINUOUS
 70
     0
  3
Solid line
 72
    65
 73
     0
 40
0.0
  0
LTYPE
  2
PHANTOM2
 70
     0
  3
___ _ _ ___ _ _ ___ _ _ ___ _ _
 72
    65
 73
     6
 40
1.25
 49
0.625
 49
-0.125
 49
0.125
 49
-0.125
 49
0.125
 49
-0.125
  0
ENDTAB
  0
TABLE
  2
LAYER
 70
     2
  0
LAYER
  2
0
 70
     0
 62
   255
  6
CONTINUOUS
  0
LAYER
  2
DEFPOINTS
 70
     0
 62
     7
  6
CONTINUOUS
  0
ENDTAB
  0
TABLE
  2
STYLE
 70
     1
  0
STYLE
  2
STANDARD
 70
     0
 40
0.0
 41
0.8
 50
0.0
 71
     0
 42
0.2
  3
txt
  4

  0
ENDTAB
  0
TABLE
  2
VIEW
 70
     0
  0
ENDTAB
  0
TABLE
  2
UCS
 70
     0
  0
ENDTAB
  0
TABLE
  2
APPID
 70
    11
  0
APPID
  2
ACAD
 70
     0
  0
APPID
  2
ACAD_MLEADERVER
 70
     0
  0
APPID
  2
ACAD_EXEMPT_FROM_CAD_STANDARDS
 70
     0
  0
APPID
  2
ACAD_NAV_VCDISPLAY
 70
     0
  0
APPID
  2
ACAECLAYERSTANDARD
 70
     0
  0
APPID
  2
ACCMTRANSPARENCY
 70
     0
  0
APPID
  2
ACAD_DSTYLE_DIMJAG
 70
     0
  0
APPID
  2
ACAD_DSTYLE_DIMTALN
 70
     0
  0
APPID
  2
ACDBATTR
 70
     0
  0
APPID
  2
ACADANNOTATIVE
 70
     0
  0
APPID
  2
DCO15
 70
     0
  0
ENDTAB
  0
TABLE
  2
DIMSTYLE
 70
     1
  0
DIMSTYLE
  2
STANDARD
 70
     0
  3

  4

  5

  6

  7

 40
1.0
 41
0.1875
 42
0.0625
 43
0.38
 44
0.125
 45
0.0
 46
0.0
 47
0.01
 48
0.01
140
0.15625
141
0.09
142
0.0
143
25.3999999999999986
144
1.0
145
0.0
146
1.0
147
0.09
 71
     1
 72
     0
 73
     1
 74
     1
 75
     0
 76
     0
 77
     0
 78
     4
170
     0
171
     2
172
     0
173
     0
174
     0
175
     0
176
     0
177
     0
178
     0
  0
ENDTAB
  0
ENDSEC
  0
SECTION
  2
BLOCKS
  0
BLOCK
  8
0
  2
$MODEL_SPACE
 70
     0
 10
0.0
 20
0.0
 30
0.0
  3
$MODEL_SPACE
  1

  0
ENDBLK
  5
21
  8
0
  0
BLOCK
 67
     1
  8
0
  2
$PAPER_SPACE
 70
     0
 10
0.0
 20
0.0
 30
0.0
  3
$PAPER_SPACE
  1

  0
ENDBLK
  5
1D
 67
     1
  8
0
  0
ENDSEC
  0
SECTION
  2
ENTITIES
  0
LINE
  5
17880
  8
0
 10
4222.5874052476528959
 20
194.4342534550964956
 30
0.0
 11
4222.5874052476528959
 21
194.4812534550964926
 31
0.0
  0
LINE
  5
17881
  8
0
 10
4222.6661454051527471
 20
194.3872534550964986
 30
0.0
 11
4222.6661454051527471
 21
194.4342534550964956
 31
0.0
  0
LINE
  5
17882
  8
0
 10
4224.2409485547523218
 20
194.3872534550964986
 30
0.0
 11
4224.2409485547523218
 21
194.4342534550964956
 31
0.0
  0
LINE
  5
17883
  8
0
 10
4224.4404052476529614
 20
193.2533813053964877
 30
0.0
 11
4224.4404052476529614
 21
186.0102899652964936
 31
0.0
  0
LINE
  5
17884
  8
0
 10
4223.36493721025181
 20
194.3872534550964986
 30
0.0
 11
4224.3991073037523165
 21
193.3530833614964877
 31
0.0
  0
LINE
  5
17885
  8
0
 10
4238.7390071433528647
 20
194.3872534550964986
 30
0.0
 11
4237.7048370497523138
 21
193.3530833614964877
 31
0.0
  0
LINE
  5
17886
  8
0
 10
4233.0007910744516266
 20
185.5836537773965063
 30
0.0
 11
4229.1031532791530481
 21
185.5836537773965063
 31
0.0
  0
LINE
  5
17887
  8
0
 10
4233.4278220174528542
 20
185.774253455096499
 30
0.0
 11
4228.6761221251526877
 21
185.774253455096499
 31
0.0
  0
LINE
  5
17888
  8
0
 10
4224.5144676609515955
 20
185.933183595296498
 30
0.0
 11
4228.6760739666524387
 21
185.774253455096499
 31
0.0
  0
LINE
  5
17889
  8
0
 10
4237.6635391059526228
 20
193.2533813053964877
 30
0.0
 11
4237.6635391059526228
 21
186.0102899652964936
 31
0.0
  0
LINE
  5
1788A
  8
0
 10
4237.8629957988523529
 20
194.3872534550964986
 30
0.0
 11
4237.8629957988523529
 21
194.4342534550964956
 31
0.0
  0
LINE
  5
1788B
  8
0
 10
4233.4278703869531455
 20
185.774253455096499
 30
0.0
 11
4237.5894809127530607
 21
185.9331837563964882
 31
0.0
  0
LINE
  5
1788C
  8
0
 10
4224.5148878558520664
 20
185.9332536560964968
 30
0.0
 11
4237.5890565816516755
 21
185.9332536441964976
 31
0.0
  0
LINE
  5
1788D
  8
0
 10
4239.4377989484528371
 20
194.3872534550964986
 30
0.0
 11
4239.4377989484528371
 21
194.4342534550964956
 31
0.0
  0
LINE
  5
1788E
  8
0
 10
4244.2975494331531081
 20
194.5384823223965043
 30
0.0
 11
4244.2092680265523086
 21
194.4499936125965007
 31
0.0
  0
LINE
  5
1788F
  8
0
 10
4239.5165391059517788
 20
194.4342534550964956
 30
0.0
 11
4239.5165391059517788
 21
194.4812534550964926
 31
0.0
  0
LINE
  5
17890
  8
0
 10
4245.5218383185529092
 20
190.5129857385965124
 30
0.0
 11
4254.5821060350517655
 21
190.5129857385965124
 31
0.0
  0
LINE
  5
17891
  8
0
 10
4245.5218383185529092
 20
190.6704660534965114
 30
0.0
 11
4254.5821060350517655
 21
190.6704660534965114
 31
0.0
  0
LINE
  5
17892
  8
0
 10
4245.1280981610516392
 20
190.9066865259964914
 30
0.0
 11
4254.9758461925530355
 21
190.9066865259964914
 31
0.0
  0
LINE
  5
17893
  8
0
 10
4246.0372370367531403
 20
190.9854266834965131
 30
0.0
 11
4246.1947073167521012
 21
190.9854266834965131
 31
0.0
  0
LINE
  5
17894
  8
0
 10
4247.0212370367526091
 20
190.9854266834965131
 30
0.0
 11
4247.17870731675157
 21
190.9854266834965131
 31
0.0
  0
LINE
  5
17895
  8
0
 10
4248.005237036752078
 20
190.9854266834965131
 30
0.0
 11
4248.1627073167528579
 21
190.9854266834965131
 31
0.0
  0
LINE
  5
17896
  8
0
 10
4248.9892370367515468
 20
190.9854266834965131
 30
0.0
 11
4249.1467073167532362
 21
190.9854266834965131
 31
0.0
  0
LINE
  5
17897
  8
0
 10
4249.9732370367528347
 20
190.9854266834965131
 30
0.0
 11
4250.1307073167527051
 21
190.9854266834965131
 31
0.0
  0
LINE
  5
17898
  8
0
 10
4250.9572370367523035
 20
190.9854266834965131
 30
0.0
 11
4251.1147073167530834
 21
190.9854266834965131
 31
0.0
  0
LINE
  5
17899
  8
0
 10
4251.9412370367517724
 20
190.9854266834965131
 30
0.0
 11
4252.0987073167516428
 21
190.9854266834965131
 31
0.0
  0
LINE
  5
1789A
  8
0
 10
4252.9252370367530602
 20
190.9854266834965131
 30
0.0
 11
4253.0827073167520211
 21
190.9854266834965131
 31
0.0
  0
LINE
  5
1789B
  8
0
 10
4253.9092370367534386
 20
190.9854266834965131
 30
0.0
 11
4254.0667073167523995
 21
190.9854266834965131
 31
0.0
  0
LINE
  5
1789C
  8
0
 10
4245.1280981610516392
 20
191.0641668408964904
 30
0.0
 11
4246.03723201925186
 21
191.0641668408964904
 31
0.0
  0
LINE
  5
1789D
  8
0
 10
4246.1947123342515624
 20
191.0641668408964904
 30
0.0
 11
4247.0212320192522384
 21
191.0641668408964904
 31
0.0
  0
LINE
  5
1789E
  8
0
 10
4247.1787123342519408
 20
191.0641668408964904
 30
0.0
 11
4248.0052320192517072
 21
191.0641668408964904
 31
0.0
  0
LINE
  5
1789F
  8
0
 10
4248.1627123342523191
 20
191.0641668408964904
 30
0.0
 11
4248.9892320192529951
 21
191.0641668408964904
 31
0.0
  0
LINE
  5
178A0
  8
0
 10
4249.1467123342526975
 20
191.0641668408964904
 30
0.0
 11
4249.9732320192533734
 21
191.0641668408964904
 31
0.0
  0
LINE
  5
178A1
  8
0
 10
4250.1307123342530758
 20
191.0641668408964904
 30
0.0
 11
4250.9572320192528423
 21
191.0641668408964904
 31
0.0
  0
LINE
  5
178A2
  8
0
 10
4251.1147123342516352
 20
191.0641668408964904
 30
0.0
 11
4251.9412320192523111
 21
191.0641668408964904
 31
0.0
  0
LINE
  5
178A3
  8
0
 10
4252.098712334252923
 20
191.0641668408964904
 30
0.0
 11
4252.92523201925178
 21
191.0641668408964904
 31
0.0
  0
LINE
  5
178A4
  8
0
 10
4253.0827123342523919
 20
191.0641668408964904
 30
0.0
 11
4253.9092320192521584
 21
191.0641668408964904
 31
0.0
  0
LINE
  5
178A5
  8
0
 10
4254.0667123342518607
 20
191.0641668408964904
 30
0.0
 11
4254.9758461925530355
 21
191.0641668408964904
 31
0.0
  0
LINE
  5
178A6
  8
0
 10
4245.2068383185523999
 20
193.2321090273964899
 30
0.0
 11
4245.2068383185523999
 21
191.0641668408964904
 31
0.0
  0
LINE
  5
178A7
  8
0
 10
4245.2068383185523999
 20
190.9066865259964914
 30
0.0
 11
4245.2068383185523999
 21
190.8279857385965101
 31
0.0
  0
LINE
  5
178A8
  8
0
 10
4245.3643186334529673
 20
193.2321090273964899
 30
0.0
 11
4245.3643186334529673
 21
191.0641668408964904
 31
0.0
  0
LINE
  5
178A9
  8
0
 10
4245.3643186334529673
 20
190.9066865259964914
 30
0.0
 11
4245.3643186334529673
 21
190.8279857385965101
 31
0.0
  0
LINE
  5
178AA
  8
0
 10
4245.1280981610516392
 20
193.2321090273964899
 30
0.0
 11
4254.9758461925530355
 21
193.2321090273964899
 31
0.0
  0
LINE
  5
178AB
  8
0
 10
4224.3991073037523165
 20
193.3530833614964877
 30
0.0
 11
4237.7048370497523138
 21
193.3530833614964877
 31
0.0
  0
LINE
  5
178AC
  8
0
 10
4245.1280981610516392
 20
193.3895893423965049
 30
0.0
 11
4254.9758461925530355
 21
193.3895893423965049
 31
0.0
  0
LINE
  5
178AD
  8
0
 10
4246.03723201925186
 20
190.9854266834965131
 30
0.0
 11
4246.03723201925186
 21
193.2321090273964899
 31
0.0
  0
LINE
  5
178AE
  8
0
 10
4246.03723201925186
 20
193.3895893423965049
 30
0.0
 11
4246.03723201925186
 21
194.2925132975965141
 31
0.0
  0
LINE
  5
178AF
  8
0
 10
4246.1947123342515624
 20
190.9854266834965131
 30
0.0
 11
4246.1947123342515624
 21
193.2321090273964899
 31
0.0
  0
LINE
  5
178B0
  8
0
 10
4246.1947123342515624
 20
193.3895893423965049
 30
0.0
 11
4246.1947123342515624
 21
194.2925132975965141
 31
0.0
  0
LINE
  5
178B1
  8
0
 10
4254.8552762399531275
 20
193.5895918350965133
 30
0.0
 11
4255.5598483089515867
 21
194.2925132975965141
 31
0.0
  0
LINE
  5
178B2
  8
0
 10
4255.7176984206516863
 20
194.4499936125965007
 30
0.0
 11
4255.8063949204515666
 21
194.5384823223965043
 31
0.0
  0
LINE
  5
178B3
  8
0
 10
4254.9665009725522395
 20
193.4781059235965017
 30
0.0
 11
4255.7828207453530922
 21
194.2925132975965141
 31
0.0
  0
LINE
  5
178B4
  8
0
 10
4244.1307123342530758
 20
194.2925132975965141
 30
0.0
 11
4255.9732320192515544
 21
194.2925132975965141
 31
0.0
  0
LINE
  5
178B5
  8
0
 10
4237.8629957988523529
 20
194.3872534550964986
 30
0.0
 11
4239.4377989484528371
 21
194.3872534550964986
 31
0.0
  0
LINE
  5
178B6
  8
0
 10
4224.2409485547523218
 20
194.3872534550964986
 30
0.0
 11
4222.6661454051527471
 21
194.3872534550964986
 31
0.0
  0
LINE
  5
178B7
  8
0
 10
4237.8629957988523529
 20
194.3872534550964986
 30
0.0
 11
4224.2409485547523218
 21
194.3872534550964986
 31
0.0
  0
LINE
  5
178B8
  8
0
 10
4239.5165391059517788
 20
194.4342534550964956
 30
0.0
 11
4222.5874052476528959
 21
194.4342534550964956
 31
0.0
  0
LINE
  5
178B9
  8
0
 10
4244.1307123342530758
 20
194.4499936125965007
 30
0.0
 11
4255.9732320192515544
 21
194.4499936125965007
 31
0.0
  0
LINE
  5
178BA
  8
0
 10
4239.5165391059517788
 20
194.4812534550964926
 30
0.0
 11
4222.5874052476528959
 21
194.4812534550964926
 31
0.0
  0
LINE
  5
178BB
  8
0
 10
4247.0212320192522384
 20
190.9854266834965131
 30
0.0
 11
4247.0212320192522384
 21
193.2321090273964899
 31
0.0
  0
LINE
  5
178BC
  8
0
 10
4247.0212320192522384
 20
193.3895893423965049
 30
0.0
 11
4247.0212320192522384
 21
194.2925132975965141
 31
0.0
  0
LINE
  5
178BD
  8
0
 10
4247.1787123342519408
 20
190.9854266834965131
 30
0.0
 11
4247.1787123342519408
 21
193.2321090273964899
 31
0.0
  0
LINE
  5
178BE
  8
0
 10
4247.1787123342519408
 20
193.3895893423965049
 30
0.0
 11
4247.1787123342519408
 21
194.2925132975965141
 31
0.0
  0
LINE
  5
178BF
  8
0
 10
4244.3211236082515825
 20
194.2925132975965141
 30
0.0
 11
4245.1374433810533446
 21
193.4781059235965017
 31
0.0
  0
LINE
  5
178C0
  8
0
 10
4244.2975494331531081
 20
194.5384823223965043
 30
0.0
 11
4244.386245932852944
 21
194.4499936125965007
 31
0.0
  0
LINE
  5
178C1
  8
0
 10
4244.5440960445530436
 20
194.2925132975965141
 30
0.0
 11
4245.2486681136515472
 21
193.5895918350965133
 31
0.0
  0
LINE
  5
178C2
  8
0
 10
4248.0052320192517072
 20
190.9854266834965131
 30
0.0
 11
4248.0052320192517072
 21
193.2321090273964899
 31
0.0
  0
LINE
  5
178C3
  8
0
 10
4248.0052320192517072
 20
193.3895893423965049
 30
0.0
 11
4248.0052320192517072
 21
194.2925132975965141
 31
0.0
  0
LINE
  5
178C4
  8
0
 10
4248.1627123342523191
 20
190.9854266834965131
 30
0.0
 11
4248.1627123342523191
 21
193.2321090273964899
 31
0.0
  0
LINE
  5
178C5
  8
0
 10
4248.1627123342523191
 20
193.3895893423965049
 30
0.0
 11
4248.1627123342523191
 21
194.2925132975965141
 31
0.0
  0
LINE
  5
178C6
  8
0
 10
4248.9892320192529951
 20
190.9854266834965131
 30
0.0
 11
4248.9892320192529951
 21
193.2321090273964899
 31
0.0
  0
LINE
  5
178C7
  8
0
 10
4248.9892320192529951
 20
193.3895893423965049
 30
0.0
 11
4248.9892320192529951
 21
194.2925132975965141
 31
0.0
  0
LINE
  5
178C8
  8
0
 10
4249.1467123342526975
 20
190.9854266834965131
 30
0.0
 11
4249.1467123342526975
 21
193.2321090273964899
 31
0.0
  0
LINE
  5
178C9
  8
0
 10
4249.1467123342526975
 20
193.3895893423965049
 30
0.0
 11
4249.1467123342526975
 21
194.2925132975965141
 31
0.0
  0
LINE
  5
178CA
  8
0
 10
4249.9732320192533734
 20
190.9854266834965131
 30
0.0
 11
4249.9732320192533734
 21
193.2321090273964899
 31
0.0
  0
LINE
  5
178CB
  8
0
 10
4249.9732320192533734
 20
193.3895893423965049
 30
0.0
 11
4249.9732320192533734
 21
194.2925132975965141
 31
0.0
  0
LINE
  5
178CC
  8
0
 10
4250.1307123342530758
 20
190.9854266834965131
 30
0.0
 11
4250.1307123342530758
 21
193.2321090273964899
 31
0.0
  0
LINE
  5
178CD
  8
0
 10
4250.1307123342530758
 20
193.3895893423965049
 30
0.0
 11
4250.1307123342530758
 21
194.2925132975965994
 31
0.0
  0
LINE
  5
178CE
  8
0
 10
4250.9572320192528423
 20
190.9854266834965131
 30
0.0
 11
4250.9572320192528423
 21
193.2321090273964899
 31
0.0
  0
LINE
  5
178CF
  8
0
 10
4250.9572320192528423
 20
193.3895893423965049
 30
0.0
 11
4250.9572320192528423
 21
194.2925132975965141
 31
0.0
  0
LINE
  5
178D0
  8
0
 10
4251.1147123342516352
 20
190.9854266834965131
 30
0.0
 11
4251.1147123342516352
 21
193.2321090273964899
 31
0.0
  0
LINE
  5
178D1
  8
0
 10
4251.1147123342516352
 20
193.3895893423965049
 30
0.0
 11
4251.1147123342516352
 21
194.2925132975965141
 31
0.0
  0
LINE
  5
178D2
  8
0
 10
4251.9412320192523111
 20
190.9854266834965131
 30
0.0
 11
4251.9412320192523111
 21
193.2321090273964899
 31
0.0
  0
LINE
  5
178D3
  8
0
 10
4251.9412320192523111
 20
193.3895893423965049
 30
0.0
 11
4251.9412320192523111
 21
194.2925132975965141
 31
0.0
  0
LINE
  5
178D4
  8
0
 10
4252.098712334252923
 20
190.9854266834965131
 30
0.0
 11
4252.098712334252923
 21
193.2321090273964899
 31
0.0
  0
LINE
  5
178D5
  8
0
 10
4252.098712334252923
 20
193.3895893423965049
 30
0.0
 11
4252.098712334252923
 21
194.2925132975965141
 31
0.0
  0
LINE
  5
178D6
  8
0
 10
4252.92523201925178
 20
190.9854266834965131
 30
0.0
 11
4252.92523201925178
 21
193.2321090273964899
 31
0.0
  0
LINE
  5
178D7
  8
0
 10
4252.92523201925178
 20
193.3895893423965049
 30
0.0
 11
4252.92523201925178
 21
194.2925132975965141
 31
0.0
  0
LINE
  5
178D8
  8
0
 10
4253.0827123342523919
 20
190.9854266834965131
 30
0.0
 11
4253.0827123342523919
 21
193.2321090273964899
 31
0.0
  0
LINE
  5
178D9
  8
0
 10
4253.0827123342523919
 20
193.3895893423965049
 30
0.0
 11
4253.0827123342523919
 21
194.2925132975965141
 31
0.0
  0
LINE
  5
178DA
  8
0
 10
4253.9092320192521584
 20
190.9854266834965131
 30
0.0
 11
4253.9092320192521584
 21
193.2321090273964899
 31
0.0
  0
LINE
  5
178DB
  8
0
 10
4253.9092320192521584
 20
193.3895893423965049
 30
0.0
 11
4253.9092320192521584
 21
194.2925132975965141
 31
0.0
  0
LINE
  5
178DC
  8
0
 10
4253.9092320192521584
 20
194.4499936125965007
 30
0.0
 11
4253.9092320192521584
 21
194.4826088536964903
 31
0.0
  0
LINE
  5
178DD
  8
0
 10
4254.0667123342518607
 20
190.9854266834965131
 30
0.0
 11
4254.0667123342518607
 21
193.2321090273964899
 31
0.0
  0
LINE
  5
178DE
  8
0
 10
4254.0667123342518607
 20
193.3895893423965049
 30
0.0
 11
4254.0667123342518607
 21
194.2925132975965141
 31
0.0
  0
LINE
  5
178DF
  8
0
 10
4254.0667123342518607
 20
194.4499936125965007
 30
0.0
 11
4254.0667123342518607
 21
194.4826088536964903
 31
0.0
  0
LINE
  5
178E0
  8
0
 10
4254.7396257200516629
 20
190.8279857385965101
 30
0.0
 11
4254.7396257200516629
 21
190.9066865259964914
 31
0.0
  0
LINE
  5
178E1
  8
0
 10
4254.7396257200516629
 20
191.0641668408964904
 30
0.0
 11
4254.7396257200516629
 21
193.2321090273964899
 31
0.0
  0
LINE
  5
178E2
  8
0
 10
4254.8971060350522748
 20
190.8279857385965101
 30
0.0
 11
4254.8971060350522748
 21
190.9066865259964914
 31
0.0
  0
LINE
  5
178E3
  8
0
 10
4254.8971060350522748
 20
191.0641668408964904
 30
0.0
 11
4254.8971060350522748
 21
193.2321090273964899
 31
0.0
  0
LINE
  5
178E4
  8
0
 10
4255.8946763270523661
 20
194.4499936125965007
 30
0.0
 11
4255.8063949204515666
 21
194.5384823223965043
 31
0.0
  0
ARC
  5
178E5
  8
0
 10
4231.9971882889531116
 20
187.9245917195964921
 30
0.0
 40
2.5469999999999988
 50
293.2055590121100863
 51
302.40677583019351
  0
ARC
  5
178E6
  8
0
 10
4230.1067560645533376
 20
187.9245917195964921
 30
0.0
 40
2.5469999999999988
 50
237.5932241698066036
 51
246.7944409878898
  0
ARC
  5
178E7
  8
0
 10
4224.517405247651368
 20
186.0102232342964896
 30
0.0
 40
0.077
 50
179.9503454249999095
 51
268.1249186273881833
  0
ARC
  5
178E8
  8
0
 10
4237.5865391059533067
 20
186.0102124042965102
 30
0.0
 40
0.077
 50
271.8754076761824194
 51
0.0577132002992555
  0
ARC
  5
178E9
  8
0
 10
4237.8045391059531539
 20
193.2533813053964877
 30
0.0
 40
0.141
 50
135.0000000000046043
 51
180.0
  0
ARC
  5
178EA
  8
0
 10
4224.2994052476524303
 20
193.2533813053964877
 30
0.0
 40
0.141
 50
0.0
 51
44.9999999999953886
  0
ARC
  5
178EB
  8
0
 10
4245.5218383185529092
 20
190.8279857385965101
 30
0.0
 40
0.315
 50
180.0
 51
270.0
  0
ARC
  5
178EC
  8
0
 10
4245.5218383185529092
 20
190.8279857385965101
 30
0.0
 40
0.157519685
 50
180.0
 51
270.0
  0
ARC
  5
178ED
  8
0
 10
4245.1280981610516392
 20
190.9854266834965131
 30
0.0
 40
0.0787401575
 50
90.0
 51
270.0
  0
ARC
  5
178EE
  8
0
 10
4244.9705784759516973
 20
193.3108491848965116
 30
0.0
 40
0.3937401575
 50
11.5357896093318093
 51
45.0671923138167188
  0
ARC
  5
178EF
  8
0
 10
4244.9705784759516973
 20
193.3108491848965116
 30
0.0
 40
0.2362598425
 50
19.5087734897951393
 51
45.0671923138167188
  0
ARC
  5
178F0
  8
0
 10
4245.1280981610516392
 20
193.3108491848965116
 30
0.0
 40
0.0787401575
 50
90.0
 51
270.0
  0
ARC
  5
178F1
  8
0
 10
4244.1307123342530758
 20
194.3712534550965074
 30
0.0
 40
0.0787401575
 50
90.0
 51
270.0
  0
ARC
  5
178F2
  8
0
 10
4254.5821060350517655
 20
190.8279857385965101
 30
0.0
 40
0.315
 50
270.0
 51
0.0
  0
ARC
  5
178F3
  8
0
 10
4254.5821060350517655
 20
190.8279857385965101
 30
0.0
 40
0.157519685
 50
270.0
 51
0.0
  0
ARC
  5
178F4
  8
0
 10
4254.9758461925530355
 20
190.9854266834965131
 30
0.0
 40
0.0787401575
 50
270.0
 51
90.0
  0
ARC
  5
178F5
  8
0
 10
4255.1333658775529329
 20
193.3108491848965116
 30
0.0
 40
0.3937401575
 50
134.932807686183196
 51
168.4534089476053111
  0
ARC
  5
178F6
  8
0
 10
4255.1333658775529329
 20
193.3108491848965116
 30
0.0
 40
0.2362598425
 50
134.932807686183196
 51
160.4912265102047968
  0
ARC
  5
178F7
  8
0
 10
4254.9758461925530355
 20
193.3108491848965116
 30
0.0
 40
0.0787401575
 50
270.0
 51
90.0
  0
ARC
  5
178F8
  8
0
 10
4255.9732320192515544
 20
194.3712534550965074
 30
0.0
 40
0.0787401575
 50
270.0
 51
90.0
  0
ARC
  5
178F9
  8
0
 10
4246.1159721767517112
 20
193.5614256595283109
 30
0.0
 40
0.083515537831789
 50
199.4692584666123878
 51
340.5307415333875269
  0
ARC
  5
178FA
  8
0
 10
4247.0999721767529991
 20
193.5614256595283109
 30
0.0
 40
0.083515537831789
 50
199.4692584666123878
 51
340.5307415333875269
  0
ARC
  5
178FB
  8
0
 10
4248.0839721767515584
 20
193.5614256595283109
 30
0.0
 40
0.083515537831789
 50
199.4692584666123878
 51
340.5307415333875269
  0
ARC
  5
178FC
  8
0
 10
4249.0679721767519368
 20
193.5614256595283109
 30
0.0
 40
0.083515537831789
 50
199.4692584666123878
 51
340.5307415333875269
  0
ARC
  5
178FD
  8
0
 10
4250.0519721767523151
 20
193.5614256595283109
 30
0.0
 40
0.083515537831789
 50
199.4692584666123878
 51
340.5307415333875269
  0
ARC
  5
178FE
  8
0
 10
4251.0359721767526935
 20
193.5614256595283109
 30
0.0
 40
0.083515537831789
 50
199.4692584666169921
 51
340.5307415333829226
  0
ARC
  5
178FF
  8
0
 10
4252.0199721767530718
 20
193.5614256595283109
 30
0.0
 40
0.083515537831789
 50
199.4692584666169921
 51
340.5307415333921881
  0
ARC
  5
17900
  8
0
 10
4253.0039721767516312
 20
193.5614256595283109
 30
0.0
 40
0.083515537831789
 50
199.4692584666169921
 51
340.5307415333829226
  0
ARC
  5
17901
  8
0
 10
4253.9879721767520095
 20
193.5614256595283109
 30
0.0
 40
0.083515537831789
 50
199.4692584666169921
 51
340.5307415333829226
  0
ARC
  5
17902
  8
0
 10
4253.9555258688606045
 20
194.4840652490588866
 30
0.0
 40
0.0463167528987618
 50
181.8019195954447014
 51
227.3598261301312107
  0
ARC
  5
17903
  8
0
 10
4254.0208161380751335
 20
194.4838882532785078
 30
0.0
 40
0.0459140249471678
 50
312.4200131861845193
 51
358.4032398355926148
  0
ARC
  5
17904
  8
0
 10
4254.0239409698497184
 20
194.482136795408195
 30
0.0
 40
0.042773969324924
 50
0.6323354389783051
 51
35.0527754414962303
  0
ARC
  5
17905
  8
0
 10
4254.0011734148865798
 20
194.4643504156180995
 30
0.0
 40
0.0716426625810124
 50
36.2398722103603035
 51
74.8161236004520021
  0
ARC
  5
17906
  8
0
 10
4253.9879285752986107
 20
194.4290977172194914
 30
0.0
 40
0.1091914506487991
 50
72.9534512793749741
 51
104.5176136416629049
  0
ARC
  5
17907
  8
0
 10
4253.9778758190814187
 20
194.4596900161436963
 30
0.0
 40
0.077083554218825
 50
102.9840338073950932
 51
140.045628144841487
  0
ARC
  5
17908
  8
0
 10
4253.9530130921020827
 20
194.4818804490321043
 30
0.0
 40
0.0437871318222386
 50
141.4117491054111895
 51
179.0468332498408017
  0
LINE
  5
17909
  8
0
 10
4252.098712334252923
 20
194.4499936125965007
 30
0.0
 11
4252.098712334252923
 21
194.3373439839068055
 31
0.0
  0
LINE
  5
1790A
  8
0
 10
4252.92523201925178
 20
194.4499936125965007
 30
0.0
 11
4252.92523201925178
 21
194.4826088536964903
 31
0.0
  0
LINE
  5
1790B
  8
0
 10
4253.0827123342523919
 20
194.4499936125965007
 30
0.0
 11
4253.0827123342523919
 21
194.4826088536964903
 31
0.0
  0
ARC
  5
1790C
  8
0
 10
4252.9715258688611357
 20
194.4840652490588013
 30
0.0
 40
0.0463167528987618
 50
181.8019195954447014
 51
227.3598261301312107
  0
ARC
  5
1790D
  8
0
 10
4253.0368161380756646
 20
194.4838882532785078
 30
0.0
 40
0.0459140249471678
 50
312.4200131861845193
 51
358.4032398355926148
  0
ARC
  5
1790E
  8
0
 10
4253.039940969851159
 20
194.482136795408195
 30
0.0
 40
0.042773969324924
 50
0.6323354389783051
 51
35.0527754414962303
  0
ARC
  5
1790F
  8
0
 10
4253.0171734148862015
 20
194.4643504156180995
 30
0.0
 40
0.0716426625810124
 50
36.2398722103603035
 51
74.8161236004520021
  0
ARC
  5
17910
  8
0
 10
4253.0039285752991418
 20
194.4290977172194914
 30
0.0
 40
0.1091914506487991
 50
72.9534512793749741
 51
104.5176136416629049
  0
ARC
  5
17911
  8
0
 10
4252.9938758190810404
 20
194.4596900161436963
 30
0.0
 40
0.077083554218825
 50
102.9840338073950932
 51
140.045628144841487
  0
ARC
  5
17912
  8
0
 10
4252.9690130921017044
 20
194.4818804490321043
 30
0.0
 40
0.0437871318222386
 50
141.4117491054111895
 51
179.0468332498408017
  0
LINE
  5
17913
  8
0
 10
4251.9412320192523111
 20
194.4499936125965007
 30
0.0
 11
4251.9412320192523111
 21
194.4826088536964903
 31
0.0
  0
LINE
  5
17914
  8
0
 10
4252.098712334252923
 20
194.4499936125965007
 30
0.0
 11
4252.098712334252923
 21
194.4826088536964903
 31
0.0
  0
ARC
  5
17915
  8
0
 10
4251.9875258688607573
 20
194.4840652490588866
 30
0.0
 40
0.0463167528987618
 50
181.8019195954447014
 51
227.3598261301312107
  0
ARC
  5
17916
  8
0
 10
4252.0528161380752863
 20
194.4838882532785078
 30
0.0
 40
0.0459140249471678
 50
312.4200131861845193
 51
358.4032398355926148
  0
ARC
  5
17917
  8
0
 10
4252.0559409698498712
 20
194.482136795408195
 30
0.0
 40
0.042773969324924
 50
0.6323354389783051
 51
35.0527754414962303
  0
ARC
  5
17918
  8
0
 10
4252.0331734148858231
 20
194.4643504156180995
 30
0.0
 40
0.0716426625810124
 50
36.2398722103603035
 51
74.8161236004520021
  0
ARC
  5
17919
  8
0
 10
4252.0199285752987635
 20
194.4290977172194914
 30
0.0
 40
0.1091914506487991
 50
72.9534512793749741
 51
104.5176136416629049
  0
ARC
  5
1791A
  8
0
 10
4252.0098758190815715
 20
194.4596900161436963
 30
0.0
 40
0.077083554218825
 50
102.9840338073950932
 51
140.045628144841487
  0
ARC
  5
1791B
  8
0
 10
4251.985013092101326
 20
194.4818804490321043
 30
0.0
 40
0.0437871318222386
 50
141.4117491054111895
 51
179.0468332498408017
  0
LINE
  5
1791C
  8
0
 10
4250.9572320192528423
 20
194.4499936125965007
 30
0.0
 11
4250.9572320192528423
 21
194.4826088536964903
 31
0.0
  0
LINE
  5
1791D
  8
0
 10
4251.1147123342516352
 20
194.4499936125965007
 30
0.0
 11
4251.1147123342516352
 21
194.4826088536964903
 31
0.0
  0
ARC
  5
1791E
  8
0
 10
4251.003525868862198
 20
194.4840652490588866
 30
0.0
 40
0.0463167528987618
 50
181.8019195954447014
 51
227.3598261301312107
  0
ARC
  5
1791F
  8
0
 10
4251.0688161380749079
 20
194.4838882532785078
 30
0.0
 40
0.0459140249471678
 50
312.4200131861845193
 51
358.4032398355926148
  0
ARC
  5
17920
  8
0
 10
4251.0719409698513118
 20
194.482136795408195
 30
0.0
 40
0.042773969324924
 50
0.6323354389783051
 51
35.0527754414962303
  0
ARC
  5
17921
  8
0
 10
4251.0491734148863543
 20
194.4643504156180995
 30
0.0
 40
0.0716426625810124
 50
36.2398722103603035
 51
74.8161236004520021
  0
ARC
  5
17922
  8
0
 10
4251.0359285753002041
 20
194.4290977172194914
 30
0.0
 40
0.1091914506487991
 50
72.9534512793749741
 51
104.5176136416629049
  0
ARC
  5
17923
  8
0
 10
4251.0258758190811932
 20
194.4596900161436963
 30
0.0
 40
0.077083554218825
 50
102.9840338073950932
 51
140.045628144841487
  0
ARC
  5
17924
  8
0
 10
4251.0010130921018572
 20
194.4818804490321043
 30
0.0
 40
0.0437871318222386
 50
141.4117491054111895
 51
179.0468332498408017
  0
LINE
  5
17925
  8
0
 10
4249.9732320192533734
 20
194.4499936125965007
 30
0.0
 11
4249.9732320192533734
 21
194.4826088536964903
 31
0.0
  0
LINE
  5
17926
  8
0
 10
4250.1307123342530758
 20
194.4499936125965007
 30
0.0
 11
4250.1307123342530758
 21
194.4826088536964903
 31
0.0
  0
ARC
  5
17927
  8
0
 10
4250.0195258688618196
 20
194.4840652490588866
 30
0.0
 40
0.0463167528987618
 50
181.8019195954447014
 51
227.3598261301312107
  0
ARC
  5
17928
  8
0
 10
4250.0848161380754391
 20
194.4838882532785078
 30
0.0
 40
0.0459140249471678
 50
312.4200131861845193
 51
358.4032398355926148
  0
ARC
  5
17929
  8
0
 10
4250.0879409698509335
 20
194.482136795408195
 30
0.0
 40
0.042773969324924
 50
0.6323354389783051
 51
35.0527754414962303
  0
ARC
  5
1792A
  8
0
 10
4250.0651734148868854
 20
194.4643504156180995
 30
0.0
 40
0.0716426625810124
 50
36.2398722103603035
 51
74.8161236004520021
  0
ARC
  5
1792B
  8
0
 10
4250.0519285752998258
 20
194.4290977172194914
 30
0.0
 40
0.1091914506487991
 50
72.9534512793749741
 51
104.5176136416629049
  0
ARC
  5
1792C
  8
0
 10
4250.0418758190808148
 20
194.4596900161436963
 30
0.0
 40
0.077083554218825
 50
102.9840338073950932
 51
140.045628144841487
  0
ARC
  5
1792D
  8
0
 10
4250.0170130921032978
 20
194.4818804490321043
 30
0.0
 40
0.0437871318222386
 50
141.4117491054111895
 51
179.0468332498408017
  0
LINE
  5
1792E
  8
0
 10
4248.9892320192529951
 20
194.4499936125965007
 30
0.0
 11
4248.9892320192529951
 21
194.4826088536964903
 31
0.0
  0
LINE
  5
1792F
  8
0
 10
4249.1467123342526975
 20
194.4499936125965007
 30
0.0
 11
4249.1467123342526975
 21
194.4826088536964903
 31
0.0
  0
ARC
  5
17930
  8
0
 10
4249.0355258688614413
 20
194.4840652490588866
 30
0.0
 40
0.0463167528987618
 50
181.8019195954447014
 51
227.3598261301312107
  0
ARC
  5
17931
  8
0
 10
4249.1008161380750607
 20
194.4838882532785078
 30
0.0
 40
0.0459140249471678
 50
312.4200131861845193
 51
358.4032398355926148
  0
ARC
  5
17932
  8
0
 10
4249.1039409698523741
 20
194.482136795408195
 30
0.0
 40
0.042773969324924
 50
0.6323354389783051
 51
35.0527754414962303
  0
ARC
  5
17933
  8
0
 10
4249.0811734148855976
 20
194.4643504156180995
 30
0.0
 40
0.0716426625810124
 50
36.2398722103603035
 51
74.8161236004520021
  0
ARC
  5
17934
  8
0
 10
4249.0679285752994474
 20
194.4290977172194914
 30
0.0
 40
0.1091914506487991
 50
72.9534512793749741
 51
104.5176136416629049
  0
ARC
  5
17935
  8
0
 10
4249.057875819081346
 20
194.4596900161436963
 30
0.0
 40
0.077083554218825
 50
102.9840338073950932
 51
140.045628144841487
  0
ARC
  5
17936
  8
0
 10
4249.03301309210201
 20
194.4818804490321043
 30
0.0
 40
0.0437871318222386
 50
141.4117491054111895
 51
179.0468332498408017
  0
LINE
  5
17937
  8
0
 10
4248.0052320192517072
 20
194.4499936125965007
 30
0.0
 11
4248.0052320192517072
 21
194.4826088536964903
 31
0.0
  0
LINE
  5
17938
  8
0
 10
4248.1627123342523191
 20
194.4499936125965007
 30
0.0
 11
4248.1627123342523191
 21
194.4826088536964903
 31
0.0
  0
ARC
  5
17939
  8
0
 10
4248.0515258688619724
 20
194.4840652490588866
 30
0.0
 40
0.0463167528987618
 50
181.8019195954447014
 51
227.3598261301312107
  0
ARC
  5
1793A
  8
0
 10
4248.1168161380746824
 20
194.4838882532785078
 30
0.0
 40
0.0459140249471678
 50
312.4200131861845193
 51
358.4032398355926148
  0
ARC
  5
1793B
  8
0
 10
4248.1199409698510863
 20
194.482136795408195
 30
0.0
 40
0.042773969324924
 50
0.6323354389783051
 51
35.0527754414962303
  0
ARC
  5
1793C
  8
0
 10
4248.0971734148870382
 20
194.4643504156180995
 30
0.0
 40
0.0716426625810124
 50
36.2398722103603035
 51
74.8161236004520021
  0
ARC
  5
1793D
  8
0
 10
4248.0839285752999785
 20
194.4290977172194914
 30
0.0
 40
0.1091914506487991
 50
72.9534512793749741
 51
104.5176136416629049
  0
ARC
  5
1793E
  8
0
 10
4248.0738758190809676
 20
194.4596900161436963
 30
0.0
 40
0.077083554218825
 50
102.9840338073950932
 51
140.045628144841487
  0
ARC
  5
1793F
  8
0
 10
4248.0490130921016316
 20
194.4818804490321043
 30
0.0
 40
0.0437871318222386
 50
141.4117491054111895
 51
179.0468332498408017
  0
LINE
  5
17940
  8
0
 10
4247.0212320192522384
 20
194.4499936125965007
 30
0.0
 11
4247.0212320192522384
 21
194.4826088536964903
 31
0.0
  0
LINE
  5
17941
  8
0
 10
4247.1787123342519408
 20
194.4499936125965007
 30
0.0
 11
4247.1787123342519408
 21
194.4826088536964903
 31
0.0
  0
ARC
  5
17942
  8
0
 10
4247.0675258688606846
 20
194.4840652490588866
 30
0.0
 40
0.0463167528987618
 50
181.8019195954447014
 51
227.3598261301312107
  0
ARC
  5
17943
  8
0
 10
4247.1328161380752135
 20
194.4838882532785078
 30
0.0
 40
0.0459140249471678
 50
312.4200131861845193
 51
358.4032398355926148
  0
ARC
  5
17944
  8
0
 10
4247.1359409698497984
 20
194.482136795408195
 30
0.0
 40
0.042773969324924
 50
0.6323354389783051
 51
35.0527754414962303
  0
ARC
  5
17945
  8
0
 10
4247.1131734148866599
 20
194.4643504156180995
 30
0.0
 40
0.0716426625810124
 50
36.2398722103603035
 51
74.8161236004520021
  0
ARC
  5
17946
  8
0
 10
4247.0999285752986907
 20
194.4290977172194914
 30
0.0
 40
0.1091914506487991
 50
72.9534512793749741
 51
104.5176136416629049
  0
ARC
  5
17947
  8
0
 10
4247.0898758190805893
 20
194.4596900161436963
 30
0.0
 40
0.077083554218825
 50
102.9840338073950932
 51
140.045628144841487
  0
ARC
  5
17948
  8
0
 10
4247.0650130921021628
 20
194.4818804490321043
 30
0.0
 40
0.0437871318222386
 50
141.4117491054111895
 51
179.0468332498408017
  0
LINE
  5
17949
  8
0
 10
4246.03723201925186
 20
194.4499936125965007
 30
0.0
 11
4246.03723201925186
 21
194.4826088536964903
 31
0.0
  0
LINE
  5
1794A
  8
0
 10
4246.1947123342515624
 20
194.4499936125965007
 30
0.0
 11
4246.1947123342515624
 21
194.4826088536964903
 31
0.0
  0
ARC
  5
1794B
  8
0
 10
4246.0835258688621252
 20
194.4840652490588013
 30
0.0
 40
0.0463167528987618
 50
181.8019195954447014
 51
227.3598261301312107
  0
ARC
  5
1794C
  8
0
 10
4246.1488161380748352
 20
194.4838882532785078
 30
0.0
 40
0.0459140249471678
 50
312.4200131861845193
 51
358.4032398355926148
  0
ARC
  5
1794D
  8
0
 10
4246.1519409698512391
 20
194.482136795408195
 30
0.0
 40
0.042773969324924
 50
0.6323354389783051
 51
35.0527754414962303
  0
ARC
  5
1794E
  8
0
 10
4246.1291734148862815
 20
194.4643504156180995
 30
0.0
 40
0.0716426625810124
 50
36.2398722103603035
 51
74.8161236004520021
  0
ARC
  5
1794F
  8
0
 10
4246.1159285753001313
 20
194.4290977172194914
 30
0.0
 40
0.1091914506487991
 50
72.9534512793749741
 51
104.5176136416629049
  0
ARC
  5
17950
  8
0
 10
4246.1058758190811204
 20
194.4596900161436963
 30
0.0
 40
0.077083554218825
 50
102.9840338073950932
 51
140.045628144841487
  0
ARC
  5
17951
  8
0
 10
4246.0810130921017844
 20
194.4818804490321043
 30
0.0
 40
0.0437871318222386
 50
141.4117491054111895
 51
179.0468332498408017
  0
ATTDEF
  5
17953
  8
DEFPOINTS
 10
4231.0521364109999922
 20
194.3861169519024941
 30
0.0
 40
0.001
  1
K-3883T-F
  3

  2
MODELNUMBER
 70
     0
1001
ACDBATTR
1070
     0
1070
     1
  0
ATTDEF
  5
17954
  8
DEFPOINTS
 10
4231.0520106013418626
 20
194.3844501115233072
 30
0.0
 40
0.001
  1
POISE
  3

  2
TRADENAME
 70
     0
1001
ACDBATTR
1070
     0
1070
     1
  0
ATTDEF
  5
17955
  8
DEFPOINTS
 10
4231.0521364109999922
 20
194.3827836185691922
 30
0.0
 40
0.001
  1
KITCHEN SINK
  3

  2
PRODUCT
 70
     0
1001
ACDBATTR
1070
     0
1070
     1
  0
ENDSEC
  0
EOF
