  0
SECTION
  2
HEADER
  9
$ACADVER
  1
AC1009
  9
$INSBASE
 10
285.7371361498888973
 20
33.3742748815103667
 30
0.0
  9
$EXTMIN
 10
278.5082581968388808
 20
3.8810307307103731
 30
0.0
  9
$EXTMAX
 10
292.9660141029389138
 20
33.378529471426198
 30
0.0
  9
$LIMMIN
 10
0.0
 20
0.0
  9
$LIMMAX
 10
11.6929133858000007
 20
8.2677165353999982
  9
$ORTHOMODE
 70
     0
  9
$REGENMODE
 70
     1
  9
$FILLMODE
 70
     1
  9
$QTEXTMODE
 70
     0
  9
$MIRRTEXT
 70
     0
  9
$DRAGMODE
 70
     2
  9
$LTSCALE
 40
0.6431102362
  9
$OSMODE
 70
  3839
  9
$ATTMODE
 70
     1
  9
$TEXTSIZE
 40
0.2
  9
$TRACEWID
 40
0.05
  9
$TEXTSTYLE
  7
STANDARD
  9
$CLAYER
  8
0
  9
$CELTYPE
  6
BYLAYER
  9
$CECOLOR
 62
   256
  9
$DIMSCALE
 40
1.0
  9
$DIMASZ
 40
0.1875
  9
$DIMEXO
 40
0.0625
  9
$DIMDLI
 40
0.4443307087
  9
$DIMRND
 40
0.0
  9
$DIMDLE
 40
0.0
  9
$DIMEXE
 40
0.125
  9
$DIMTP
 40
0.01
  9
$DIMTM
 40
0.01
  9
$DIMTXT
 40
1.0
  9
$DIMCEN
 40
0.1052362205
  9
$DIMTSZ
 40
0.0
  9
$DIMTOL
 70
     1
  9
$DIMLIM
 70
     0
  9
$DIMTIH
 70
     1
  9
$DIMTOH
 70
     1
  9
$DIMSE1
 70
     0
  9
$DIMSE2
 70
     0
  9
$DIMTAD
 70
     0
  9
$DIMZIN
 70
     0
  9
$DIMBLK
  1

  9
$DIMASO
 70
     1
  9
$DIMSHO
 70
     1
  9
$DIMPOST
  1
\X
  9
$DIMAPOST
  1

  9
$DIMALT
 70
     1
  9
$DIMALTD
 70
     2
  9
$DIMALTF
 40
25.3999999999999986
  9
$DIMLFAC
 40
1.0
  9
$DIMTOFL
 70
     0
  9
$DIMTVP
 40
0.0
  9
$DIMTIX
 70
     0
  9
$DIMSOXD
 70
     0
  9
$DIMSAH
 70
     0
  9
$DIMBLK1
  1

  9
$DIMBLK2
  1

  9
$DIMSTYLE
  2
STANDARD
  9
$DIMCLRD
 70
     0
  9
$DIMCLRE
 70
     0
  9
$DIMCLRT
 70
     0
  9
$DIMTFAC
 40
1.0
  9
$DIMGAP
 40
0.09
  9
$LUNITS
 70
     2
  9
$LUPREC
 70
     4
  9
$SKETCHINC
 40
0.1
  9
$FILLETRAD
 40
0.0
  9
$AUNITS
 70
     0
  9
$AUPREC
 70
     0
  9
$MENU
  1
.
  9
$ELEVATION
 40
0.0
  9
$PELEVATION
 40
0.0
  9
$THICKNESS
 40
0.0
  9
$LIMCHECK
 70
     0
  9
$BLIPMODE
 70
     0
  9
$CHAMFERA
 40
0.0
  9
$CHAMFERB
 40
0.0
  9
$SKPOLY
 70
     0
  9
$TDCREATE
 40
2458213.4540277780033648
  9
$TDUPDATE
 40
2459025.0043171299621463
  9
$TDINDWG
 40
0.148387338
  9
$TDUSRTIMER
 40
0.148387338
  9
$USRTIMER
 70
     1
  9
$ANGBASE
 50
0.0
  9
$ANGDIR
 70
     0
  9
$PDMODE
 70
     0
  9
$PDSIZE
 40
0.3125
  9
$PLINEWID
 40
0.0
  9
$COORDS
 70
     1
  9
$SPLFRAME
 70
     0
  9
$SPLINETYPE
 70
     6
  9
$SPLINESEGS
 70
     8
  9
$ATTDIA
 70
     1
  9
$ATTREQ
 70
     1
  9
$HANDLING
 70
     1
  9
$HANDSEED
  5
20A6
  9
$SURFTAB1
 70
     6
  9
$SURFTAB2
 70
     6
  9
$SURFTYPE
 70
     6
  9
$SURFU
 70
     6
  9
$SURFV
 70
     6
  9
$UCSNAME
  2

  9
$UCSORG
 10
0.0
 20
0.0
 30
0.0
  9
$UCSXDIR
 10
1.0
 20
0.0
 30
0.0
  9
$UCSYDIR
 10
0.0
 20
1.0
 30
0.0
  9
$PUCSNAME
  2

  9
$PUCSORG
 10
0.0
 20
0.0
 30
0.0
  9
$PUCSXDIR
 10
1.0
 20
0.0
 30
0.0
  9
$PUCSYDIR
 10
0.0
 20
1.0
 30
0.0
  9
$USERI1
 70
     0
  9
$USERI2
 70
     0
  9
$USERI3
 70
     0
  9
$USERI4
 70
     0
  9
$USERI5
 70
     0
  9
$USERR1
 40
0.0
  9
$USERR2
 40
0.0
  9
$USERR3
 40
0.0
  9
$USERR4
 40
0.0
  9
$USERR5
 40
0.0
  9
$WORLDVIEW
 70
     1
  9
$SHADEDGE
 70
     3
  9
$SHADEDIF
 70
    70
  9
$TILEMODE
 70
     1
  9
$MAXACTVP
 70
    64
  9
$PLIMCHECK
 70
     0
  9
$PEXTMIN
 10
1.0000000000000000E+20
 20
1.0000000000000000E+20
 30
1.0000000000000000E+20
  9
$PEXTMAX
 10
-1.0000000000000000E+20
 20
-1.0000000000000000E+20
 30
-1.0000000000000000E+20
  9
$PLIMMIN
 10
0.0
 20
0.0
  9
$PLIMMAX
 10
12.0
 20
9.0
  9
$UNITMODE
 70
     0
  9
$VISRETAIN
 70
     1
  9
$PLINEGEN
 70
     0
  9
$PSLTSCALE
 70
     1
  0
ENDSEC
  0
SECTION
  2
TABLES
  0
TABLE
  2
VPORT
 70
     1
  0
VPORT
  2
*ACTIVE
 70
     0
 10
0.0
 20
0.0
 11
1.0
 21
1.0
 12
0.0
 22
0.0
 13
0.0
 23
0.0
 14
1.0
 24
1.0
 15
0.0
 25
0.0
 16
-0.0000000000000568
 26
0.0
 36
136.3787201947243091
 17
285.7371368408203125
 27
18.6297801346922789
 37
0.0
 40
32.8500909580489733
 41
3.314341846758349
 42
50.0
 43
0.0
 44
0.0
 50
0.0
 51
0.0
 71
     0
 72
   100
 73
     1
 74
     1
 75
     0
 76
     0
 77
     0
 78
     0
  0
ENDTAB
  0
TABLE
  2
LTYPE
 70
     2
  0
LTYPE
  2
CONTINUOUS
 70
     0
  3
Solid line
 72
    65
 73
     0
 40
0.0
  0
LTYPE
  2
PHANTOM2
 70
     0
  3
___ _ _ ___ _ _ ___ _ _ ___ _ _
 72
    65
 73
     6
 40
1.25
 49
0.625
 49
-0.125
 49
0.125
 49
-0.125
 49
0.125
 49
-0.125
  0
ENDTAB
  0
TABLE
  2
LAYER
 70
     2
  0
LAYER
  2
0
 70
     0
 62
   255
  6
CONTINUOUS
  0
LAYER
  2
DEFPOINTS
 70
     0
 62
     7
  6
CONTINUOUS
  0
ENDTAB
  0
TABLE
  2
STYLE
 70
     1
  0
STYLE
  2
STANDARD
 70
     0
 40
0.0
 41
0.8
 50
0.0
 71
     0
 42
0.2
  3
txt
  4

  0
ENDTAB
  0
TABLE
  2
VIEW
 70
     0
  0
ENDTAB
  0
TABLE
  2
UCS
 70
     0
  0
ENDTAB
  0
TABLE
  2
APPID
 70
     9
  0
APPID
  2
ACAD
 70
     0
  0
APPID
  2
ACAD_MLEADERVER
 70
     0
  0
APPID
  2
ACAD_EXEMPT_FROM_CAD_STANDARDS
 70
     0
  0
APPID
  2
ACAD_DSTYLE_DIMJAG
 70
     0
  0
APPID
  2
ACAD_DSTYLE_DIMTALN
 70
     0
  0
APPID
  2
ACAD_NAV_VCDISPLAY
 70
     0
  0
APPID
  2
ACAECLAYERSTANDARD
 70
     0
  0
APPID
  2
ACCMTRANSPARENCY
 70
     0
  0
APPID
  2
ACDBATTR
 70
     0
  0
ENDTAB
  0
TABLE
  2
DIMSTYLE
 70
     1
  0
DIMSTYLE
  2
STANDARD
 70
     0
  3

  4

  5

  6

  7

 40
1.0
 41
0.1875
 42
0.0625
 43
0.38
 44
0.125
 45
0.0
 46
0.0
 47
0.01
 48
0.01
140
0.15625
141
0.09
142
0.0
143
25.3999999999999986
144
1.0
145
0.0
146
1.0
147
0.09
 71
     1
 72
     0
 73
     1
 74
     1
 75
     0
 76
     0
 77
     0
 78
     4
170
     0
171
     2
172
     0
173
     0
174
     0
175
     0
176
     0
177
     0
178
     0
  0
ENDTAB
  0
ENDSEC
  0
SECTION
  2
BLOCKS
  0
BLOCK
  8
0
  2
$MODEL_SPACE
 70
     0
 10
0.0
 20
0.0
 30
0.0
  3
$MODEL_SPACE
  1

  0
ENDBLK
  5
21
  8
0
  0
BLOCK
 67
     1
  8
0
  2
$PAPER_SPACE
 70
     0
 10
0.0
 20
0.0
 30
0.0
  3
$PAPER_SPACE
  1

  0
ENDBLK
  5
1D
 67
     1
  8
0
  0
BLOCK
  8
0
  2
_FILLED
 70
     0
 10
0.0
 20
0.0
 30
0.0
  3
_FILLED
  1

  0
SOLID
  5
15CB
  8
0
  6
BYBLOCK
 62
     0
 10
0.0
 20
0.0
 30
0.0
 11
-1.0
 21
0.1666666667
 31
0.0
 12
-1.0
 22
-0.1666666667
 32
0.0
 13
-1.0
 23
-0.1666666667
 33
0.0
  0
ENDBLK
  5
15CC
  8
0
  6
BYBLOCK
 62
     0
  0
ENDSEC
  0
SECTION
  2
ENTITIES
  0
ATTDEF
  5
10FF
  8
DEFPOINTS
 10
285.725879693098193
 20
33.3775294714262003
 30
0.0
 40
0.001
  1
K-3900T-2
  3

  2
MODELNUMBER
 70
     0
1001
ACDBATTR
1070
     0
1070
     1
  0
ATTDEF
  5
1100
  8
DEFPOINTS
 10
285.725879693098193
 20
33.375862804759528
 30
0.0
 40
0.001
  1
NUMI
  3

  2
TRADENAME
 70
     0
1001
ACDBATTR
1070
     0
1070
     1
  0
ATTDEF
  5
1101
  8
DEFPOINTS
 10
285.725879693098193
 20
33.37419613809287
 30
0.0
 40
0.001
  1
TOILET
  3

  2
PRODUCT
 70
     0
1001
ACDBATTR
1070
     0
1070
     1
  0
LINE
  5
1F51
  8
0
 10
279.7156244019889186
 20
29.4925093438103687
 30
0.0
 11
279.7148320594204165
 21
21.6530436232676813
 31
0.0
  0
LINE
  5
1F52
  8
0
 10
284.2388384258529754
 20
21.6525863774613505
 30
0.0
 11
284.2396506978922162
 21
29.6892349934769193
 31
0.0
  0
LINE
  5
1F53
  8
0
 10
292.7460138601388735
 20
21.6517265488103696
 30
0.0
 11
278.7283111813388814
 21
21.6531433319103783
 31
0.0
  0
LINE
  5
1F54
  8
0
 10
284.0732515402985996
 20
29.7282673114922709
 30
0.0
 11
279.9669672073396214
 21
29.7286845856637392
 31
0.0
  0
LINE
  5
1F55
  8
0
 10
284.2790346207888774
 20
29.7285995153103499
 30
0.0
 11
287.2002943836095028
 21
29.7283026363136997
 31
0.0
  0
ARC
  5
1F56
  8
0
 10
287.2002903822562985
 20
29.6889325578844385
 30
0.0
 40
0.0393700785292589
 50
359.9941776391335111
 51
89.9941768094387555
  0
ARC
  5
1F57
  8
0
 10
278.7284033483650774
 20
4.1011776077925726
 30
0.0
 40
0.2201492938401191
 50
180.3514804446242863
 51
269.7315298804020927
  0
LINE
  5
1F58
  8
0
 10
278.7273718013389043
 20
3.8810307307103731
 30
0.0
 11
292.7433006773388797
 21
3.8810307307103731
 31
0.0
  0
ARC
  5
1F59
  8
0
 10
292.7411147433913925
 20
4.1060512514142511
 30
0.0
 40
0.2250311379455361
 50
270.5565752384362099
 51
358.0390811118098213
  0
LINE
  5
1F5A
  8
0
 10
292.9660141029389138
 20
4.098351178675367
 30
0.0
 11
292.9660141029389138
 21
21.4715135348103807
 31
0.0
  0
ARC
  5
1F5B
  8
0
 10
292.7790786945736841
 20
21.4676990677555288
 30
0.0
 40
0.186974321925705
 50
1.168973494691621
 51
100.185844507832698
  0
ARC
  5
1F5C
  8
0
 10
278.6960321656627002
 20
21.4681004259159316
 30
0.0
 40
0.187837195230063
 50
80.1048502525764263
 51
178.5133516111322933
  0
LINE
  5
1F5D
  8
0
 10
278.5082581968388808
 20
21.4729736737090597
 30
0.0
 11
278.5082581968388808
 21
4.09982711239787
 31
0.0
  0
ARC
  5
1F5E
  8
0
 10
279.952589942228883
 20
29.4921553341281104
 30
0.0
 40
0.2369658046724734
 50
86.5215958288297031
 51
179.9144042395770953
  0
ARC
  5
1F5F
  8
0
 10
284.0733763399774148
 20
29.630150082089731
 30
0.0
 40
0.0981173087716149
 50
359.7767593439554048
 51
90.0728770173114839
  0
LINE
  5
1F60
  8
0
 10
284.1714929039889057
 20
29.6297677901103889
 30
0.0
 11
284.1731610161684216
 21
21.6525930155422301
 31
0.0
  0
LINE
  5
1F61
  8
0
 10
287.2396604606856272
 20
29.6889285566429209
 30
0.0
 11
287.237123734038903
 21
21.6522833377942199
 31
0.0
  0
ARC
  5
1F62
  8
0
 10
284.2790181257088875
 20
29.6892320908424097
 30
0.0
 40
0.0393674279237007
 50
89.9759928818324966
 51
179.9957754743959129
  0
LINE
  5
1F64
  8
0
 10
284.2376998852673182
 20
27.3207702464687117
 30
0.0
 11
284.1957558171798723
 21
27.3207714581903502
 31
0.0
  0
LINE
  5
1F65
  8
0
 10
284.1957558171798723
 20
27.3207714581903502
 30
0.0
 11
284.1839435923866972
 21
27.3089646903055403
 31
0.0
  0
LINE
  5
1F66
  8
0
 10
284.1839435923866972
 20
27.3089646903055403
 30
0.0
 11
284.183889980783988
 21
26.7814056274133385
 31
0.0
  0
LINE
  5
1F67
  8
0
 10
284.183889980783988
 20
26.7814056274133385
 30
0.0
 11
284.1956999098479173
 21
26.7695934105997999
 31
0.0
  0
LINE
  5
1F68
  8
0
 10
284.1956999098479173
 20
26.7695934105997999
 30
0.0
 11
284.2376438673595089
 21
26.7695891503296899
 31
0.0
  0
LINE
  5
1F69
  8
0
 10
284.1956999098479173
 20
26.7695934105997999
 30
0.0
 11
284.1957558171798723
 21
27.3207714581903502
 31
0.0
  0
LINE
  5
1F6A
  8
0
 10
284.2379494398222732
 20
29.2739198667134985
 30
0.0
 11
284.1960053717349979
 21
29.2739210784351407
 31
0.0
  0
LINE
  5
1F6B
  8
0
 10
284.1960053717349979
 20
29.2739210784351407
 30
0.0
 11
284.1841931469418228
 21
29.2621143105503201
 31
0.0
  0
LINE
  5
1F6C
  8
0
 10
284.1841931469418228
 20
29.2621143105503201
 30
0.0
 11
284.1841395353389998
 21
28.734555247658129
 31
0.0
  0
LINE
  5
1F6D
  8
0
 10
284.1841395353389998
 20
28.734555247658129
 30
0.0
 11
284.1959494644028723
 21
28.7227430308445904
 31
0.0
  0
LINE
  5
1F6E
  8
0
 10
284.1959494644028723
 20
28.7227430308445904
 30
0.0
 11
284.2378934219145208
 21
28.7227387705744697
 31
0.0
  0
LINE
  5
1F6F
  8
0
 10
284.1959494644028723
 20
28.7227430308445904
 30
0.0
 11
284.1960053717349979
 21
29.2739210784351407
 31
0.0
  0
LINE
  5
1F70
  8
0
 10
284.2373353661350279
 20
23.7329749900606686
 30
0.0
 11
284.1953912980478094
 21
23.7329762017823107
 31
0.0
  0
LINE
  5
1F71
  8
0
 10
284.1953912980478094
 20
23.7329762017823107
 30
0.0
 11
284.1835790732545206
 21
23.7211694338974901
 31
0.0
  0
LINE
  5
1F72
  8
0
 10
284.1835790732545206
 20
23.7211694338974901
 30
0.0
 11
284.1835254616518114
 21
23.193610371005299
 31
0.0
  0
LINE
  5
1F73
  8
0
 10
284.1835254616518114
 20
23.193610371005299
 30
0.0
 11
284.195335390715627
 21
23.1817981541917604
 31
0.0
  0
LINE
  5
1F74
  8
0
 10
284.195335390715627
 20
23.1817981541917604
 30
0.0
 11
284.2372793482272186
 21
23.1817938939216397
 31
0.0
  0
LINE
  5
1F75
  8
0
 10
284.195335390715627
 20
23.1817981541917604
 30
0.0
 11
284.1953912980478094
 21
23.7329762017823107
 31
0.0
  0
LINE
  5
1F76
  8
0
 10
291.758647897788876
 20
29.4925093438103687
 30
0.0
 11
291.7594402403573781
 21
21.6530436232676813
 31
0.0
  0
LINE
  5
1F77
  8
0
 10
287.401020759479195
 20
29.7282673114922709
 30
0.0
 11
291.5073050924381732
 21
29.7286845856637392
 31
0.0
  0
ARC
  5
1F78
  8
0
 10
292.7782401341150944
 20
21.4681004259159316
 30
0.0
 40
0.187837195230063
 50
1.4866483888677211
 51
99.8951497474235879
  0
ARC
  5
1F79
  8
0
 10
291.5216823575489116
 20
29.4921553341281104
 30
0.0
 40
0.2369658046724734
 50
0.0855957604228705
 51
93.4784041711702827
  0
ARC
  5
1F7A
  8
0
 10
287.4008959598003798
 20
29.630150082089731
 30
0.0
 40
0.0981173087716149
 50
89.9271229826884735
 51
180.2232406560445952
  0
LINE
  5
1F7B
  8
0
 10
287.3027793957888889
 20
29.6297677901103889
 30
0.0
 11
287.301111283609373
 21
21.6525930155422301
 31
0.0
  0
LINE
  5
1F7C
  8
0
 10
287.2365724145104764
 20
27.3207702464687117
 30
0.0
 11
287.2785164825978086
 21
27.3207714581903502
 31
0.0
  0
LINE
  5
1F7D
  8
0
 10
287.2785164825978086
 20
27.3207714581903502
 30
0.0
 11
287.2903287073909837
 21
27.3089646903055403
 31
0.0
  0
LINE
  5
1F7E
  8
0
 10
287.2903287073909837
 20
27.3089646903055403
 30
0.0
 11
287.2903823189938066
 21
26.7814056274133385
 31
0.0
  0
LINE
  5
1F7F
  8
0
 10
287.2903823189938066
 20
26.7814056274133385
 30
0.0
 11
287.2785723899298773
 21
26.7695934105997999
 31
0.0
  0
LINE
  5
1F80
  8
0
 10
287.2785723899298773
 20
26.7695934105997999
 30
0.0
 11
287.2366284324182857
 21
26.7695891503296899
 31
0.0
  0
LINE
  5
1F81
  8
0
 10
287.2785723899298773
 20
26.7695934105997999
 30
0.0
 11
287.2785164825978086
 21
27.3207714581903502
 31
0.0
  0
LINE
  5
1F82
  8
0
 10
287.2363228599555214
 20
29.2739198667134985
 30
0.0
 11
287.2782669280427967
 21
29.2739210784351407
 31
0.0
  0
LINE
  5
1F83
  8
0
 10
287.2782669280427967
 20
29.2739210784351407
 30
0.0
 11
287.2900791528359719
 21
29.2621143105503201
 31
0.0
  0
LINE
  5
1F84
  8
0
 10
287.2900791528359719
 20
29.2621143105503201
 30
0.0
 11
287.2901327644386811
 21
28.734555247658129
 31
0.0
  0
LINE
  5
1F85
  8
0
 10
287.2901327644386811
 20
28.734555247658129
 30
0.0
 11
287.2783228353749223
 21
28.7227430308445904
 31
0.0
  0
LINE
  5
1F86
  8
0
 10
287.2783228353749223
 20
28.7227430308445904
 30
0.0
 11
287.2363788778632738
 21
28.7227387705744697
 31
0.0
  0
LINE
  5
1F87
  8
0
 10
287.2783228353749223
 20
28.7227430308445904
 30
0.0
 11
287.2782669280427967
 21
29.2739210784351407
 31
0.0
  0
LINE
  5
1F88
  8
0
 10
287.2369369336428235
 20
23.7329749900606686
 30
0.0
 11
287.2788810017300989
 21
23.7329762017823107
 31
0.0
  0
LINE
  5
1F89
  8
0
 10
287.2788810017300989
 20
23.7329762017823107
 30
0.0
 11
287.2906932265232172
 21
23.7211694338974901
 31
0.0
  0
LINE
  5
1F8A
  8
0
 10
287.2906932265232172
 20
23.7211694338974901
 30
0.0
 11
287.2907468381259832
 21
23.193610371005299
 31
0.0
  0
LINE
  5
1F8B
  8
0
 10
287.2907468381259832
 20
23.193610371005299
 30
0.0
 11
287.2789369090622245
 21
23.1817981541917604
 31
0.0
  0
LINE
  5
1F8C
  8
0
 10
287.2789369090622245
 20
23.1817981541917604
 30
0.0
 11
287.236992951550576
 21
23.1817938939216397
 31
0.0
  0
LINE
  5
1F8D
  8
0
 10
287.2789369090622245
 20
23.1817981541917604
 30
0.0
 11
287.2788810017300989
 21
23.7329762017823107
 31
0.0
  0
LINE
  5
1F8E
  8
0
 10
281.6292789176889073
 20
29.7285157556103705
 30
0.0
 11
281.6295576497889215
 21
29.7558065488103693
 31
0.0
  0
ARC
  5
1F8F
  8
0
 10
281.8018030639694871
 20
29.6985940701212598
 30
0.0
 40
0.1814986237523901
 50
88.5217279929014893
 51
161.6257439979025037
  0
LINE
  5
1F90
  8
0
 10
281.8064853384889261
 20
29.880032287510371
 30
0.0
 11
283.4206585186889242
 21
29.87986818741037
 31
0.0
  0
ARC
  5
1F91
  8
0
 10
283.4269544917003145
 20
29.7021131838096792
 30
0.0
 40
0.1778664684004293
 50
16.2101941268137217
 51
92.0285333030820567
  0
LINE
  5
1F92
  8
0
 10
283.5977497064889121
 20
29.7517667354103708
 30
0.0
 11
283.5977827992413154
 21
29.7283156278797591
 31
0.0
  0
ARC
  5
1F93
  8
0
 10
280.8815891955129018
 20
29.0708445889535305
 30
0.0
 40
0.7133904048698481
 50
67.2146517022848826
 51
112.7737079129932027
  0
LINE
  5
1F94
  8
0
 10
288.8079684293214768
 20
29.7284102833070882
 30
0.0
 11
288.8079684293214768
 21
29.7632173800684292
 31
0.0
  0
ARC
  5
1F95
  8
0
 10
288.678649802098505
 20
29.7632173800684292
 30
0.0
 40
0.1293186272230162
 50
359.9999999999996021
 51
93.2722036797997873
  0
LINE
  5
1F96
  8
0
 10
288.6712683352889144
 20
29.8923251695103609
 30
0.0
 11
282.8029955695362219
 21
29.8929216171165599
 31
0.0
  0
ARC
  5
1F97
  8
0
 10
282.8030387212876917
 20
29.7406842656664203
 30
0.0
 40
0.1522372854373645
 50
90.016210922309412
 51
113.835425901996004
  0
ARC
  5
1F98
  8
0
 10
290.5926831042647791
 20
29.0708445889535305
 30
0.0
 40
0.7133904048698481
 50
67.226292087006783
 51
112.7853482977151032
  0
ENDSEC
  0
EOF
