  0
SECTION
  2
HEADER
  9
$ACADVER
  1
AC1009
  9
$INSBASE
 10
255.2501875484337859
 20
5.2408026338788964
 30
0.0
  9
$EXTMIN
 10
225.7564606521322048
 20
5.23621992537789
 30
0.0
  9
$EXTMAX
 10
255.24947323219439
 20
22.9923201510000084
 30
0.0
  9
$LIMMIN
 10
0.0
 20
0.0
  9
$LIMMAX
 10
11.6929133858000007
 20
8.2677165353999982
  9
$ORTHOMODE
 70
     0
  9
$REGENMODE
 70
     1
  9
$FILLMODE
 70
     1
  9
$QTEXTMODE
 70
     0
  9
$MIRRTEXT
 70
     0
  9
$DRAGMODE
 70
     2
  9
$LTSCALE
 40
0.6431102362
  9
$OSMODE
 70
  3839
  9
$ATTMODE
 70
     1
  9
$TEXTSIZE
 40
0.2
  9
$TRACEWID
 40
0.05
  9
$TEXTSTYLE
  7
STANDARD
  9
$CLAYER
  8
0
  9
$CELTYPE
  6
BYLAYER
  9
$CECOLOR
 62
   256
  9
$DIMSCALE
 40
1.0
  9
$DIMASZ
 40
0.1875
  9
$DIMEXO
 40
0.0625
  9
$DIMDLI
 40
0.4443307087
  9
$DIMRND
 40
0.0
  9
$DIMDLE
 40
0.0
  9
$DIMEXE
 40
0.125
  9
$DIMTP
 40
0.01
  9
$DIMTM
 40
0.01
  9
$DIMTXT
 40
1.0
  9
$DIMCEN
 40
0.1052362205
  9
$DIMTSZ
 40
0.0
  9
$DIMTOL
 70
     1
  9
$DIMLIM
 70
     0
  9
$DIMTIH
 70
     1
  9
$DIMTOH
 70
     1
  9
$DIMSE1
 70
     0
  9
$DIMSE2
 70
     0
  9
$DIMTAD
 70
     0
  9
$DIMZIN
 70
     0
  9
$DIMBLK
  1

  9
$DIMASO
 70
     1
  9
$DIMSHO
 70
     1
  9
$DIMPOST
  1
\X
  9
$DIMAPOST
  1

  9
$DIMALT
 70
     1
  9
$DIMALTD
 70
     2
  9
$DIMALTF
 40
25.3999999999999986
  9
$DIMLFAC
 40
1.0
  9
$DIMTOFL
 70
     0
  9
$DIMTVP
 40
0.0
  9
$DIMTIX
 70
     0
  9
$DIMSOXD
 70
     0
  9
$DIMSAH
 70
     0
  9
$DIMBLK1
  1

  9
$DIMBLK2
  1

  9
$DIMSTYLE
  2
STANDARD
  9
$DIMCLRD
 70
     0
  9
$DIMCLRE
 70
     0
  9
$DIMCLRT
 70
     0
  9
$DIMTFAC
 40
1.0
  9
$DIMGAP
 40
0.09
  9
$LUNITS
 70
     2
  9
$LUPREC
 70
     4
  9
$SKETCHINC
 40
0.1
  9
$FILLETRAD
 40
0.0
  9
$AUNITS
 70
     0
  9
$AUPREC
 70
     0
  9
$MENU
  1
.
  9
$ELEVATION
 40
0.0
  9
$PELEVATION
 40
0.0
  9
$THICKNESS
 40
0.0
  9
$LIMCHECK
 70
     0
  9
$BLIPMODE
 70
     0
  9
$CHAMFERA
 40
0.0
  9
$CHAMFERB
 40
0.0
  9
$SKPOLY
 70
     0
  9
$TDCREATE
 40
2458213.4540277780033648
  9
$TDUPDATE
 40
2459025.0066435178741813
  9
$TDINDWG
 40
0.1512229861
  9
$TDUSRTIMER
 40
0.1512229861
  9
$USRTIMER
 70
     1
  9
$ANGBASE
 50
0.0
  9
$ANGDIR
 70
     0
  9
$PDMODE
 70
     0
  9
$PDSIZE
 40
0.3125
  9
$PLINEWID
 40
0.0
  9
$COORDS
 70
     1
  9
$SPLFRAME
 70
     0
  9
$SPLINETYPE
 70
     6
  9
$SPLINESEGS
 70
     8
  9
$ATTDIA
 70
     1
  9
$ATTREQ
 70
     1
  9
$HANDLING
 70
     1
  9
$HANDSEED
  5
213F
  9
$SURFTAB1
 70
     6
  9
$SURFTAB2
 70
     6
  9
$SURFTYPE
 70
     6
  9
$SURFU
 70
     6
  9
$SURFV
 70
     6
  9
$UCSNAME
  2

  9
$UCSORG
 10
0.0
 20
0.0
 30
0.0
  9
$UCSXDIR
 10
1.0
 20
0.0
 30
0.0
  9
$UCSYDIR
 10
0.0
 20
1.0
 30
0.0
  9
$PUCSNAME
  2

  9
$PUCSORG
 10
0.0
 20
0.0
 30
0.0
  9
$PUCSXDIR
 10
1.0
 20
0.0
 30
0.0
  9
$PUCSYDIR
 10
0.0
 20
1.0
 30
0.0
  9
$USERI1
 70
     0
  9
$USERI2
 70
     0
  9
$USERI3
 70
     0
  9
$USERI4
 70
     0
  9
$USERI5
 70
     0
  9
$USERR1
 40
0.0
  9
$USERR2
 40
0.0
  9
$USERR3
 40
0.0
  9
$USERR4
 40
0.0
  9
$USERR5
 40
0.0
  9
$WORLDVIEW
 70
     1
  9
$SHADEDGE
 70
     3
  9
$SHADEDIF
 70
    70
  9
$TILEMODE
 70
     1
  9
$MAXACTVP
 70
    64
  9
$PLIMCHECK
 70
     0
  9
$PEXTMIN
 10
1.0000000000000000E+20
 20
1.0000000000000000E+20
 30
1.0000000000000000E+20
  9
$PEXTMAX
 10
-1.0000000000000000E+20
 20
-1.0000000000000000E+20
 30
-1.0000000000000000E+20
  9
$PLIMMIN
 10
0.0
 20
0.0
  9
$PLIMMAX
 10
12.0
 20
9.0
  9
$UNITMODE
 70
     0
  9
$VISRETAIN
 70
     1
  9
$PLINEGEN
 70
     0
  9
$PSLTSCALE
 70
     1
  0
ENDSEC
  0
SECTION
  2
TABLES
  0
TABLE
  2
VPORT
 70
     1
  0
VPORT
  2
*ACTIVE
 70
     0
 10
0.0
 20
0.0
 11
1.0
 21
1.0
 12
0.0
 22
0.0
 13
0.0
 23
0.0
 14
1.0
 24
1.0
 15
0.0
 25
0.0
 16
-0.0000000000000284
 26
0.0
 36
142.9192405631644078
 17
240.5029638501428053
 27
14.1142704698910908
 37
0.0
 40
34.4255324104211127
 41
3.314341846758349
 42
50.0
 43
0.0
 44
0.0
 50
0.0
 51
0.0
 71
     0
 72
   100
 73
     1
 74
     1
 75
     0
 76
     0
 77
     0
 78
     0
  0
ENDTAB
  0
TABLE
  2
LTYPE
 70
     2
  0
LTYPE
  2
CONTINUOUS
 70
     0
  3
Solid line
 72
    65
 73
     0
 40
0.0
  0
LTYPE
  2
PHANTOM2
 70
     0
  3
___ _ _ ___ _ _ ___ _ _ ___ _ _
 72
    65
 73
     6
 40
1.25
 49
0.625
 49
-0.125
 49
0.125
 49
-0.125
 49
0.125
 49
-0.125
  0
ENDTAB
  0
TABLE
  2
LAYER
 70
     2
  0
LAYER
  2
0
 70
     0
 62
   255
  6
CONTINUOUS
  0
LAYER
  2
DEFPOINTS
 70
     0
 62
     7
  6
CONTINUOUS
  0
ENDTAB
  0
TABLE
  2
STYLE
 70
     1
  0
STYLE
  2
STANDARD
 70
     0
 40
0.0
 41
0.8
 50
0.0
 71
     0
 42
0.2
  3
txt
  4

  0
ENDTAB
  0
TABLE
  2
VIEW
 70
     0
  0
ENDTAB
  0
TABLE
  2
UCS
 70
     0
  0
ENDTAB
  0
TABLE
  2
APPID
 70
     9
  0
APPID
  2
ACAD
 70
     0
  0
APPID
  2
ACAD_MLEADERVER
 70
     0
  0
APPID
  2
ACAD_EXEMPT_FROM_CAD_STANDARDS
 70
     0
  0
APPID
  2
ACAD_DSTYLE_DIMJAG
 70
     0
  0
APPID
  2
ACAD_DSTYLE_DIMTALN
 70
     0
  0
APPID
  2
ACAD_NAV_VCDISPLAY
 70
     0
  0
APPID
  2
ACAECLAYERSTANDARD
 70
     0
  0
APPID
  2
ACCMTRANSPARENCY
 70
     0
  0
APPID
  2
ACDBATTR
 70
     0
  0
ENDTAB
  0
TABLE
  2
DIMSTYLE
 70
     1
  0
DIMSTYLE
  2
STANDARD
 70
     0
  3

  4

  5

  6

  7

 40
1.0
 41
0.1875
 42
0.0625
 43
0.38
 44
0.125
 45
0.0
 46
0.0
 47
0.01
 48
0.01
140
0.15625
141
0.09
142
0.0
143
25.3999999999999986
144
1.0
145
0.0
146
1.0
147
0.09
 71
     1
 72
     0
 73
     1
 74
     1
 75
     0
 76
     0
 77
     0
 78
     4
170
     0
171
     2
172
     0
173
     0
174
     0
175
     0
176
     0
177
     0
178
     0
  0
ENDTAB
  0
ENDSEC
  0
SECTION
  2
BLOCKS
  0
BLOCK
  8
0
  2
$MODEL_SPACE
 70
     0
 10
0.0
 20
0.0
 30
0.0
  3
$MODEL_SPACE
  1

  0
ENDBLK
  5
21
  8
0
  0
BLOCK
 67
     1
  8
0
  2
$PAPER_SPACE
 70
     0
 10
0.0
 20
0.0
 30
0.0
  3
$PAPER_SPACE
  1

  0
ENDBLK
  5
1D
 67
     1
  8
0
  0
BLOCK
  8
0
  2
_FILLED
 70
     0
 10
0.0
 20
0.0
 30
0.0
  3
_FILLED
  1

  0
SOLID
  5
15CB
  8
0
  6
BYBLOCK
 62
     0
 10
0.0
 20
0.0
 30
0.0
 11
-1.0
 21
0.1666666667
 31
0.0
 12
-1.0
 22
-0.1666666667
 32
0.0
 13
-1.0
 23
-0.1666666667
 33
0.0
  0
ENDBLK
  5
15CC
  8
0
  6
BYBLOCK
 62
     0
  0
ENDSEC
  0
SECTION
  2
ENTITIES
  0
ATTDEF
  5
10FF
  8
DEFPOINTS
 10
255.2388065655275966
 20
5.2395532587112204
 30
0.0
 40
0.001
  1
K-3900T-2
  3

  2
MODELNUMBER
 70
     0
1001
ACDBATTR
1070
     0
1070
     1
  0
ATTDEF
  5
1100
  8
DEFPOINTS
 10
255.2388065655275966
 20
5.2378865920445552
 30
0.0
 40
0.001
  1
NUMI
  3

  2
TRADENAME
 70
     0
1001
ACDBATTR
1070
     0
1070
     1
  0
ATTDEF
  5
1101
  8
DEFPOINTS
 10
255.2388065655275966
 20
5.23621992537789
 30
0.0
 40
0.001
  1
TOILET
  3

  2
PRODUCT
 70
     0
1001
ACDBATTR
1070
     0
1070
     1
  0
LINE
  5
1F7D
  8
0
 10
226.147406464358312
 20
20.5806561640877099
 30
0.0
 11
228.9735938098583006
 21
6.2980196747876986
 31
0.0
  0
LINE
  5
1F7E
  8
0
 10
225.7564606521324038
 20
22.7260703193650997
 30
0.0
 11
226.1339600140582888
 21
20.8057159938877092
 31
0.0
  0
LINE
  5
1F7F
  8
0
 10
230.2911445921589007
 20
5.240802633878924
 30
0.0
 11
243.3086762603589079
 21
5.2408026338788964
 31
0.0
  0
LINE
  5
1F80
  8
0
 10
243.3086762603589079
 20
5.2408026338788964
 30
0.0
 11
251.3559196533203988
 21
5.2408026338788964
 31
0.0
  0
LINE
  5
1F81
  8
0
 10
251.4149747405583071
 20
5.73816707779969
 30
0.0
 11
244.3199352856582891
 21
5.7381369827876973
 31
0.0
  0
LINE
  5
1F82
  8
0
 10
244.2805652069583005
 20
5.7381369851876967
 30
0.0
 11
243.7884392226582975
 21
5.738137015687701
 31
0.0
  0
LINE
  5
1F83
  8
0
 10
243.7766281990583082
 20
5.7381370163877001
 30
0.0
 11
243.6506439470583132
 21
5.738137024287699
 31
0.0
  0
LINE
  5
1F84
  8
0
 10
251.4149747405583071
 20
5.73816707779969
 30
0.0
 11
251.5888175870850887
 21
5.7381671675019286
 31
0.0
  0
LINE
  5
1F85
  8
0
 10
229.189770387086412
 20
6.1208026303788836
 30
0.0
 11
243.2686762600582995
 21
6.1208026303788836
 31
0.0
  0
LINE
  5
1F86
  8
0
 10
244.2881917901582938
 20
5.7401854553877056
 30
0.0
 11
244.3199352856582891
 21
5.7381369827876973
 31
0.0
  0
LINE
  5
1F87
  8
0
 10
243.488674762158297
 20
5.4199910219847736
 30
0.0
 11
243.488674762158297
 21
20.5826974801877114
 31
0.0
  0
LINE
  5
1F88
  8
0
 10
243.8246269447583074
 20
21.4974668291877116
 30
0.0
 11
243.8246273902620089
 21
21.851797125480271
 31
0.0
  0
LINE
  5
1F89
  8
0
 10
243.9438361287583064
 20
5.3588329195877007
 30
0.0
 11
243.9438361051583115
 21
5.7381370060877011
 31
0.0
  0
LINE
  5
1F8A
  8
0
 10
226.1339600140582888
 20
20.8057159938877092
 30
0.0
 11
226.1479003757582973
 21
20.8043401911877091
 31
0.0
  0
LINE
  5
1F8B
  8
0
 10
251.5887410583582948
 20
20.7297976460179214
 30
0.0
 11
243.4089933671359915
 21
20.7297488976932094
 31
0.0
  0
LINE
  5
1F8C
  8
0
 10
243.3731060263583004
 20
20.7428026303788791
 30
0.0
 11
226.2813293144583042
 21
20.7428026303788897
 31
0.0
  0
LINE
  5
1F8D
  8
0
 10
226.3672724799583023
 20
20.8043195119877105
 30
0.0
 11
243.3565206000583032
 21
20.8062048576877103
 31
0.0
  0
LINE
  5
1F8E
  8
0
 10
246.7380132042567027
 20
21.8517974093400618
 30
0.0
 11
246.7380127564582892
 21
21.4974666484877091
 31
0.0
  0
LINE
  5
1F8F
  8
0
 10
246.5214771236582862
 20
21.2809308398877093
 30
0.0
 11
244.0411621758582896
 21
21.2809309936877114
 31
0.0
  0
LINE
  5
1F90
  8
0
 10
244.0411622026223029
 20
22.0683338356868184
 30
0.0
 11
246.5214773770389058
 21
22.0683336818873492
 31
0.0
  0
LINE
  5
1F91
  8
0
 10
243.5272466937352078
 20
22.6664721173304891
 30
0.0
 11
251.5543414610174011
 21
22.6667338719999094
 31
0.0
  0
LINE
  5
1F92
  8
0
 10
225.9776830067582978
 20
22.9923201509999409
 30
0.0
 11
243.3494827251583104
 21
22.9923201509999409
 31
0.0
  0
LINE
  5
1F93
  8
0
 10
251.4149747405583071
 20
5.73816707779969
 30
0.0
 11
251.4149747677583093
 21
5.2997782648877019
 31
0.0
  0
LINE
  5
1F94
  8
0
 10
251.5888175870850887
 20
5.7381671675019286
 30
0.0
 11
251.5931804988786098
 21
22.6262765353667206
 31
0.0
  0
ARC
  5
1F95
  8
0
 10
243.268809886960895
 20
6.3406689701365986
 30
0.0
 40
0.2198663803643574
 50
269.9651777555963008
 51
0.0144238451682336
  0
ARC
  5
1F96
  8
0
 10
244.0618100487207869
 20
5.3587764885741818
 30
0.0
 40
0.1179739334589627
 50
179.9725934455451863
 51
270.0662075626199226
  0
ARC
  5
1F97
  8
0
 10
244.0411624258223924
 20
21.4974664747519988
 30
0.0
 40
0.2165354810644319
 50
179.9999062155081901
 51
269.9999338589232138
  0
ARC
  5
1F98
  8
0
 10
246.5214768728515082
 20
21.4974667234944192
 30
0.0
 40
0.2165358836068623
 50
270.0000663639343088
 51
359.9999801530892114
  0
ARC
  5
1F99
  8
0
 10
246.5214777711582883
 20
21.8517982487877092
 30
0.0
 40
0.2165354331
 50
359.9997778801997015
 51
90.0001042849005444
  0
ARC
  5
1F9A
  8
0
 10
244.0411628233582917
 20
21.8517984025877112
 30
0.0
 40
0.2165354331
 50
90.0001642481998374
 51
180.0003379255996094
  0
ARC
  5
1F9B
  8
0
 10
243.3397381355214861
 20
22.8023108066254103
 30
0.0
 40
0.1902590549142298
 50
2.2093272112920221
 51
87.0641699542117635
  0
CIRCLE
  5
1F9C
  8
0
 10
244.2477342985582993
 20
21.6692493344877093
 30
0.0
 40
0.2543536886856224
  0
CIRCLE
  5
1F9D
  8
0
 10
244.9368330276583094
 20
21.6747185960877111
 30
0.0
 40
0.2568426196000009
  0
CIRCLE
  5
1F9E
  8
0
 10
245.6258569098582996
 20
21.6714050334127002
 30
0.0
 40
0.2568164884756551
  0
CIRCLE
  5
1F9F
  8
0
 10
246.314785776458308
 20
21.6747185106377103
 30
0.0
 40
0.2544172336999968
  0
ARC
  5
1FA0
  8
0
 10
226.0601064961186069
 20
22.698806087802641
 30
0.0
 40
0.3048674087089667
 50
105.6855996342006989
 51
174.8691952058483139
  0
LINE
  5
1FA1
  8
0
 10
226.1479003757582973
 20
20.8043401911877091
 30
0.0
 11
226.3672724799583023
 21
20.8043195119877105
 31
0.0
  0
ARC
  5
1FA2
  8
0
 10
226.3116720476432135
 20
20.5813622421822195
 30
0.0
 40
0.1642671007786417
 50
100.6445648829653976
 51
180.2462782821770872
  0
ARC
  5
1FA3
  8
0
 10
227.1096810926009084
 20
20.1987859545902602
 30
0.0
 40
0.610853698045867
 50
62.9467541270769786
 51
82.4974347569697954
  0
ARC
  5
1FA4
  8
0
 10
229.2466986162316118
 20
20.2780764758107388
 30
0.0
 40
0.5676916716232787
 50
111.9507763224358996
 51
125.0526904337798015
  0
LINE
  5
1FA5
  8
0
 10
243.5298557621277951
 20
22.809645384352109
 30
0.0
 11
243.4933505122583028
 21
20.8064108573877107
 31
0.0
  0
LINE
  5
1FA6
  8
0
 10
243.4933505122583028
 20
20.8064108573877107
 30
0.0
 11
243.3565206000583032
 21
20.8062048576877103
 31
0.0
  0
ARC
  5
1FA7
  8
0
 10
229.1892488424365979
 20
6.340625452175483
 30
0.0
 40
0.2198234412958698
 50
191.1756927159891006
 51
270.1359378923535246
  0
LINE
  5
1FA8
  8
0
 10
230.0246147551538911
 20
5.3361329085259133
 30
0.0
 11
229.9653211279130005
 21
6.1171888405603614
 31
0.0
  0
LINE
  5
1FA9
  8
0
 10
230.0395716682174054
 20
5.3222696303999379
 30
0.0
 11
230.1449842891207993
 21
5.322340141556432
 31
0.0
  0
ARC
  5
1FAA
  8
0
 10
230.2964354019833877
 20
5.4220554886623686
 30
0.0
 40
0.1813300582798119
 50
183.8059103860483106
 51
268.3279986486318194
  0
ARC
  5
1FAB
  8
0
 10
243.3405981924105106
 20
20.5975744153511009
 30
0.0
 40
0.1488220202393969
 50
354.262867450948022
 51
77.3829114149106232
  0
ARC
  5
1FAC
  8
0
 10
243.3088103211553062
 20
5.4206683000595559
 30
0.0
 40
0.1798657161409872
 50
269.9572952605456067
 51
359.7842542326774833
  0
ARC
  5
1FAD
  8
0
 10
243.6445528980476922
 20
8.0574851495140827
 30
0.0
 40
2.3193561233387952
 50
266.1464260137962015
 51
270.150469261170997
  0
ARC
  5
1FAE
  8
0
 10
243.7825337008142128
 20
5.5686650316701529
 30
0.0
 40
0.1695748464693258
 50
88.0042446345640457
 51
91.995748573968271
  0
LINE
  5
1FAF
  8
0
 10
244.2805652069583005
 20
5.7381369851876967
 30
0.0
 11
244.2881917901582938
 21
5.7401854553877056
 31
0.0
  0
ARC
  5
1FB0
  8
0
 10
251.347584358123612
 20
5.3082043308307716
 30
0.0
 40
0.0679151374732642
 50
277.0497447893681056
 51
352.8730877858596955
  0
ARC
  5
1FB1
  8
0
 10
251.5546934435778041
 20
22.6282003712689885
 30
0.0
 40
0.03853510828198
 50
357.1383623105210745
 51
90.523351211712253
  0
ARC
  5
1FB3
  8
0
 10
242.6225064593338914
 20
20.1987859545902602
 30
0.0
 40
0.610853698045867
 50
97.5025652430301903
 51
117.0532458729230001
  0
ARC
  5
1FB4
  8
0
 10
240.4854889357031027
 20
20.2780764758107388
 30
0.0
 40
0.5676916716232787
 50
54.9473095662199924
 51
68.0492236775641146
  0
ARC
  5
1FB5
  8
0
 10
232.0044001479265035
 20
5.3742024680363363
 30
0.0
 40
0.0787048286164224
 50
179.9740355361772117
 51
270.1677880912255887
  0
LINE
  5
1FB6
  8
0
 10
231.925695327391395
 20
5.3742381343388583
 30
0.0
 11
231.9259534638036087
 21
5.9438676881628156
 31
0.0
  0
ARC
  5
1FB7
  8
0
 10
232.0049642666236878
 20
5.9435965484045514
 30
0.0
 40
0.0790112680511729
 50
90.0206493920770043
 51
179.8033800155191102
  0
LINE
  5
1FB8
  8
0
 10
232.0049357909728087
 20
6.0226078113244119
 30
0.0
 11
232.4521758255060035
 21
6.0226078401828094
 31
0.0
  0
ARC
  5
1FB9
  8
0
 10
232.5987084492415988
 20
5.9647159889964856
 30
0.0
 40
0.157554042323972
 50
97.8259109276359737
 51
158.442102360297298
  0
ARC
  5
1FBA
  8
0
 10
232.7822655545095927
 20
5.5420689913958041
 30
0.0
 40
0.0784794308279082
 50
178.1868190389745905
 51
270.1601914834540139
  0
LINE
  5
1FBB
  8
0
 10
232.7038254177178089
 20
5.5445521352008011
 30
0.0
 11
232.7148169124704964
 21
5.8917629371736426
 31
0.0
  0
ARC
  5
1FBC
  8
0
 10
232.7927812607383942
 20
5.889294855189978
 30
0.0
 40
0.0780034039610668
 50
88.7041312196739966
 51
178.1868190389755
  0
LINE
  5
1FBD
  8
0
 10
232.7945453271173903
 20
5.967278309199938
 30
0.0
 11
234.3074468890173989
 21
5.967278309199938
 31
0.0
  0
ARC
  5
1FBE
  8
0
 10
234.3076941777331115
 20
5.888806682679534
 30
0.0
 40
0.0784720161615949
 50
4.5264366937218412
 51
90.1805563801482322
  0
LINE
  5
1FBF
  8
0
 10
234.385921441717386
 20
5.8949996213999389
 30
0.0
 11
234.3977180252626056
 21
5.544552135124122
 31
0.0
  0
ARC
  5
1FC0
  8
0
 10
234.3192062727331972
 20
5.5421384136438556
 30
0.0
 40
0.0785488468191186
 50
269.8415208348146166
 51
1.7609148106074031
  0
LINE
  5
1FC1
  8
0
 10
234.3189890082173861
 20
5.4635898672999392
 30
0.0
 11
232.782484972417393
 21
5.4635898672999392
 31
0.0
  0
ARC
  5
1FC2
  8
0
 10
234.9977057367717919
 20
5.3732940222492811
 30
0.0
 40
0.0778021428563355
 50
269.2826669497807757
 51
0.7271844102486794
  0
LINE
  5
1FC3
  8
0
 10
235.0755016134955042
 20
5.3742814420376801
 30
0.0
 11
235.0752434770832906
 21
5.9439109958616392
 31
0.0
  0
ARC
  5
1FC4
  8
0
 10
234.9962326742630978
 20
5.9436398561033723
 30
0.0
 40
0.0790112680511729
 50
0.1966199844809029
 51
89.9793506079229957
  0
LINE
  5
1FC5
  8
0
 10
234.9962611499140905
 20
6.0226511190232346
 30
0.0
 11
234.5490211153808957
 21
6.0226511478816303
 31
0.0
  0
ARC
  5
1FC6
  8
0
 10
234.4022963307739928
 20
5.9646160020645222
 30
0.0
 40
0.1577854257146554
 50
21.5806520765621102
 51
81.836652145800926
  0
ARC
  5
1FC7
  8
0
 10
234.3198864692251959
 20
5.5420689913958041
 30
0.0
 40
0.0784794308279082
 50
269.8398085165458724
 51
1.81318096102538
  0
LINE
  5
1FC8
  8
0
 10
234.3983266060170081
 20
5.5445521352008011
 30
0.0
 11
234.3873351112642922
 21
5.8917629371736426
 31
0.0
  0
ARC
  5
1FC9
  8
0
 10
234.3093707629963944
 20
5.889294855189978
 30
0.0
 40
0.0780034039610668
 50
1.8131809610245411
 51
91.2958687803260034
  0
LINE
  5
1FCA
  8
0
 10
234.9967316931173968
 20
5.2954979768999388
 30
0.0
 11
232.0046306311174078
 21
5.2954979768999388
 31
0.0
  0
LINE
  5
1FCB
  8
0
 10
230.1155052442173883
 20
5.4100193743999387
 30
0.0
 11
230.076253263117394
 21
5.9824612443999401
 31
0.0
  0
ARC
  5
1FCC
  8
0
 10
229.9265026420895026
 20
5.9721929379493641
 30
0.0
 40
0.1501022538658619
 50
3.9225957652585111
 51
81.9133124825248302
  0
ARC
  5
1FCD
  8
0
 10
230.0395716219175029
 20
5.337269630399998
 30
0.0
 40
0.0150000000001315
 50
184.3461243547930053
 51
270.0001768524915065
  0
ARC
  5
1FCE
  8
0
 10
230.1231217475759081
 20
5.3622930125446731
 30
0.0
 40
0.0404819462384647
 50
191.037618142037303
 51
260.8941650562970267
  0
LINE
  5
1FCF
  8
0
 10
230.083388648756511
 20
5.354542604202682
 30
0.0
 11
230.040609937571304
 21
5.9174203831971894
 31
0.0
  0
ARC
  5
1FD0
  8
0
 10
229.9933584801298991
 20
5.9100349601139639
 30
0.0
 40
0.0478251471974146
 50
8.8834796544856545
 51
109.2147257450331068
  0
ARC
  5
1FD1
  8
0
 10
250.9258583213330098
 20
8.3454447472850948
 30
0.0
 40
0.7225672053610187
 50
336.6839107934508775
 51
23.2864853685913609
  0
ARC
  5
1FD2
  8
0
 10
251.9039210105173083
 20
8.8224602265999792
 30
0.0
 40
0.3149606298999163
 50
137.067403970938102
 51
176.2921903091908007
  0
ARC
  5
1FD3
  8
0
 10
251.9148862851872082
 20
8.8122590333600943
 30
0.0
 40
0.329937331542929
 50
118.3854975643239982
 51
137.0674039709394947
  0
ARC
  5
1FD4
  8
0
 10
251.6289404908841902
 20
8.9812045650336199
 30
0.0
 40
0.1771561829690131
 50
43.2227776612968171
 51
90.0003164553216379
  0
ARC
  5
1FD5
  8
0
 10
251.6093204431882953
 20
10.85151576878493
 30
0.0
 40
1.6932686828400281
 50
269.3361202165244777
 51
270.6638727974411154
  0
ARC
  5
1FD6
  8
0
 10
251.9244132862066863
 20
21.7250524934754417
 30
0.0
 40
0.353870374118646
 50
119.8862528625032979
 51
142.6521056330300041
  0
ARC
  5
1FD7
  8
0
 10
251.6225002545616007
 20
21.9193945747376802
 30
0.0
 40
0.1685862966882266
 50
41.8460941577307324
 51
86.6744864542194762
  0
ARC
  5
1FD8
  8
0
 10
251.6126606367130876
 20
23.7808520071564509
 30
0.0
 40
1.6932686828400281
 50
269.3361202165244777
 51
270.6638727974411154
  0
ARC
  5
1FD9
  8
0
 10
251.600685342452806
 20
21.9246446664545083
 30
0.0
 40
0.0196850299454278
 50
89.9999893336657664
 51
112.967967893864099
  0
ARC
  5
1FDA
  8
0
 10
251.6005756776266082
 20
-567.1561127351427558
 30
0.0
 40
589.1004424315528922
 50
89.9953943834537569
 51
89.9999893336657664
  0
ARC
  5
1FDB
  8
0
 10
251.647929123746195
 20
21.9403904683044289
 30
0.0
 40
0.0039373248955971
 50
0.0322674440666183
 51
89.9953943834325827
  0
LINE
  5
1FDC
  8
0
 10
251.6518664480173868
 20
21.9403926856999405
 30
0.0
 11
251.6518575806983904
 21
21.4916131651832387
 31
0.0
  0
ARC
  5
1FDD
  8
0
 10
251.6558426513018105
 20
21.4916614701279407
 30
0.0
 40
0.0039853633563519
 50
180.6944755054425968
 51
269.7123406065172162
  0
LINE
  5
1FDE
  8
0
 10
251.6558226424565987
 20
21.4876761569999388
 30
0.0
 11
251.6715706739215932
 21
21.4876761565999388
 31
0.0
  0
ARC
  5
1FDF
  8
0
 10
251.6714803468975106
 20
21.4679209815108507
 30
0.0
 40
0.0197553815901372
 50
0.0844721554755926
 51
89.7380270655042551
  0
LINE
  5
1FE0
  8
0
 10
251.6912357070173982
 20
21.4679501071999397
 30
0.0
 11
251.6912456455818869
 21
21.3897101618257288
 31
0.0
  0
ARC
  5
1FE1
  8
0
 10
251.6715566189311062
 20
21.3892400519819113
 30
0.0
 40
0.0196946381972545
 50
270.0117662478244256
 51
1.36777676155839
  0
LINE
  5
1FE2
  8
0
 10
251.6715606634174094
 20
21.3695454141999406
 30
0.0
 11
251.6203773676629112
 21
21.3695454174000794
 31
0.0
  0
ARC
  5
1FE3
  8
0
 10
251.6203795615431886
 20
21.3892304569036291
 30
0.0
 40
0.0196850396258098
 50
180.0000003017908909
 51
269.9936144360556227
  0
ARC
  5
1FE4
  8
0
 10
250.5887436771172077
 20
21.5582352140999411
 30
0.0
 40
1.0236220472001269
 50
348.7948686870448114
 51
11.1755274749950999
  0
LINE
  5
1FE5
  8
0
 10
251.6006945258174028
 20
21.38923046179994
 30
0.0
 11
251.6006875180503926
 21
21.4040542869016903
 31
0.0
  0
LINE
  5
1FE6
  8
0
 10
227.8466400178174069
 20
6.7285688429999393
 30
0.0
 11
228.8308919863173969
 21
6.7285688429999393
 31
0.0
  0
LINE
  5
1FE7
  8
0
 10
227.8466400178174069
 20
6.6498532492649272
 30
0.0
 11
228.9039742557027068
 21
6.6498543775134946
 31
0.0
  0
LINE
  5
1FE8
  8
0
 10
228.8308919863173969
 20
6.7285688429999393
 30
0.0
 11
228.8308919864174129
 21
6.7088838035999379
 31
0.0
  0
ARC
  5
1FE9
  8
0
 10
228.8702620653174051
 20
6.7088838037999423
 30
0.0
 40
0.0393700789000029
 50
180.0000002910676073
 51
269.9999997089319095
  0
LINE
  5
1FEA
  8
0
 10
228.8702620651174016
 20
6.6695137248999394
 30
0.0
 11
228.9000225424022972
 21
6.6695137247487528
 31
0.0
  0
LINE
  5
1FEB
  8
0
 10
227.8466400178174069
 20
6.6498286854999398
 30
0.0
 11
227.8466400178174069
 21
6.7285688429999393
 31
0.0
  0
LINE
  5
1FEC
  8
0
 10
229.9710090119187953
 20
6.042264169053909
 30
0.0
 11
229.5898683643173968
 21
6.0422696303999368
 31
0.0
  0
LINE
  5
1FED
  8
0
 10
229.5898683643173968
 20
6.0422696303999368
 30
0.0
 11
229.5898683643173968
 21
6.1072696303999381
 31
0.0
  0
ARC
  5
1FEE
  8
0
 10
229.6048683643174115
 20
6.1072696303999381
 30
0.0
 40
0.014999999999997
 50
115.551228829026897
 51
179.9999999999930935
  0
ARC
  5
1FEF
  8
0
 10
251.4347751994392013
 20
22.4430562586176698
 30
0.0
 40
0.1583689474636202
 50
0.6601014366276373
 51
89.8669212076919734
  0
LINE
  5
1FF0
  8
0
 10
251.4351430368174078
 20
22.6014247788999398
 30
0.0
 11
243.5260610360186888
 21
22.6014088597614595
 31
0.0
  0
ENDSEC
  0
EOF
