  0
SECTION
  2
HEADER
  9
$ACADVER
  1
AC1009
  9
$INSBASE
 10
264.3122009603027891
 20
5.6602543829384864
 30
0.0
  9
$EXTMIN
 10
257.0760711020611211
 20
5.6544927847459538
 30
-0.0000000349181948
  9
$EXTMAX
 10
271.5576539829443163
 20
23.4132009720440202
 30
0.0000000814935746
  9
$LIMMIN
 10
0.0
 20
0.0
  9
$LIMMAX
 10
11.6929133858000007
 20
8.2677165353999982
  9
$ORTHOMODE
 70
     0
  9
$REGENMODE
 70
     1
  9
$FILLMODE
 70
     1
  9
$QTEXTMODE
 70
     0
  9
$MIRRTEXT
 70
     0
  9
$DRAGMODE
 70
     2
  9
$LTSCALE
 40
0.6431102362
  9
$OSMODE
 70
     7
  9
$ATTMODE
 70
     1
  9
$TEXTSIZE
 40
0.2
  9
$TRACEWID
 40
0.05
  9
$TEXTSTYLE
  7
STANDARD
  9
$CLAYER
  8
0
  9
$CELTYPE
  6
BYLAYER
  9
$CECOLOR
 62
   256
  9
$DIMSCALE
 40
1.0
  9
$DIMASZ
 40
0.1875
  9
$DIMEXO
 40
0.0625
  9
$DIMDLI
 40
0.4443307087
  9
$DIMRND
 40
0.0
  9
$DIMDLE
 40
0.0
  9
$DIMEXE
 40
0.125
  9
$DIMTP
 40
0.01
  9
$DIMTM
 40
0.01
  9
$DIMTXT
 40
1.0
  9
$DIMCEN
 40
0.1052362205
  9
$DIMTSZ
 40
0.0
  9
$DIMTOL
 70
     1
  9
$DIMLIM
 70
     0
  9
$DIMTIH
 70
     1
  9
$DIMTOH
 70
     1
  9
$DIMSE1
 70
     0
  9
$DIMSE2
 70
     0
  9
$DIMTAD
 70
     0
  9
$DIMZIN
 70
     0
  9
$DIMBLK
  1

  9
$DIMASO
 70
     1
  9
$DIMSHO
 70
     1
  9
$DIMPOST
  1
\X
  9
$DIMAPOST
  1

  9
$DIMALT
 70
     1
  9
$DIMALTD
 70
     2
  9
$DIMALTF
 40
25.3999999999999986
  9
$DIMLFAC
 40
1.0
  9
$DIMTOFL
 70
     0
  9
$DIMTVP
 40
0.0
  9
$DIMTIX
 70
     0
  9
$DIMSOXD
 70
     0
  9
$DIMSAH
 70
     0
  9
$DIMBLK1
  1

  9
$DIMBLK2
  1

  9
$DIMSTYLE
  2
STANDARD
  9
$DIMCLRD
 70
     0
  9
$DIMCLRE
 70
     0
  9
$DIMCLRT
 70
     0
  9
$DIMTFAC
 40
1.0
  9
$DIMGAP
 40
0.09
  9
$LUNITS
 70
     2
  9
$LUPREC
 70
     4
  9
$SKETCHINC
 40
0.1
  9
$FILLETRAD
 40
0.0
  9
$AUNITS
 70
     0
  9
$AUPREC
 70
     0
  9
$MENU
  1
.
  9
$ELEVATION
 40
0.0
  9
$PELEVATION
 40
0.0
  9
$THICKNESS
 40
0.0
  9
$LIMCHECK
 70
     0
  9
$BLIPMODE
 70
     0
  9
$CHAMFERA
 40
0.0
  9
$CHAMFERB
 40
0.0
  9
$SKPOLY
 70
     0
  9
$TDCREATE
 40
2458213.4540277780033648
  9
$TDUPDATE
 40
2459374.6375231482088566
  9
$TDINDWG
 40
0.1560725231
  9
$TDUSRTIMER
 40
0.1560725231
  9
$USRTIMER
 70
     1
  9
$ANGBASE
 50
0.0
  9
$ANGDIR
 70
     0
  9
$PDMODE
 70
     0
  9
$PDSIZE
 40
0.3125
  9
$PLINEWID
 40
0.0
  9
$COORDS
 70
     1
  9
$SPLFRAME
 70
     0
  9
$SPLINETYPE
 70
     6
  9
$SPLINESEGS
 70
     8
  9
$ATTDIA
 70
     1
  9
$ATTREQ
 70
     1
  9
$HANDLING
 70
     1
  9
$HANDSEED
  5
2119
  9
$SURFTAB1
 70
     6
  9
$SURFTAB2
 70
     6
  9
$SURFTYPE
 70
     6
  9
$SURFU
 70
     6
  9
$SURFV
 70
     6
  9
$UCSNAME
  2

  9
$UCSORG
 10
0.0
 20
0.0
 30
0.0
  9
$UCSXDIR
 10
1.0
 20
0.0
 30
0.0
  9
$UCSYDIR
 10
0.0
 20
1.0
 30
0.0
  9
$PUCSNAME
  2

  9
$PUCSORG
 10
0.0
 20
0.0
 30
0.0
  9
$PUCSXDIR
 10
1.0
 20
0.0
 30
0.0
  9
$PUCSYDIR
 10
0.0
 20
1.0
 30
0.0
  9
$USERI1
 70
     0
  9
$USERI2
 70
     0
  9
$USERI3
 70
     0
  9
$USERI4
 70
     0
  9
$USERI5
 70
     0
  9
$USERR1
 40
0.0
  9
$USERR2
 40
0.0
  9
$USERR3
 40
0.0
  9
$USERR4
 40
0.0
  9
$USERR5
 40
0.0
  9
$WORLDVIEW
 70
     1
  9
$SHADEDGE
 70
     3
  9
$SHADEDIF
 70
    70
  9
$TILEMODE
 70
     1
  9
$MAXACTVP
 70
    64
  9
$PLIMCHECK
 70
     0
  9
$PEXTMIN
 10
1.0000000000000000E+20
 20
1.0000000000000000E+20
 30
1.0000000000000000E+20
  9
$PEXTMAX
 10
-1.0000000000000000E+20
 20
-1.0000000000000000E+20
 30
-1.0000000000000000E+20
  9
$PLIMMIN
 10
0.0
 20
0.0
  9
$PLIMMAX
 10
12.0
 20
9.0
  9
$UNITMODE
 70
     0
  9
$VISRETAIN
 70
     1
  9
$PLINEGEN
 70
     0
  9
$PSLTSCALE
 70
     1
  0
ENDSEC
  0
SECTION
  2
TABLES
  0
TABLE
  2
VPORT
 70
     1
  0
VPORT
  2
*ACTIVE
 70
     0
 10
0.0
 20
0.0
 11
1.0
 21
1.0
 12
0.0046677182839385
 22
0.0004436826032883
 13
0.0
 23
0.0
 14
1.0
 24
1.0
 15
0.0
 25
0.0
 16
0.0
 26
0.0
 36
95.0630680361750677
 17
264.3121948242188068
 27
14.5334031957916991
 37
0.0
 40
17.89513872394825
 41
2.3461538461538458
 42
50.0
 43
0.0
 44
0.0
 50
0.0
 51
0.0
 71
     0
 72
   100
 73
     1
 74
     1
 75
     0
 76
     0
 77
     0
 78
     0
  0
ENDTAB
  0
TABLE
  2
LTYPE
 70
     2
  0
LTYPE
  2
CONTINUOUS
 70
     0
  3
Solid line
 72
    65
 73
     0
 40
0.0
  0
LTYPE
  2
PHANTOM2
 70
     0
  3
___ _ _ ___ _ _ ___ _ _ ___ _ _
 72
    65
 73
     6
 40
1.25
 49
0.625
 49
-0.125
 49
0.125
 49
-0.125
 49
0.125
 49
-0.125
  0
ENDTAB
  0
TABLE
  2
LAYER
 70
     2
  0
LAYER
  2
0
 70
     0
 62
   255
  6
CONTINUOUS
  0
LAYER
  2
DEFPOINTS
 70
     0
 62
     7
  6
CONTINUOUS
  0
ENDTAB
  0
TABLE
  2
STYLE
 70
     1
  0
STYLE
  2
STANDARD
 70
     0
 40
0.0
 41
0.8
 50
0.0
 71
     0
 42
0.2
  3
txt
  4

  0
ENDTAB
  0
TABLE
  2
VIEW
 70
     0
  0
ENDTAB
  0
TABLE
  2
UCS
 70
     0
  0
ENDTAB
  0
TABLE
  2
APPID
 70
    10
  0
APPID
  2
ACAD
 70
     0
  0
APPID
  2
ACAD_MLEADERVER
 70
     0
  0
APPID
  2
ACAD_EXEMPT_FROM_CAD_STANDARDS
 70
     0
  0
APPID
  2
ACAD_DSTYLE_DIMJAG
 70
     0
  0
APPID
  2
ACAD_DSTYLE_DIMTALN
 70
     0
  0
APPID
  2
ACAD_NAV_VCDISPLAY
 70
     0
  0
APPID
  2
ACAECLAYERSTANDARD
 70
     0
  0
APPID
  2
ACCMTRANSPARENCY
 70
     0
  0
APPID
  2
ACDBATTR
 70
     0
  0
APPID
  2
DCO15
 70
     0
  0
ENDTAB
  0
TABLE
  2
DIMSTYLE
 70
     1
  0
DIMSTYLE
  2
STANDARD
 70
     0
  3

  4

  5

  6

  7

 40
1.0
 41
0.1875
 42
0.0625
 43
0.38
 44
0.125
 45
0.0
 46
0.0
 47
0.01
 48
0.01
140
0.15625
141
0.09
142
0.0
143
25.3999999999999986
144
1.0
145
0.0
146
1.0
147
0.09
 71
     1
 72
     0
 73
     1
 74
     1
 75
     0
 76
     0
 77
     0
 78
     4
170
     0
171
     2
172
     0
173
     0
174
     0
175
     0
176
     0
177
     0
178
     0
  0
ENDTAB
  0
ENDSEC
  0
SECTION
  2
BLOCKS
  0
BLOCK
  8
0
  2
$MODEL_SPACE
 70
     0
 10
0.0
 20
0.0
 30
0.0
  3
$MODEL_SPACE
  1

  0
ENDBLK
  5
21
  8
0
  0
BLOCK
 67
     1
  8
0
  2
$PAPER_SPACE
 70
     0
 10
0.0
 20
0.0
 30
0.0
  3
$PAPER_SPACE
  1

  0
ENDBLK
  5
1D
 67
     1
  8
0
  0
BLOCK
  8
0
  2
_FILLED
 70
     0
 10
0.0
 20
0.0
 30
0.0
  3
_FILLED
  1

  0
SOLID
  5
15CB
  8
0
  6
BYBLOCK
 62
     0
 10
0.0
 20
0.0
 30
0.0
 11
-1.0
 21
0.1666666667
 31
0.0
 12
-1.0
 22
-0.1666666667
 32
0.0
 13
-1.0
 23
-0.1666666667
 33
0.0
  0
ENDBLK
  5
15CC
  8
0
  6
BYBLOCK
 62
     0
  0
ENDSEC
  0
SECTION
  2
ENTITIES
  0
ATTDEF
  5
10FF
  8
DEFPOINTS
 10
264.3128850762182083
 20
5.6583679506247391
 30
0.0
 40
0.001
  1
K-3900X-2
  3

  2
MODELNUMBER
 70
     0
1001
ACDBATTR
1070
     0
1070
     1
  0
ATTDEF
  5
1100
  8
DEFPOINTS
 10
264.3128850762182083
 20
5.6567012839580739
 30
0.0
 40
0.001
  1
NUMI
  3

  2
TRADENAME
 70
     0
1001
ACDBATTR
1070
     0
1070
     1
  0
ATTDEF
  5
1101
  8
DEFPOINTS
 10
264.3128850762182083
 20
5.6550346172914088
 30
0.0
 40
0.001
  1
TOILET
  3

  2
PRODUCT
 70
     0
1001
ACDBATTR
1070
     0
1070
     1
  0
LINE
  5
1A48
  8
0
 10
258.3406173856308214
 20
6.5402543794384833
 30
0.0
 11
270.2799601294307763
 21
6.5402543794384833
 31
0.0
  0
LINE
  5
1A49
  8
0
 10
257.230419926430784
 20
20.9999973217384905
 30
0.0
 11
258.1210455179307814
 21
6.7465359881384863
 31
0.0
  0
LINE
  5
1A4A
  8
0
 10
258.8258903630307941
 20
6.2652565379384866
 30
0.0
 11
258.8763855903308126
 21
5.8199306782384879
 31
0.0
  0
LINE
  5
1A4B
  8
0
 10
270.4995316572308184
 20
6.7465305492384893
 30
0.0
 11
271.3901575886308137
 21
20.9999973217384905
 31
0.0
  0
LINE
  5
1A4C
  8
0
 10
269.7440962613563897
 20
5.8200579506557686
 30
0.0
 11
269.7947113367308134
 21
6.265253771138493
 31
0.0
  0
LINE
  5
1A4D
  8
0
 10
271.2544138017307773
 20
21.1622543794384796
 30
0.0
 11
257.3661637133308204
 21
21.1622543794384796
 31
0.0
  0
LINE
  5
1A4E
  8
0
 10
257.2304560417308039
 20
21.22771450693849
 30
0.0
 11
257.2519970080307985
 21
21.2267902758384892
 31
0.0
  0
ARC
  5
1A4F
  8
0
 10
258.3406117474876851
 20
6.7602483764552526
 30
0.0
 40
0.2199939970890187
 50
183.5736047867181924
 51
270.0014684118908121
  0
ARC
  5
1A50
  8
0
 10
258.3823327298745198
 20
6.1310347490865267
 30
0.0
 40
0.4634208266078027
 50
16.8359628877790897
 51
62.011412425325922
  0
ARC
  5
1A51
  8
0
 10
259.0522245163493835
 20
5.8367311301645897
 30
0.0
 40
0.1766396985060571
 50
185.4577325418694898
 51
267.5387498636681016
  0
ARC
  5
1A52
  8
0
 10
270.2799601392147792
 20
6.7602543739070269
 30
0.0
 40
0.2199999944685422
 50
269.9999974518922272
 51
356.4235085214693868
  0
ARC
  5
1A53
  8
0
 10
270.1476705996482792
 20
6.1985796548312591
 30
0.0
 40
0.3592014463565128
 50
107.9721836920319049
 51
169.3028570944067894
  0
ARC
  5
1A54
  8
0
 10
269.5447292245431186
 20
5.863189214495395
 30
0.0
 40
0.2039792177848859
 50
275.8004369812217078
 51
347.7927012506087863
  0
LINE
  5
1A55
  8
0
 10
269.5653441567308164
 20
5.6602543829384864
 30
0.0
 11
259.0446389526387065
 21
5.6602543829384864
 31
0.0
  0
LINE
  5
1A56
  8
0
 10
257.3035336819343115
 20
23.4117719000595201
 30
0.0
 11
271.3421711551308135
 21
23.4117719000595486
 31
0.0
  0
ARC
  5
1A57
  8
0
 10
271.2942863727014924
 20
23.1696590449599888
 30
0.0
 40
0.2468027289005346
 50
0.5206117025614445
 51
78.8124919079037909
  0
LINE
  5
1A58
  8
0
 10
271.5410789133528056
 20
23.1719015595384903
 30
0.0
 11
271.3913967562307903
 21
21.2248005911384894
 31
0.0
  0
LINE
  5
1A59
  8
0
 10
271.3913967562307903
 20
21.2248005911384894
 30
0.0
 11
271.3681346163867261
 21
21.2238495713671504
 31
0.0
  0
LINE
  5
1A5A
  8
0
 10
271.3681346163867261
 20
21.2238495713671504
 30
0.0
 11
257.2519970080307985
 21
21.2267902758384892
 31
0.0
  0
ARC
  5
1A5B
  8
0
 10
257.3382005425784769
 20
23.1587475535044405
 30
0.0
 40
0.2553881578627925
 50
97.8015195721619364
 51
176.3762383114793977
  0
ARC
  5
1A5C
  8
0
 10
258.3088750493391785
 20
21.2591961823698803
 30
0.0
 40
0.0991125122592015
 50
199.2072112036665885
 51
257.9864857823470174
  0
ARC
  5
1A5D
  8
0
 10
260.2076726353344043
 20
20.6866855911499101
 30
0.0
 40
0.5832726117795929
 50
112.336134386706803
 51
125.3784464193465027
  0
ARC
  5
1A5E
  8
0
 10
257.3938232097339096
 20
21.0012045651276509
 30
0.0
 40
0.1634077428729325
 50
99.7451886876257134
 51
180.4233005062980055
  0
ARC
  5
1A5F
  8
0
 10
271.2268500106052898
 20
21.0012846318870814
 30
0.0
 40
0.1633126517082359
 50
359.5483619824228185
 51
80.2831488236494266
  0
ARC
  5
1A60
  8
0
 10
270.1798029957491281
 20
21.5818000974840807
 30
0.0
 40
0.423446190685243
 50
277.7827138700430964
 51
302.3437145361002081
  0
ARC
  5
1A61
  8
0
 10
268.3675554992375965
 20
20.6143795523754889
 30
0.0
 40
0.6663442602088204
 50
55.3066259088481402
 51
66.2770664873762456
  0
LINE
  5
1A62
  8
0
 10
257.0833230072527726
 20
23.1748892127384991
 30
0.0
 11
257.2304560417308039
 21
21.22771450693849
 31
0.0
  0
ARC
  5
1A64
  8
0
 10
260.1920093267054881
 20
5.7717200361873564
 30
0.0
 40
0.0299986567329805
 50
179.9974252564967969
 51
270.0010628791631007
  0
LINE
  5
1A65
  8
0
 10
260.1620106700027009
 20
5.7717213842595383
 30
0.0
 11
260.1620104550028145
 21
6.3593680917595368
 31
0.0
  0
ARC
  5
1A66
  8
0
 10
260.1925600785845063
 20
6.3602101023790132
 30
0.0
 40
0.0305612251532846
 50
91.0315727320311794
 51
181.5787901236240884
  0
LINE
  5
1A67
  8
0
 10
260.1920098736027853
 20
6.3907663743595382
 30
0.0
 11
260.3617402233027747
 21
6.3907668036595382
 31
0.0
  0
ARC
  5
1A68
  8
0
 10
260.3616298147838961
 20
6.8959271558988577
 30
0.0
 40
0.5051603643048367
 50
270.0125226416275837
 51
289.9047043713475773
  0
LINE
  5
1A69
  8
0
 10
260.5336150722027924
 20
6.4209449826595382
 30
0.0
 11
260.8194990121027104
 21
6.5247395557595373
 31
0.0
  0
ARC
  5
1A6A
  8
0
 10
260.9079782083678083
 20
6.2802269016017309
 30
0.0
 40
0.2600288565043991
 50
90.1865764567566259
 51
109.8931319881107953
  0
ARC
  5
1A6B
  8
0
 10
261.1620098830451866
 20
6.0017213793205224
 30
0.0
 40
0.1799999998609847
 50
182.8625812540362858
 51
270.0000000183297857
  0
LINE
  5
1A6C
  8
0
 10
260.9822344898028064
 20
5.9927320559595376
 30
0.0
 11
260.982009883102819
 21
6.2813608615521641
 31
0.0
  0
ARC
  5
1A6D
  8
0
 10
261.1620101381387258
 20
6.2817207646182158
 30
0.0
 40
0.1800006148412583
 50
90.0000265190802082
 51
180.1145603890107054
  0
LINE
  5
1A6E
  8
0
 10
264.3658344533027957
 20
5.8609066476595384
 30
0.0
 11
264.2581865664027987
 21
5.8609067301595381
 31
0.0
  0
ARC
  5
1A6F
  8
0
 10
264.2581865664027987
 20
5.8759089838437273
 30
0.0
 40
0.0150022536841892
 50
210.0053341860025
 51
269.9999999999968168
  0
LINE
  5
1A70
  8
0
 10
264.2451949320027893
 20
5.8684066474595378
 30
0.0
 11
264.1913480764873157
 21
5.9616520878960966
 31
0.0
  0
ARC
  5
1A71
  8
0
 10
264.2043313924543781
 20
5.9691496205981931
 30
0.0
 40
0.0149926478689234
 50
149.9271727251993127
 51
210.0053341860007095
  0
LINE
  5
1A72
  8
0
 10
264.1913569174114969
 20
5.9766624421375401
 30
0.0
 11
264.2451949320027893
 21
6.0699129873595377
 31
0.0
  0
ARC
  5
1A73
  8
0
 10
264.2581854985658083
 20
6.0624122941530123
 30
0.0
 40
0.0150005072649541
 50
89.9875236610973559
 51
149.9980612476290958
  0
LINE
  5
1A74
  8
0
 10
264.2581887649740793
 20
6.0774128010623301
 30
0.0
 11
264.3658344533027957
 21
6.0774129871595379
 31
0.0
  0
ARC
  5
1A75
  8
0
 10
264.3658338425851184
 20
6.0624120940406083
 30
0.0
 40
0.0150008931313625
 50
29.9898035454679501
 51
89.9976673689549642
  0
LINE
  5
1A76
  8
0
 10
264.3788263317027827
 20
6.0699102285595377
 30
0.0
 11
264.4326628488935853
 21
5.9766624421383776
 31
0.0
  0
ARC
  5
1A77
  8
0
 10
264.4196738119642873
 20
5.969159713980285
 30
0.0
 40
0.0150002003375012
 50
329.9890927081199266
 51
30.0115916139435512
  0
LINE
  5
1A78
  8
0
 10
264.4326629385028014
 20
5.961657140959538
 30
0.0
 11
264.3788248342028169
 21
5.868406647459536
 31
0.0
  0
ARC
  5
1A79
  8
0
 10
264.3658337606102009
 20
5.8759078473667321
 30
0.0
 40
0.0150011997231865
 50
270.0026456790645284
 51
329.9973535965489759
  0
LINE
  5
1A7A
  8
0
 10
264.3658344533027957
 20
6.0909066884554939
 30
0.0
 11
264.2581865664027987
 21
6.0909067709554936
 31
0.0
  0
ARC
  5
1A7B
  8
0
 10
264.2581865664027987
 20
6.1059090246396828
 30
0.0
 40
0.0150022536841892
 50
210.0053341860025
 51
269.9999999999968168
  0
LINE
  5
1A7C
  8
0
 10
264.2451949320027893
 20
6.098406688255495
 30
0.0
 11
264.1913480764873157
 21
6.1916521286920529
 31
0.0
  0
ARC
  5
1A7D
  8
0
 10
264.2043313924543781
 20
6.1991496613941486
 30
0.0
 40
0.0149926478689234
 50
149.9271727251993127
 51
210.0053341860007095
  0
LINE
  5
1A7E
  8
0
 10
264.1913569174114969
 20
6.2066624829334964
 30
0.0
 11
264.2451949320027893
 21
6.299913028155494
 31
0.0
  0
ARC
  5
1A7F
  8
0
 10
264.2581854985658083
 20
6.2924123349489678
 30
0.0
 40
0.0150005072649541
 50
89.9875236610973559
 51
149.9980612476290958
  0
LINE
  5
1A80
  8
0
 10
264.2581887649740793
 20
6.3074128418582873
 30
0.0
 11
264.3658344533027957
 21
6.3074130279554952
 31
0.0
  0
ARC
  5
1A81
  8
0
 10
264.3658338425851184
 20
6.2924121348365638
 30
0.0
 40
0.0150008931313625
 50
29.9898035454679501
 51
89.9976673689549642
  0
LINE
  5
1A82
  8
0
 10
264.3788263317027827
 20
6.299910269355494
 30
0.0
 11
264.4326628488935853
 21
6.206662482934334
 31
0.0
  0
ARC
  5
1A83
  8
0
 10
264.4196738119642873
 20
6.1991597547762423
 30
0.0
 40
0.0150002003375012
 50
329.9890927081199266
 51
30.0115916139435512
  0
LINE
  5
1A84
  8
0
 10
264.4326629385028014
 20
6.1916571817554953
 30
0.0
 11
264.3788248342028169
 21
6.0984066882554933
 31
0.0
  0
ARC
  5
1A85
  8
0
 10
264.3658337606102009
 20
6.1059078881626876
 30
0.0
 40
0.0150011997231865
 50
270.0026456790645284
 51
329.9973535965489759
  0
LINE
  5
1A86
  8
0
 10
264.3658344533027957
 20
6.3209066981554951
 30
0.0
 11
264.2581865664027987
 21
6.3209067806554948
 31
0.0
  0
ARC
  5
1A87
  8
0
 10
264.2581865664027987
 20
6.335909034339684
 30
0.0
 40
0.0150022536841892
 50
210.0053341860025
 51
269.9999999999968168
  0
LINE
  5
1A88
  8
0
 10
264.2451949320027893
 20
6.3284066979554963
 30
0.0
 11
264.1913480764873157
 21
6.4216521383920551
 31
0.0
  0
ARC
  5
1A89
  8
0
 10
264.2043313924543781
 20
6.4291496710941498
 30
0.0
 40
0.0149926478689234
 50
149.9271727251993127
 51
210.0053341860007095
  0
LINE
  5
1A8A
  8
0
 10
264.1913569174114969
 20
6.4366624926334968
 30
0.0
 11
264.205824615282495
 21
6.4617213794594548
 31
0.0
  0
LINE
  5
1A8B
  8
0
 10
264.418195125389218
 20
6.4617213794594548
 30
0.0
 11
264.4326628488935853
 21
6.4366624926343361
 31
0.0
  0
ARC
  5
1A8C
  8
0
 10
264.4196738119642873
 20
6.4291597644762426
 30
0.0
 40
0.0150002003375012
 50
329.9890927081199266
 51
30.0115916139435512
  0
LINE
  5
1A8D
  8
0
 10
264.4326629385028014
 20
6.4216571914554956
 30
0.0
 11
264.3788248342028169
 21
6.3284066979554936
 31
0.0
  0
ARC
  5
1A8E
  8
0
 10
264.3658337606102009
 20
6.3359078978626888
 30
0.0
 40
0.0150011997231865
 50
270.0026456790645284
 51
329.9973535965489759
  0
LINE
  5
1A8F
  8
0
 10
264.0057449133533964
 20
5.8217213794595368
 30
0.0
 11
263.9913480700873265
 21
5.8466520829961874
 31
0.0
  0
ARC
  5
1A90
  8
0
 10
264.0043313860545027
 20
5.8541496156982831
 30
0.0
 40
0.0149926478689234
 50
149.9271727251993127
 51
210.0053341860007095
  0
LINE
  5
1A91
  8
0
 10
263.9913569110116214
 20
5.86166243723763
 30
0.0
 11
264.0451949256028001
 21
5.9549129824596276
 31
0.0
  0
ARC
  5
1A92
  8
0
 10
264.0581854921658191
 20
5.9474122892531023
 30
0.0
 40
0.0150005072649541
 50
89.9875236610973559
 51
149.9980612476290958
  0
LINE
  5
1A93
  8
0
 10
264.0581887585740901
 20
5.96241279616242
 30
0.0
 11
264.1658344469028066
 21
5.9624129822596279
 31
0.0
  0
ARC
  5
1A94
  8
0
 10
264.1658338361850724
 20
5.9474120891406983
 30
0.0
 40
0.0150008931313625
 50
29.9898035454679501
 51
89.9976673689549642
  0
LINE
  5
1A95
  8
0
 10
264.1788263253029072
 20
5.9549102236596276
 30
0.0
 11
264.2326628424937098
 21
5.8616624372384676
 31
0.0
  0
ARC
  5
1A96
  8
0
 10
264.2196738055642982
 20
5.854159709080375
 30
0.0
 40
0.0150002003375012
 50
329.9890927081199266
 51
30.0115916139435512
  0
LINE
  5
1A97
  8
0
 10
264.2326629321028122
 20
5.846657136059628
 30
0.0
 11
264.2182662912460955
 21
5.8217213794595377
 31
0.0
  0
LINE
  5
1A98
  8
0
 10
264.1658344469028066
 20
5.9759066835555839
 30
0.0
 11
264.0581865600028095
 21
5.9759067660555836
 31
0.0
  0
ARC
  5
1A99
  8
0
 10
264.0581865600028095
 20
5.9909090197397727
 30
0.0
 40
0.0150022536841892
 50
210.0053341860023863
 51
269.9999999999968168
  0
LINE
  5
1A9A
  8
0
 10
264.0451949256028001
 20
5.983406683355585
 30
0.0
 11
263.9913480700873265
 21
6.0766521237921429
 31
0.0
  0
ARC
  5
1A9B
  8
0
 10
264.0043313860545027
 20
6.0841496564942386
 30
0.0
 40
0.0149926478689234
 50
149.9271727251993127
 51
210.0053341860007095
  0
LINE
  5
1A9C
  8
0
 10
263.9913569110116214
 20
6.0916624780335864
 30
0.0
 11
264.0451949256028001
 21
6.184913023255584
 31
0.0
  0
ARC
  5
1A9D
  8
0
 10
264.0581854921658191
 20
6.1774123300490578
 30
0.0
 40
0.0150005072649541
 50
89.9875236610973559
 51
149.9980612476290958
  0
LINE
  5
1A9E
  8
0
 10
264.0581887585740901
 20
6.1924128369583773
 30
0.0
 11
264.1658344469028066
 21
6.1924130230555852
 31
0.0
  0
ARC
  5
1A9F
  8
0
 10
264.1658338361850724
 20
6.1774121299366538
 30
0.0
 40
0.0150008931313625
 50
29.9898035454679501
 51
89.9976673689549642
  0
LINE
  5
1AA0
  8
0
 10
264.1788263253029072
 20
6.184910264455584
 30
0.0
 11
264.2326628424937098
 21
6.091662478034424
 31
0.0
  0
ARC
  5
1AA1
  8
0
 10
264.2196738055642982
 20
6.0841597498763322
 30
0.0
 40
0.0150002003375012
 50
329.9890927081199266
 51
30.0115916139435512
  0
LINE
  5
1AA2
  8
0
 10
264.2326629321028122
 20
6.0766571768555853
 30
0.0
 11
264.1788248278028277
 21
5.9834066833555832
 31
0.0
  0
ARC
  5
1AA3
  8
0
 10
264.1658337542103254
 20
5.9909078832627776
 30
0.0
 40
0.0150011997231865
 50
270.0026456790645284
 51
329.9973535965489759
  0
LINE
  5
1AA4
  8
0
 10
264.1658344469028066
 20
6.2059066932555851
 30
0.0
 11
264.0581865600028095
 21
6.2059067757555848
 31
0.0
  0
ARC
  5
1AA5
  8
0
 10
264.0581865600028095
 20
6.220909029439774
 30
0.0
 40
0.0150022536841892
 50
210.0053341860023863
 51
269.9999999999968168
  0
LINE
  5
1AA6
  8
0
 10
264.0451949256028001
 20
6.2134066930555862
 30
0.0
 11
263.9913480700873265
 21
6.306652133492145
 31
0.0
  0
ARC
  5
1AA7
  8
0
 10
264.0043313860545027
 20
6.3141496661942398
 30
0.0
 40
0.0149926478689234
 50
149.9271727251993127
 51
210.0053341860007095
  0
LINE
  5
1AA8
  8
0
 10
263.9913569110116214
 20
6.3216624877335867
 30
0.0
 11
264.0451949256028001
 21
6.4149130329555861
 31
0.0
  0
ARC
  5
1AA9
  8
0
 10
264.0581854921658191
 20
6.407412339749059
 30
0.0
 40
0.0150005072649541
 50
89.9875236610973559
 51
149.9980612476290958
  0
LINE
  5
1AAA
  8
0
 10
264.0581887585740901
 20
6.4224128466583776
 30
0.0
 11
264.1658344469028066
 21
6.4224130327555864
 31
0.0
  0
ARC
  5
1AAB
  8
0
 10
264.1658338361850724
 20
6.407412139636655
 30
0.0
 40
0.0150008931313625
 50
29.9898035454679501
 51
89.9976673689549642
  0
LINE
  5
1AAC
  8
0
 10
264.1788263253029072
 20
6.4149102741555861
 30
0.0
 11
264.2326628424937098
 21
6.3216624877344261
 31
0.0
  0
ARC
  5
1AAD
  8
0
 10
264.2196738055642982
 20
6.3141597595763326
 30
0.0
 40
0.0150002003375012
 50
329.9890927081199266
 51
30.0115916139435512
  0
LINE
  5
1AAE
  8
0
 10
264.2326629321028122
 20
6.3066571865555856
 30
0.0
 11
264.1788248278028277
 21
6.2134066930555836
 31
0.0
  0
ARC
  5
1AAF
  8
0
 10
264.1658337542103254
 20
6.2209078929627788
 30
0.0
 40
0.0150011997231865
 50
270.0026456790645284
 51
329.9973535965489759
  0
LINE
  5
1AB0
  8
0
 10
263.9635344522025093
 20
5.8609066476590392
 30
0.0
 11
263.8558865653025123
 21
5.8609067301590381
 31
0.0
  0
ARC
  5
1AB1
  8
0
 10
263.8558865653025123
 20
5.8759089838432281
 30
0.0
 40
0.0150022536841892
 50
210.0053341860025
 51
269.9999999999968168
  0
LINE
  5
1AB2
  8
0
 10
263.8428949309025029
 20
5.8684066474590386
 30
0.0
 11
263.7890480753870861
 21
5.9616520878955983
 31
0.0
  0
ARC
  5
1AB3
  8
0
 10
263.8020313913540917
 20
5.9691496205976931
 30
0.0
 40
0.0149926478689234
 50
149.9271727251993127
 51
210.0053341860007095
  0
LINE
  5
1AB4
  8
0
 10
263.7890569163112104
 20
5.97666244213704
 30
0.0
 11
263.8428949309025029
 21
6.0699129873590394
 31
0.0
  0
ARC
  5
1AB5
  8
0
 10
263.8558854974655219
 20
6.0624122941525131
 30
0.0
 40
0.0150005072649541
 50
89.9875236610973559
 51
149.9980612476290958
  0
LINE
  5
1AB6
  8
0
 10
263.8558887638737929
 20
6.0774128010618309
 30
0.0
 11
263.9635344522025093
 21
6.0774129871590388
 31
0.0
  0
ARC
  5
1AB7
  8
0
 10
263.9635338414847752
 20
6.0624120940401092
 30
0.0
 40
0.0150008931313625
 50
29.9898035454679501
 51
89.9976673689549642
  0
LINE
  5
1AB8
  8
0
 10
263.9765263306024963
 20
6.0699102285590394
 30
0.0
 11
264.0303628477932989
 21
5.9766624421378793
 31
0.0
  0
ARC
  5
1AB9
  8
0
 10
264.0173738108640009
 20
5.9691597139797858
 30
0.0
 40
0.0150002003375012
 50
329.9890927081199266
 51
30.0115916139435512
  0
LINE
  5
1ABA
  8
0
 10
264.0303629374025149
 20
5.9616571409590389
 30
0.0
 11
263.9765248331024736
 21
5.8684066474590368
 31
0.0
  0
ARC
  5
1ABB
  8
0
 10
263.9635337595099145
 20
5.8759078473662321
 30
0.0
 40
0.0150011997231865
 50
270.0026456790645284
 51
329.9973535965489759
  0
LINE
  5
1ABC
  8
0
 10
263.9635344522025093
 20
6.0909066884549947
 30
0.0
 11
263.8558865653025123
 21
6.0909067709549953
 31
0.0
  0
ARC
  5
1ABD
  8
0
 10
263.8558865653025123
 20
6.1059090246391836
 30
0.0
 40
0.0150022536841892
 50
210.0053341860023863
 51
269.9999999999968168
  0
LINE
  5
1ABE
  8
0
 10
263.8428949309025029
 20
6.098406688254995
 30
0.0
 11
263.7890480753870861
 21
6.1916521286915538
 31
0.0
  0
ARC
  5
1ABF
  8
0
 10
263.8020313913540917
 20
6.1991496613936503
 30
0.0
 40
0.0149926478689234
 50
149.9271727251993127
 51
210.0053341860007095
  0
LINE
  5
1AC0
  8
0
 10
263.7890569163112104
 20
6.2066624829329973
 30
0.0
 11
263.8428949309025029
 21
6.2999130281549949
 31
0.0
  0
ARC
  5
1AC1
  8
0
 10
263.8558854974655219
 20
6.2924123349484686
 30
0.0
 40
0.0150005072649541
 50
89.9875236610973559
 51
149.9980612476290958
  0
LINE
  5
1AC2
  8
0
 10
263.8558887638737929
 20
6.3074128418577882
 30
0.0
 11
263.9635344522025093
 21
6.307413027954996
 31
0.0
  0
ARC
  5
1AC3
  8
0
 10
263.9635338414847752
 20
6.2924121348360647
 30
0.0
 40
0.0150008931313625
 50
29.9898035454679501
 51
89.9976673689549642
  0
LINE
  5
1AC4
  8
0
 10
263.9765263306024963
 20
6.2999102693549949
 30
0.0
 11
264.0303628477932989
 21
6.2066624829338348
 31
0.0
  0
ARC
  5
1AC5
  8
0
 10
264.0173738108640009
 20
6.1991597547757431
 30
0.0
 40
0.0150002003375012
 50
329.9890927081199266
 51
30.0115916139435512
  0
LINE
  5
1AC6
  8
0
 10
264.0303629374025149
 20
6.1916571817549961
 30
0.0
 11
263.9765248331024736
 21
6.0984066882549941
 31
0.0
  0
ARC
  5
1AC7
  8
0
 10
263.9635337595099145
 20
6.1059078881621893
 30
0.0
 40
0.0150011997231865
 50
270.0026456790645284
 51
329.9973535965489759
  0
LINE
  5
1AC8
  8
0
 10
263.9635344522025093
 20
6.320906698154996
 30
0.0
 11
263.8558865653025123
 21
6.3209067806549957
 31
0.0
  0
ARC
  5
1AC9
  8
0
 10
263.8558865653025123
 20
6.3359090343391848
 30
0.0
 40
0.0150022536841892
 50
210.0053341860023863
 51
269.9999999999968168
  0
LINE
  5
1ACA
  8
0
 10
263.8428949309025029
 20
6.3284066979549971
 30
0.0
 11
263.7890480753870861
 21
6.421652138391555
 31
0.0
  0
ARC
  5
1ACB
  8
0
 10
263.8020313913540917
 20
6.4291496710936507
 30
0.0
 40
0.0149926478689234
 50
149.9271727251993127
 51
210.0053341860007095
  0
LINE
  5
1ACC
  8
0
 10
263.7890569163112104
 20
6.4366624926329976
 30
0.0
 11
263.8035246141824928
 21
6.4617213794594548
 31
0.0
  0
LINE
  5
1ACD
  8
0
 10
264.0158951242884768
 20
6.4617213794594548
 30
0.0
 11
264.0303628477932989
 21
6.4366624926338361
 31
0.0
  0
ARC
  5
1ACE
  8
0
 10
264.0173738108640009
 20
6.4291597644757443
 30
0.0
 40
0.0150002003375012
 50
329.9890927081199266
 51
30.0115916139435512
  0
LINE
  5
1ACF
  8
0
 10
264.0303629374025149
 20
6.4216571914549974
 30
0.0
 11
263.9765248331024736
 21
6.3284066979549953
 31
0.0
  0
ARC
  5
1AD0
  8
0
 10
263.9635337595099145
 20
6.3359078978621897
 30
0.0
 40
0.0150011997231865
 50
270.0026456790645284
 51
329.9973535965489759
  0
LINE
  5
1AD1
  8
0
 10
263.6034416665756908
 20
5.8217213794595368
 30
0.0
 11
263.5890463388785747
 21
5.8466494585180948
 31
0.0
  0
ARC
  5
1AD2
  8
0
 10
263.602029654845694
 20
5.8541469912201913
 30
0.0
 40
0.0149926478689234
 50
149.9271727251993127
 51
210.0053341860007095
  0
LINE
  5
1AD3
  8
0
 10
263.5890551798028127
 20
5.8616598127595383
 30
0.0
 11
263.6428931943941052
 21
5.9549103579815359
 31
0.0
  0
ARC
  5
1AD4
  8
0
 10
263.6558837609570105
 20
5.9474096647750097
 30
0.0
 40
0.0150005072649541
 50
89.9875236610973559
 51
149.9980612476290958
  0
LINE
  5
1AD5
  8
0
 10
263.6558870273653952
 20
5.9624101716843292
 30
0.0
 11
263.7635327156941116
 21
5.9624103577815371
 31
0.0
  0
ARC
  5
1AD6
  8
0
 10
263.7635321049763206
 20
5.9474094646626057
 30
0.0
 40
0.0150008931313625
 50
29.9898035454679501
 51
89.9976673689549642
  0
LINE
  5
1AD7
  8
0
 10
263.7765245940939849
 20
5.9549075991815359
 30
0.0
 11
263.8303611112847875
 21
5.8616598127603758
 31
0.0
  0
ARC
  5
1AD8
  8
0
 10
263.8173720743556032
 20
5.8541570846022841
 30
0.0
 40
0.0150002003375012
 50
329.9890927081199266
 51
30.0115916139435512
  0
LINE
  5
1AD9
  8
0
 10
263.8303612008940036
 20
5.8466545115815372
 30
0.0
 11
263.8159660752777995
 21
5.8217213794595377
 31
0.0
  0
LINE
  5
1ADA
  8
0
 10
263.7635327156941116
 20
5.975904059077493
 30
0.0
 11
263.6558848287941146
 21
5.9759041415774918
 31
0.0
  0
ARC
  5
1ADB
  8
0
 10
263.6558848287941146
 20
5.990906395261681
 30
0.0
 40
0.0150022536841892
 50
210.0053341860023863
 51
269.9999999999968168
  0
LINE
  5
1ADC
  8
0
 10
263.6428931943941052
 20
5.9834040588774933
 30
0.0
 11
263.5890463388785747
 21
6.0766494993140521
 31
0.0
  0
ARC
  5
1ADD
  8
0
 10
263.602029654845694
 20
6.0841470320161468
 30
0.0
 40
0.0149926478689234
 50
149.9271727251993127
 51
210.0053341860007095
  0
LINE
  5
1ADE
  8
0
 10
263.5890551798028127
 20
6.0916598535554938
 30
0.0
 11
263.6428931943941052
 21
6.1849103987774932
 31
0.0
  0
ARC
  5
1ADF
  8
0
 10
263.6558837609570105
 20
6.177409705570966
 30
0.0
 40
0.0150005072649541
 50
89.9875236610973559
 51
149.9980612476290958
  0
LINE
  5
1AE0
  8
0
 10
263.6558870273653952
 20
6.1924102124802847
 30
0.0
 11
263.7635327156941116
 21
6.1924103985774934
 31
0.0
  0
ARC
  5
1AE1
  8
0
 10
263.7635321049763206
 20
6.177409505458562
 30
0.0
 40
0.0150008931313625
 50
29.9898035454679501
 51
89.9976673689549642
  0
LINE
  5
1AE2
  8
0
 10
263.7765245940939849
 20
6.1849076399774932
 30
0.0
 11
263.8303611112847875
 21
6.0916598535563331
 31
0.0
  0
ARC
  5
1AE3
  8
0
 10
263.8173720743556032
 20
6.0841571253982396
 30
0.0
 40
0.0150002003375012
 50
329.9890927081199266
 51
30.0115916139435512
  0
LINE
  5
1AE4
  8
0
 10
263.8303612008940036
 20
6.0766545523774926
 30
0.0
 11
263.7765230965940759
 21
5.9834040588774906
 31
0.0
  0
ARC
  5
1AE5
  8
0
 10
263.7635320230015168
 20
5.9909052587846858
 30
0.0
 40
0.0150011997231865
 50
270.0026456790645284
 51
329.9973535965489759
  0
LINE
  5
1AE6
  8
0
 10
263.7635327156941116
 20
6.2059040687774942
 30
0.0
 11
263.6558848287941146
 21
6.2059041512774931
 31
0.0
  0
ARC
  5
1AE7
  8
0
 10
263.6558848287941146
 20
6.2209064049616831
 30
0.0
 40
0.0150022536841892
 50
210.0053341860023863
 51
269.9999999999968168
  0
LINE
  5
1AE8
  8
0
 10
263.6428931943941052
 20
6.2134040685774936
 30
0.0
 11
263.5890463388785747
 21
6.3066495090140533
 31
0.0
  0
ARC
  5
1AE9
  8
0
 10
263.602029654845694
 20
6.314147041716148
 30
0.0
 40
0.0149926478689234
 50
149.9271727251993127
 51
210.0053341860007095
  0
LINE
  5
1AEA
  8
0
 10
263.5890551798028127
 20
6.321659863255495
 30
0.0
 11
263.6428931943941052
 21
6.4149104084774944
 31
0.0
  0
ARC
  5
1AEB
  8
0
 10
263.6558837609570105
 20
6.4074097152709681
 30
0.0
 40
0.0150005072649541
 50
89.9875236610973559
 51
149.9980612476290958
  0
LINE
  5
1AEC
  8
0
 10
263.6558870273653952
 20
6.4224102221802859
 30
0.0
 11
263.7635327156941116
 21
6.4224104082774938
 31
0.0
  0
ARC
  5
1AED
  8
0
 10
263.7635321049763206
 20
6.4074095151585642
 30
0.0
 40
0.0150008931313625
 50
29.9898035454679501
 51
89.9976673689549642
  0
LINE
  5
1AEE
  8
0
 10
263.7765245940939849
 20
6.4149076496774944
 30
0.0
 11
263.8303611112847875
 21
6.3216598632563343
 31
0.0
  0
ARC
  5
1AEF
  8
0
 10
263.8173720743556032
 20
6.3141571350982408
 30
0.0
 40
0.0150002003375012
 50
329.9890927081199266
 51
30.0115916139435512
  0
LINE
  5
1AF0
  8
0
 10
263.8303612008940036
 20
6.3066545620774939
 30
0.0
 11
263.7765230965940759
 21
6.2134040685774918
 31
0.0
  0
ARC
  5
1AF1
  8
0
 10
263.7635320230015168
 20
6.2209052684846871
 30
0.0
 40
0.0150011997231865
 50
270.0026456790645284
 51
329.9973535965489759
  0
LINE
  5
1AF2
  8
0
 10
263.561234451002008
 20
5.8609066476581102
 30
0.0
 11
263.4535865641018972
 21
5.860906730158109
 31
0.0
  0
ARC
  5
1AF3
  8
0
 10
263.4535865641018972
 20
5.8759089838422991
 30
0.0
 40
0.0150022536841892
 50
210.0053341860025
 51
269.9999999999968168
  0
LINE
  5
1AF4
  8
0
 10
263.4405949297018878
 20
5.8684066474581096
 30
0.0
 11
263.3867480741865279
 21
5.9616520878946693
 31
0.0
  0
ARC
  5
1AF5
  8
0
 10
263.3997313901535904
 20
5.969149620596764
 30
0.0
 40
0.0149926478689234
 50
149.9271727251993127
 51
210.0053341860007095
  0
LINE
  5
1AF6
  8
0
 10
263.3867569151107091
 20
5.976662442136111
 30
0.0
 11
263.4405949297018878
 21
6.0699129873581104
 31
0.0
  0
ARC
  5
1AF7
  8
0
 10
263.4535854962650205
 20
6.0624122941515841
 30
0.0
 40
0.0150005072649541
 50
89.9875236610973559
 51
149.9980612476290958
  0
LINE
  5
1AF8
  8
0
 10
263.4535887626732915
 20
6.0774128010609019
 30
0.0
 11
263.561234451002008
 21
6.0774129871581097
 31
0.0
  0
ARC
  5
1AF9
  8
0
 10
263.561233840284217
 20
6.0624120940391801
 30
0.0
 40
0.0150008931313625
 50
29.9898035454679501
 51
89.9976673689549642
  0
LINE
  5
1AFA
  8
0
 10
263.5742263294018812
 20
6.0699102285581104
 30
0.0
 11
263.6280628465926839
 21
5.9766624421369503
 31
0.0
  0
ARC
  5
1AFB
  8
0
 10
263.6150738096634996
 20
5.9691597139788568
 30
0.0
 40
0.0150002003375012
 50
329.9890927081199266
 51
30.0115916139435512
  0
LINE
  5
1AFC
  8
0
 10
263.6280629362020136
 20
5.9616571409581098
 30
0.0
 11
263.5742248319019723
 21
5.8684066474581078
 31
0.0
  0
ARC
  5
1AFD
  8
0
 10
263.5612337583094131
 20
5.875907847365303
 30
0.0
 40
0.0150011997231865
 50
270.0026456790645284
 51
329.9973535965489759
  0
LINE
  5
1AFE
  8
0
 10
263.561234451002008
 20
6.0909066884540657
 30
0.0
 11
263.4535865641018972
 21
6.0909067709540663
 31
0.0
  0
ARC
  5
1AFF
  8
0
 10
263.4535865641018972
 20
6.1059090246382546
 30
0.0
 40
0.0150022536841892
 50
210.0053341860023863
 51
269.9999999999968168
  0
LINE
  5
1B00
  8
0
 10
263.4405949297018878
 20
6.098406688254066
 30
0.0
 11
263.3867480741865279
 21
6.1916521286906248
 31
0.0
  0
ARC
  5
1B01
  8
0
 10
263.3997313901535904
 20
6.1991496613927213
 30
0.0
 40
0.0149926478689234
 50
149.9271727251993127
 51
210.0053341860007095
  0
LINE
  5
1B02
  8
0
 10
263.3867569151107091
 20
6.2066624829320682
 30
0.0
 11
263.4405949297018878
 21
6.2999130281540658
 31
0.0
  0
ARC
  5
1B03
  8
0
 10
263.4535854962650205
 20
6.2924123349475396
 30
0.0
 40
0.0150005072649541
 50
89.9875236610973559
 51
149.9980612476290958
  0
LINE
  5
1B04
  8
0
 10
263.4535887626732915
 20
6.3074128418568591
 30
0.0
 11
263.561234451002008
 21
6.3074130279540661
 31
0.0
  0
ARC
  5
1B05
  8
0
 10
263.561233840284217
 20
6.2924121348351356
 30
0.0
 40
0.0150008931313625
 50
29.9898035454679501
 51
89.9976673689549642
  0
LINE
  5
1B06
  8
0
 10
263.5742263294018812
 20
6.2999102693540658
 30
0.0
 11
263.6280628465926839
 21
6.2066624829329058
 31
0.0
  0
ARC
  5
1B07
  8
0
 10
263.6150738096634996
 20
6.1991597547748141
 30
0.0
 40
0.0150002003375012
 50
329.9890927081199266
 51
30.0115916139435512
  0
LINE
  5
1B08
  8
0
 10
263.6280629362020136
 20
6.1916571817540671
 30
0.0
 11
263.5742248319019723
 21
6.0984066882540651
 31
0.0
  0
ARC
  5
1B09
  8
0
 10
263.5612337583094131
 20
6.1059078881612603
 30
0.0
 40
0.0150011997231865
 50
270.0026456790645284
 51
329.9973535965489759
  0
LINE
  5
1B0A
  8
0
 10
263.561234451002008
 20
6.3209066981540669
 30
0.0
 11
263.4535865641018972
 21
6.3209067806540666
 31
0.0
  0
ARC
  5
1B0B
  8
0
 10
263.4535865641018972
 20
6.3359090343382558
 30
0.0
 40
0.0150022536841892
 50
210.0053341860023863
 51
269.9999999999968168
  0
LINE
  5
1B0C
  8
0
 10
263.4405949297018878
 20
6.3284066979540681
 30
0.0
 11
263.3867480741865279
 21
6.421652138390626
 31
0.0
  0
ARC
  5
1B0D
  8
0
 10
263.3997313901535904
 20
6.4291496710927216
 30
0.0
 40
0.0149926478689234
 50
149.9271727251993127
 51
210.0053341860007095
  0
LINE
  5
1B0E
  8
0
 10
263.3867569151107091
 20
6.4366624926320686
 30
0.0
 11
263.401224612982503
 21
6.4617213794594548
 31
0.0
  0
LINE
  5
1B0F
  8
0
 10
263.6135951230875207
 20
6.4617213794594548
 30
0.0
 11
263.6280628465926839
 21
6.436662492632907
 31
0.0
  0
ARC
  5
1B10
  8
0
 10
263.6150738096634996
 20
6.4291597644748153
 30
0.0
 40
0.0150002003375012
 50
329.9890927081199266
 51
30.0115916139435512
  0
LINE
  5
1B11
  8
0
 10
263.6280629362020136
 20
6.4216571914540683
 30
0.0
 11
263.5742248319019723
 21
6.3284066979540663
 31
0.0
  0
ARC
  5
1B12
  8
0
 10
263.5612337583094131
 20
6.3359078978612606
 30
0.0
 40
0.0150011997231865
 50
270.0026456790645284
 51
329.9973535965489759
  0
LINE
  5
1B13
  8
0
 10
263.2011448513703726
 20
5.8217213794595368
 30
0.0
 11
263.1867479781785732
 21
5.8466521348180951
 31
0.0
  0
ARC
  5
1B14
  8
0
 10
263.1997312941456926
 20
5.8541496675201907
 30
0.0
 40
0.0149926478689234
 50
149.9271727251993127
 51
210.0053341860007095
  0
LINE
  5
1B15
  8
0
 10
263.1867568191028113
 20
5.8616624890595377
 30
0.0
 11
263.24059483369399
 21
5.9549130342815371
 31
0.0
  0
ARC
  5
1B16
  8
0
 10
263.2535854002571227
 20
5.9474123410750099
 30
0.0
 40
0.0150005072649541
 50
89.9875236610973559
 51
149.9980612476290958
  0
LINE
  5
1B17
  8
0
 10
263.2535886666653937
 20
5.9624128479843286
 30
0.0
 11
263.3612343549941102
 21
5.9624130340815373
 31
0.0
  0
ARC
  5
1B18
  8
0
 10
263.3612337442763192
 20
5.947412140962606
 30
0.0
 40
0.0150008931313625
 50
29.9898035454679501
 51
89.9976673689549642
  0
LINE
  5
1B19
  8
0
 10
263.3742262333940971
 20
5.9549102754815371
 30
0.0
 11
263.4280627505848997
 21
5.861662489060377
 31
0.0
  0
ARC
  5
1B1A
  8
0
 10
263.4150737136554881
 20
5.8541597609022844
 30
0.0
 40
0.0150002003375012
 50
329.9890927081199266
 51
30.0115916139435512
  0
LINE
  5
1B1B
  8
0
 10
263.4280628401941158
 20
5.8466571878815374
 30
0.0
 11
263.4136661694179793
 21
5.8217213794595377
 31
0.0
  0
LINE
  5
1B1C
  8
0
 10
263.3612343549941102
 20
5.9759067353774933
 30
0.0
 11
263.2535864680939994
 21
5.975906817877493
 31
0.0
  0
ARC
  5
1B1D
  8
0
 10
263.2535864680939994
 20
5.9909090715616822
 30
0.0
 40
0.0150022536841892
 50
210.0053341860023863
 51
269.9999999999968168
  0
LINE
  5
1B1E
  8
0
 10
263.24059483369399
 20
5.9834067351774927
 30
0.0
 11
263.1867479781785732
 21
6.0766521756140524
 31
0.0
  0
ARC
  5
1B1F
  8
0
 10
263.1997312941456926
 20
6.0841497083161471
 30
0.0
 40
0.0149926478689234
 50
149.9271727251993127
 51
210.0053341860007095
  0
LINE
  5
1B20
  8
0
 10
263.1867568191028113
 20
6.0916625298554941
 30
0.0
 11
263.24059483369399
 21
6.1849130750774934
 31
0.0
  0
ARC
  5
1B21
  8
0
 10
263.2535854002571227
 20
6.1774123818709672
 30
0.0
 40
0.0150005072649541
 50
89.9875236610973559
 51
149.9980612476290958
  0
LINE
  5
1B22
  8
0
 10
263.2535886666653937
 20
6.192412888780285
 30
0.0
 11
263.3612343549941102
 21
6.1924130748774928
 31
0.0
  0
ARC
  5
1B23
  8
0
 10
263.3612337442763192
 20
6.1774121817585632
 30
0.0
 40
0.0150008931313625
 50
29.9898035454679501
 51
89.9976673689549642
  0
LINE
  5
1B24
  8
0
 10
263.3742262333940971
 20
6.1849103162774934
 30
0.0
 11
263.4280627505848997
 21
6.0916625298563334
 31
0.0
  0
ARC
  5
1B25
  8
0
 10
263.4150737136554881
 20
6.0841598016982399
 30
0.0
 40
0.0150002003375012
 50
329.9890927081199266
 51
30.0115916139435512
  0
LINE
  5
1B26
  8
0
 10
263.4280628401941158
 20
6.0766572286774929
 30
0.0
 11
263.3742247358940745
 21
5.9834067351774909
 31
0.0
  0
ARC
  5
1B27
  8
0
 10
263.3612336623015153
 20
5.9909079350846861
 30
0.0
 40
0.0150011997231865
 50
270.0026456790645284
 51
329.9973535965489759
  0
LINE
  5
1B28
  8
0
 10
263.3612343549941102
 20
6.2059067450774936
 30
0.0
 11
263.2535864680939994
 21
6.2059068275774942
 31
0.0
  0
ARC
  5
1B29
  8
0
 10
263.2535864680939994
 20
6.2209090812616834
 30
0.0
 40
0.0150022536841892
 50
210.0053341860023863
 51
269.9999999999968168
  0
LINE
  5
1B2A
  8
0
 10
263.24059483369399
 20
6.2134067448774939
 30
0.0
 11
263.1867479781785732
 21
6.3066521853140527
 31
0.0
  0
ARC
  5
1B2B
  8
0
 10
263.1997312941456926
 20
6.3141497180161492
 30
0.0
 40
0.0149926478689234
 50
149.9271727251993127
 51
210.0053341860007095
  0
LINE
  5
1B2C
  8
0
 10
263.1867568191028113
 20
6.3216625395554962
 30
0.0
 11
263.24059483369399
 21
6.4149130847774938
 31
0.0
  0
ARC
  5
1B2D
  8
0
 10
263.2535854002571227
 20
6.4074123915709684
 30
0.0
 40
0.0150005072649541
 50
89.9875236610973559
 51
149.9980612476290958
  0
LINE
  5
1B2E
  8
0
 10
263.2535886666653937
 20
6.4224128984802871
 30
0.0
 11
263.3612343549941102
 21
6.422413084577494
 31
0.0
  0
ARC
  5
1B2F
  8
0
 10
263.3612337442763192
 20
6.4074121914585644
 30
0.0
 40
0.0150008931313625
 50
29.9898035454679501
 51
89.9976673689549642
  0
LINE
  5
1B30
  8
0
 10
263.3742262333940971
 20
6.4149103259774938
 30
0.0
 11
263.4280627505848997
 21
6.3216625395563337
 31
0.0
  0
ARC
  5
1B31
  8
0
 10
263.4150737136554881
 20
6.314159811398242
 30
0.0
 40
0.0150002003375012
 50
329.9890927081199266
 51
30.0115916139435512
  0
LINE
  5
1B32
  8
0
 10
263.4280628401941158
 20
6.306657238377495
 30
0.0
 11
263.3742247358940745
 21
6.213406744877493
 31
0.0
  0
ARC
  5
1B33
  8
0
 10
263.3612336623015153
 20
6.2209079447846882
 30
0.0
 40
0.0150011997231865
 50
270.0026456790645284
 51
329.9973535965489759
  0
LINE
  5
1B34
  8
0
 10
263.1589343602939834
 20
5.8609066993815357
 30
0.0
 11
263.0512864733939864
 21
5.8609067818815364
 31
0.0
  0
ARC
  5
1B35
  8
0
 10
263.0512864733939864
 20
5.8759090355657246
 30
0.0
 40
0.0150022536841892
 50
210.0053341860025
 51
269.9999999999968168
  0
LINE
  5
1B36
  8
0
 10
263.038294838993977
 20
5.868406699181536
 30
0.0
 11
262.9844479834785034
 21
5.9616521396180948
 31
0.0
  0
ARC
  5
1B37
  8
0
 10
262.9974312994456795
 20
5.9691496723201913
 30
0.0
 40
0.0149926478689234
 50
149.9271727251993127
 51
210.0053341860007095
  0
LINE
  5
1B38
  8
0
 10
262.9844568244027982
 20
5.9766624938595383
 30
0.0
 11
263.038294838993977
 21
6.0699130390815359
 31
0.0
  0
ARC
  5
1B39
  8
0
 10
263.0512854055571097
 20
6.0624123458750097
 30
0.0
 40
0.0150005072649541
 50
89.9875236610973559
 51
149.9980612476290958
  0
LINE
  5
1B3A
  8
0
 10
263.0512886719653807
 20
6.0774128527843292
 30
0.0
 11
263.1589343602939834
 21
6.0774130388815371
 31
0.0
  0
ARC
  5
1B3B
  8
0
 10
263.1589337495763061
 20
6.0624121457626057
 30
0.0
 40
0.0150008931313625
 50
29.9898035454679501
 51
89.9976673689549642
  0
LINE
  5
1B3C
  8
0
 10
263.1719262386940841
 20
6.0699102802815359
 30
0.0
 11
263.225762755884773
 21
5.9766624938603758
 31
0.0
  0
ARC
  5
1B3D
  8
0
 10
263.212773718955475
 20
5.9691597657022841
 30
0.0
 40
0.0150002003375012
 50
329.9890927081199266
 51
30.0115916139435512
  0
LINE
  5
1B3E
  8
0
 10
263.2257628454941027
 20
5.9616571926815372
 30
0.0
 11
263.1719247411941183
 21
5.8684066991815351
 31
0.0
  0
ARC
  5
1B3F
  8
0
 10
263.1589336676015023
 20
5.8759078990887303
 30
0.0
 40
0.0150011997231865
 50
270.0026456790645284
 51
329.9973535965489759
  0
LINE
  5
1B40
  8
0
 10
263.1589343602939834
 20
6.090906740177493
 30
0.0
 11
263.0512864733939864
 21
6.0909068226774918
 31
0.0
  0
ARC
  5
1B41
  8
0
 10
263.0512864733939864
 20
6.105909076361681
 30
0.0
 40
0.0150022536841892
 50
210.0053341860023863
 51
269.9999999999968168
  0
LINE
  5
1B42
  8
0
 10
263.038294838993977
 20
6.0984067399774933
 30
0.0
 11
262.9844479834785034
 21
6.1916521804140521
 31
0.0
  0
ARC
  5
1B43
  8
0
 10
262.9974312994456795
 20
6.1991497131161468
 30
0.0
 40
0.0149926478689234
 50
149.9271727251993127
 51
210.0053341860007095
  0
LINE
  5
1B44
  8
0
 10
262.9844568244027982
 20
6.2066625346554938
 30
0.0
 11
263.038294838993977
 21
6.2999130798774932
 31
0.0
  0
ARC
  5
1B45
  8
0
 10
263.0512854055571097
 20
6.292412386670966
 30
0.0
 40
0.0150005072649541
 50
89.9875236610973559
 51
149.9980612476290958
  0
LINE
  5
1B46
  8
0
 10
263.0512886719653807
 20
6.3074128935802847
 30
0.0
 11
263.1589343602939834
 21
6.3074130796774934
 31
0.0
  0
ARC
  5
1B47
  8
0
 10
263.1589337495763061
 20
6.292412186558562
 30
0.0
 40
0.0150008931313625
 50
29.9898035454679501
 51
89.9976673689549642
  0
LINE
  5
1B48
  8
0
 10
263.1719262386940841
 20
6.2999103210774932
 30
0.0
 11
263.225762755884773
 21
6.2066625346563331
 31
0.0
  0
ARC
  5
1B49
  8
0
 10
263.212773718955475
 20
6.1991598064982396
 30
0.0
 40
0.0150002003375012
 50
329.9890927081199266
 51
30.0115916139435512
  0
LINE
  5
1B4A
  8
0
 10
263.2257628454941027
 20
6.1916572334774926
 30
0.0
 11
263.1719247411941183
 21
6.0984067399774906
 31
0.0
  0
ARC
  5
1B4B
  8
0
 10
263.1589336676015023
 20
6.1059079398846858
 30
0.0
 40
0.0150011997231865
 50
270.0026456790645284
 51
329.9973535965489759
  0
LINE
  5
1B4C
  8
0
 10
263.1589343602939834
 20
6.3209067498774942
 30
0.0
 11
263.0512864733939864
 21
6.3209068323774931
 31
0.0
  0
ARC
  5
1B4D
  8
0
 10
263.0512864733939864
 20
6.3359090860616831
 30
0.0
 40
0.0150022536841892
 50
210.0053341860023863
 51
269.9999999999968168
  0
LINE
  5
1B4E
  8
0
 10
263.038294838993977
 20
6.3284067496774936
 30
0.0
 11
262.9844479834785034
 21
6.4216521901140533
 31
0.0
  0
ARC
  5
1B4F
  8
0
 10
262.9974312994456795
 20
6.429149722816148
 30
0.0
 40
0.0149926478689234
 50
149.9271727251993127
 51
210.0053341860007095
  0
LINE
  5
1B50
  8
0
 10
262.9844568244027982
 20
6.436662544355495
 30
0.0
 11
262.9989244924121863
 21
6.4617213794594548
 31
0.0
  0
LINE
  5
1B51
  8
0
 10
263.2112950622420726
 20
6.4617213794594548
 30
0.0
 11
263.225762755884773
 21
6.4366625443563343
 31
0.0
  0
ARC
  5
1B52
  8
0
 10
263.212773718955475
 20
6.4291598161982408
 30
0.0
 40
0.0150002003375012
 50
329.9890927081199266
 51
30.0115916139435512
  0
LINE
  5
1B53
  8
0
 10
263.2257628454941027
 20
6.4216572431774939
 30
0.0
 11
263.1719247411941183
 21
6.3284067496774918
 31
0.0
  0
ARC
  5
1B54
  8
0
 10
263.1589336676015023
 20
6.3359079495846871
 30
0.0
 40
0.0150011997231865
 50
270.0026456790645284
 51
329.9973535965489759
  0
LINE
  5
1B55
  8
0
 10
262.7988448502704273
 20
5.8217213794595368
 30
0.0
 11
262.7844479770786279
 21
5.8466521348180951
 31
0.0
  0
ARC
  5
1B56
  8
0
 10
262.7974312930456904
 20
5.8541496675201907
 30
0.0
 40
0.0149926478689234
 50
149.9271727251993127
 51
210.0053341860007095
  0
LINE
  5
1B57
  8
0
 10
262.7844568180028091
 20
5.8616624890595377
 30
0.0
 11
262.8382948325941015
 21
5.9549130342815371
 31
0.0
  0
ARC
  5
1B58
  8
0
 10
262.8512853991570069
 20
5.9474123410750099
 30
0.0
 40
0.0150005072649541
 50
89.9875236610973559
 51
149.9980612476290958
  0
LINE
  5
1B59
  8
0
 10
262.8512886655653915
 20
5.9624128479843286
 30
0.0
 11
262.958934353894108
 21
5.9624130340815373
 31
0.0
  0
ARC
  5
1B5A
  8
0
 10
262.958933743176317
 20
5.947412140962606
 30
0.0
 40
0.0150008931313625
 50
29.9898035454679501
 51
89.9976673689549642
  0
LINE
  5
1B5B
  8
0
 10
262.9719262322939812
 20
5.9549102754815371
 30
0.0
 11
263.0257627494847839
 21
5.861662489060377
 31
0.0
  0
ARC
  5
1B5C
  8
0
 10
263.0127737125555996
 20
5.8541597609022844
 30
0.0
 40
0.0150002003375012
 50
329.9890927081199266
 51
30.0115916139435512
  0
LINE
  5
1B5D
  8
0
 10
263.0257628390939999
 20
5.8466571878815374
 30
0.0
 11
263.0113661683179771
 21
5.8217213794595377
 31
0.0
  0
LINE
  5
1B5E
  8
0
 10
262.958934353894108
 20
5.9759067353774933
 30
0.0
 11
262.8512864669941109
 21
5.975906817877493
 31
0.0
  0
ARC
  5
1B5F
  8
0
 10
262.8512864669941109
 20
5.9909090715616822
 30
0.0
 40
0.0150022536841892
 50
210.0053341860023863
 51
269.9999999999968168
  0
LINE
  5
1B60
  8
0
 10
262.8382948325941015
 20
5.9834067351774927
 30
0.0
 11
262.7844479770786279
 21
6.0766521756140524
 31
0.0
  0
ARC
  5
1B61
  8
0
 10
262.7974312930456904
 20
6.0841497083161471
 30
0.0
 40
0.0149926478689234
 50
149.9271727251993127
 51
210.0053341860007095
  0
LINE
  5
1B62
  8
0
 10
262.7844568180028091
 20
6.0916625298554941
 30
0.0
 11
262.8382948325941015
 21
6.1849130750774934
 31
0.0
  0
ARC
  5
1B63
  8
0
 10
262.8512853991570069
 20
6.1774123818709672
 30
0.0
 40
0.0150005072649541
 50
89.9875236610973559
 51
149.9980612476290958
  0
LINE
  5
1B64
  8
0
 10
262.8512886655653915
 20
6.192412888780285
 30
0.0
 11
262.958934353894108
 21
6.1924130748774928
 31
0.0
  0
ARC
  5
1B65
  8
0
 10
262.958933743176317
 20
6.1774121817585632
 30
0.0
 40
0.0150008931313625
 50
29.9898035454679501
 51
89.9976673689549642
  0
LINE
  5
1B66
  8
0
 10
262.9719262322939812
 20
6.1849103162774934
 30
0.0
 11
263.0257627494847839
 21
6.0916625298563334
 31
0.0
  0
ARC
  5
1B67
  8
0
 10
263.0127737125555996
 20
6.0841598016982399
 30
0.0
 40
0.0150002003375012
 50
329.9890927081199266
 51
30.0115916139435512
  0
LINE
  5
1B68
  8
0
 10
263.0257628390939999
 20
6.0766572286774929
 30
0.0
 11
262.9719247347940723
 21
5.9834067351774909
 31
0.0
  0
ARC
  5
1B69
  8
0
 10
262.9589336612015131
 20
5.9909079350846861
 30
0.0
 40
0.0150011997231865
 50
270.0026456790645284
 51
329.9973535965489759
  0
LINE
  5
1B6A
  8
0
 10
262.958934353894108
 20
6.2059067450774936
 30
0.0
 11
262.8512864669941109
 21
6.2059068275774942
 31
0.0
  0
ARC
  5
1B6B
  8
0
 10
262.8512864669941109
 20
6.2209090812616834
 30
0.0
 40
0.0150022536841892
 50
210.0053341860023863
 51
269.9999999999968168
  0
LINE
  5
1B6C
  8
0
 10
262.8382948325941015
 20
6.2134067448774939
 30
0.0
 11
262.7844479770786279
 21
6.3066521853140527
 31
0.0
  0
ARC
  5
1B6D
  8
0
 10
262.7974312930456904
 20
6.3141497180161492
 30
0.0
 40
0.0149926478689234
 50
149.9271727251993127
 51
210.0053341860007095
  0
LINE
  5
1B6E
  8
0
 10
262.7844568180028091
 20
6.3216625395554962
 30
0.0
 11
262.8382948325941015
 21
6.4149130847774938
 31
0.0
  0
ARC
  5
1B6F
  8
0
 10
262.8512853991570069
 20
6.4074123915709684
 30
0.0
 40
0.0150005072649541
 50
89.9875236610973559
 51
149.9980612476290958
  0
LINE
  5
1B70
  8
0
 10
262.8512886655653915
 20
6.4224128984802871
 30
0.0
 11
262.958934353894108
 21
6.422413084577494
 31
0.0
  0
ARC
  5
1B71
  8
0
 10
262.958933743176317
 20
6.4074121914585644
 30
0.0
 40
0.0150008931313625
 50
29.9898035454679501
 51
89.9976673689549642
  0
LINE
  5
1B72
  8
0
 10
262.9719262322939812
 20
6.4149103259774938
 30
0.0
 11
263.0257627494847839
 21
6.3216625395563337
 31
0.0
  0
ARC
  5
1B73
  8
0
 10
263.0127737125555996
 20
6.314159811398242
 30
0.0
 40
0.0150002003375012
 50
329.9890927081199266
 51
30.0115916139435512
  0
LINE
  5
1B74
  8
0
 10
263.0257628390939999
 20
6.306657238377495
 30
0.0
 11
262.9719247347940723
 21
6.213406744877493
 31
0.0
  0
ARC
  5
1B75
  8
0
 10
262.9589336612015131
 20
6.2209079447846882
 30
0.0
 40
0.0150011997231865
 50
270.0026456790645284
 51
329.9973535965489759
  0
LINE
  5
1B76
  8
0
 10
262.7566344488070058
 20
5.8609066476668152
 30
0.0
 11
262.6489865619070088
 21
5.8609067301668141
 31
0.0
  0
ARC
  5
1B77
  8
0
 10
262.6489865619070088
 20
5.8759089838510041
 30
0.0
 40
0.0150022536841892
 50
210.0053341860025
 51
269.9999999999968168
  0
LINE
  5
1B78
  8
0
 10
262.6359949275069994
 20
5.8684066474668146
 30
0.0
 11
262.5821480719915257
 21
5.9616520879033743
 31
0.0
  0
ARC
  5
1B79
  8
0
 10
262.5951313879585882
 20
5.9691496206054691
 30
0.0
 40
0.0149926478689234
 50
149.9271727251993127
 51
210.0053341860007095
  0
LINE
  5
1B7A
  8
0
 10
262.5821569129157069
 20
5.976662442144816
 30
0.0
 11
262.6359949275069994
 21
6.0699129873668154
 31
0.0
  0
ARC
  5
1B7B
  8
0
 10
262.6489854940700184
 20
6.0624122941602892
 30
0.0
 40
0.0150005072649541
 50
89.9875236610973559
 51
149.9980612476290958
  0
LINE
  5
1B7C
  8
0
 10
262.6489887604782894
 20
6.0774128010696069
 30
0.0
 11
262.7566344488070058
 21
6.0774129871668148
 31
0.0
  0
ARC
  5
1B7D
  8
0
 10
262.7566338380892716
 20
6.0624120940478852
 30
0.0
 40
0.0150008931313625
 50
29.9898035454679501
 51
89.9976673689549642
  0
LINE
  5
1B7E
  8
0
 10
262.7696263272069928
 20
6.0699102285668154
 30
0.0
 11
262.8234628443977954
 21
5.9766624421456553
 31
0.0
  0
ARC
  5
1B7F
  8
0
 10
262.8104738074684974
 20
5.9691597139875618
 30
0.0
 40
0.0150002003375012
 50
329.9890927081199266
 51
30.0115916139435512
  0
LINE
  5
1B80
  8
0
 10
262.8234629340070114
 20
5.9616571409668149
 30
0.0
 11
262.7696248297070269
 21
5.8684066474668128
 31
0.0
  0
ARC
  5
1B81
  8
0
 10
262.756633756114411
 20
5.8759078473740081
 30
0.0
 40
0.0150011997231865
 50
270.0026456790645284
 51
329.9973535965489759
  0
LINE
  5
1B82
  8
0
 10
262.7566344488070058
 20
6.0909066884627707
 30
0.0
 11
262.6489865619070088
 21
6.0909067709627713
 31
0.0
  0
ARC
  5
1B83
  8
0
 10
262.6489865619070088
 20
6.1059090246469596
 30
0.0
 40
0.0150022536841892
 50
210.0053341860023863
 51
269.9999999999968168
  0
LINE
  5
1B84
  8
0
 10
262.6359949275069994
 20
6.098406688262771
 30
0.0
 11
262.5821480719915257
 21
6.1916521286993298
 31
0.0
  0
ARC
  5
1B85
  8
0
 10
262.5951313879585882
 20
6.1991496614014263
 30
0.0
 40
0.0149926478689234
 50
149.9271727251993127
 51
210.0053341860007095
  0
LINE
  5
1B86
  8
0
 10
262.5821569129157069
 20
6.2066624829407733
 30
0.0
 11
262.6359949275069994
 21
6.2999130281627709
 31
0.0
  0
ARC
  5
1B87
  8
0
 10
262.6489854940700184
 20
6.2924123349562446
 30
0.0
 40
0.0150005072649541
 50
89.9875236610973559
 51
149.9980612476290958
  0
LINE
  5
1B88
  8
0
 10
262.6489887604782894
 20
6.3074128418655642
 30
0.0
 11
262.7566344488070058
 21
6.307413027962772
 31
0.0
  0
ARC
  5
1B89
  8
0
 10
262.7566338380892716
 20
6.2924121348438407
 30
0.0
 40
0.0150008931313625
 50
29.9898035454679501
 51
89.9976673689549642
  0
LINE
  5
1B8A
  8
0
 10
262.7696263272069928
 20
6.2999102693627709
 30
0.0
 11
262.8234628443977954
 21
6.2066624829416108
 31
0.0
  0
ARC
  5
1B8B
  8
0
 10
262.8104738074684974
 20
6.1991597547835191
 30
0.0
 40
0.0150002003375012
 50
329.9890927081199266
 51
30.0115916139435512
  0
LINE
  5
1B8C
  8
0
 10
262.8234629340070114
 20
6.1916571817627721
 30
0.0
 11
262.7696248297070269
 21
6.0984066882627701
 31
0.0
  0
ARC
  5
1B8D
  8
0
 10
262.756633756114411
 20
6.1059078881699653
 30
0.0
 40
0.0150011997231865
 50
270.0026456790645284
 51
329.9973535965489759
  0
LINE
  5
1B8E
  8
0
 10
262.7566344488070058
 20
6.320906698162772
 30
0.0
 11
262.6489865619070088
 21
6.3209067806627717
 31
0.0
  0
ARC
  5
1B8F
  8
0
 10
262.6489865619070088
 20
6.3359090343469608
 30
0.0
 40
0.0150022536841892
 50
210.0053341860023863
 51
269.9999999999968168
  0
LINE
  5
1B90
  8
0
 10
262.6359949275069994
 20
6.3284066979627731
 30
0.0
 11
262.5821480719915257
 21
6.421652138399331
 31
0.0
  0
ARC
  5
1B91
  8
0
 10
262.5951313879585882
 20
6.4291496711014267
 30
0.0
 40
0.0149926478689234
 50
149.9271727251993127
 51
210.0053341860007095
  0
LINE
  5
1B92
  8
0
 10
262.5821569129157069
 20
6.4366624926407736
 30
0.0
 11
262.5966246107824986
 21
6.4617213794594548
 31
0.0
  0
LINE
  5
1B93
  8
0
 10
262.8089951208975208
 20
6.4617213794594548
 30
0.0
 11
262.8234628443977954
 21
6.4366624926416121
 31
0.0
  0
ARC
  5
1B94
  8
0
 10
262.8104738074684974
 20
6.4291597644835203
 30
0.0
 40
0.0150002003375012
 50
329.9890927081199266
 51
30.0115916139435512
  0
LINE
  5
1B95
  8
0
 10
262.8234629340070114
 20
6.4216571914627734
 30
0.0
 11
262.7696248297070269
 21
6.3284066979627713
 31
0.0
  0
ARC
  5
1B96
  8
0
 10
262.756633756114411
 20
6.3359078978699657
 30
0.0
 40
0.0150011997231865
 50
270.0026456790645284
 51
329.9973535965489759
  0
LINE
  5
1B97
  8
0
 10
262.3965416631756966
 20
5.8217213794595368
 30
0.0
 11
262.3821463354785806
 21
5.8466494585180948
 31
0.0
  0
ARC
  5
1B98
  8
0
 10
262.3951296514456999
 20
5.8541469912201913
 30
0.0
 40
0.0149926478689234
 50
149.9271727251993127
 51
210.0053341860007095
  0
LINE
  5
1B99
  8
0
 10
262.3821551764028186
 20
5.8616598127595383
 30
0.0
 11
262.4359931909939974
 21
5.9549103579815359
 31
0.0
  0
ARC
  5
1B9A
  8
0
 10
262.4489837575570732
 20
5.9474096647750097
 30
0.0
 40
0.0150005072649541
 50
89.9875236610973559
 51
149.9980612476290958
  0
LINE
  5
1B9B
  8
0
 10
262.448987023965401
 20
5.9624101716843292
 30
0.0
 11
262.5566327122941175
 21
5.9624103577815371
 31
0.0
  0
ARC
  5
1B9C
  8
0
 10
262.5566321015763265
 20
5.9474094646626057
 30
0.0
 40
0.0150008931313625
 50
29.9898035454679501
 51
89.9976673689549642
  0
LINE
  5
1B9D
  8
0
 10
262.5696245906941044
 20
5.9549075991815359
 30
0.0
 11
262.6234611078849071
 21
5.8616598127603758
 31
0.0
  0
ARC
  5
1B9E
  8
0
 10
262.6104720709554954
 20
5.8541570846022841
 30
0.0
 40
0.0150002003375012
 50
329.9890927081199266
 51
30.0115916139435512
  0
LINE
  5
1B9F
  8
0
 10
262.6234611974941231
 20
5.8466545115815372
 30
0.0
 11
262.6090660718778054
 21
5.8217213794595377
 31
0.0
  0
LINE
  5
1BA0
  8
0
 10
262.5566327122941175
 20
5.975904059077493
 30
0.0
 11
262.4489848253940067
 21
5.9759041415774918
 31
0.0
  0
ARC
  5
1BA1
  8
0
 10
262.4489848253940067
 20
5.990906395261681
 30
0.0
 40
0.0150022536841892
 50
210.0053341860023863
 51
269.9999999999968168
  0
LINE
  5
1BA2
  8
0
 10
262.4359931909939974
 20
5.9834040588774933
 30
0.0
 11
262.3821463354785806
 21
6.0766494993140521
 31
0.0
  0
ARC
  5
1BA3
  8
0
 10
262.3951296514456999
 20
6.0841470320161468
 30
0.0
 40
0.0149926478689234
 50
149.9271727251993127
 51
210.0053341860007095
  0
LINE
  5
1BA4
  8
0
 10
262.3821551764028186
 20
6.0916598535554938
 30
0.0
 11
262.4359931909939974
 21
6.1849103987774932
 31
0.0
  0
ARC
  5
1BA5
  8
0
 10
262.4489837575570732
 20
6.177409705570966
 30
0.0
 40
0.0150005072649541
 50
89.9875236610973559
 51
149.9980612476290958
  0
LINE
  5
1BA6
  8
0
 10
262.448987023965401
 20
6.1924102124802847
 30
0.0
 11
262.5566327122941175
 21
6.1924103985774934
 31
0.0
  0
ARC
  5
1BA7
  8
0
 10
262.5566321015763265
 20
6.177409505458562
 30
0.0
 40
0.0150008931313625
 50
29.9898035454679501
 51
89.9976673689549642
  0
LINE
  5
1BA8
  8
0
 10
262.5696245906941044
 20
6.1849076399774932
 30
0.0
 11
262.6234611078849071
 21
6.0916598535563331
 31
0.0
  0
ARC
  5
1BA9
  8
0
 10
262.6104720709554954
 20
6.0841571253982396
 30
0.0
 40
0.0150002003375012
 50
329.9890927081199266
 51
30.0115916139435512
  0
LINE
  5
1BAA
  8
0
 10
262.6234611974941231
 20
6.0766545523774926
 30
0.0
 11
262.5696230931940818
 21
5.9834040588774906
 31
0.0
  0
ARC
  5
1BAB
  8
0
 10
262.5566320196015226
 20
5.9909052587846858
 30
0.0
 40
0.0150011997231865
 50
270.0026456790645284
 51
329.9973535965489759
  0
LINE
  5
1BAC
  8
0
 10
262.5566327122941175
 20
6.2059040687774942
 30
0.0
 11
262.4489848253940067
 21
6.2059041512774931
 31
0.0
  0
ARC
  5
1BAD
  8
0
 10
262.4489848253940067
 20
6.2209064049616831
 30
0.0
 40
0.0150022536841892
 50
210.0053341860023863
 51
269.9999999999968168
  0
LINE
  5
1BAE
  8
0
 10
262.4359931909939974
 20
6.2134040685774936
 30
0.0
 11
262.3821463354785806
 21
6.3066495090140533
 31
0.0
  0
ARC
  5
1BAF
  8
0
 10
262.3951296514456999
 20
6.314147041716148
 30
0.0
 40
0.0149926478689234
 50
149.9271727251993127
 51
210.0053341860007095
  0
LINE
  5
1BB0
  8
0
 10
262.3821551764028186
 20
6.321659863255495
 30
0.0
 11
262.4359931909939974
 21
6.4149104084774944
 31
0.0
  0
ARC
  5
1BB1
  8
0
 10
262.4489837575570732
 20
6.4074097152709681
 30
0.0
 40
0.0150005072649541
 50
89.9875236610973559
 51
149.9980612476290958
  0
LINE
  5
1BB2
  8
0
 10
262.448987023965401
 20
6.4224102221802859
 30
0.0
 11
262.5566327122941175
 21
6.4224104082774938
 31
0.0
  0
ARC
  5
1BB3
  8
0
 10
262.5566321015763265
 20
6.4074095151585642
 30
0.0
 40
0.0150008931313625
 50
29.9898035454679501
 51
89.9976673689549642
  0
LINE
  5
1BB4
  8
0
 10
262.5696245906941044
 20
6.4149076496774944
 30
0.0
 11
262.6234611078849071
 21
6.3216598632563343
 31
0.0
  0
ARC
  5
1BB5
  8
0
 10
262.6104720709554954
 20
6.3141571350982408
 30
0.0
 40
0.0150002003375012
 50
329.9890927081199266
 51
30.0115916139435512
  0
LINE
  5
1BB6
  8
0
 10
262.6234611974941231
 20
6.3066545620774939
 30
0.0
 11
262.5696230931940818
 21
6.2134040685774918
 31
0.0
  0
ARC
  5
1BB7
  8
0
 10
262.5566320196015226
 20
6.2209052684846871
 30
0.0
 40
0.0150011997231865
 50
270.0026456790645284
 51
329.9973535965489759
  0
LINE
  5
1BB8
  8
0
 10
262.3543343579941052
 20
5.8609066993815357
 30
0.0
 11
262.2466864710939944
 21
5.8609067818815364
 31
0.0
  0
ARC
  5
1BB9
  8
0
 10
262.2466864710939944
 20
5.8759090355657246
 30
0.0
 40
0.0150022536841892
 50
210.0053341860025
 51
269.9999999999968168
  0
LINE
  5
1BBA
  8
0
 10
262.2336948366939851
 20
5.868406699181536
 30
0.0
 11
262.1798479811786251
 21
5.9616521396180948
 31
0.0
  0
ARC
  5
1BBB
  8
0
 10
262.1928312971456876
 20
5.9691496723201913
 30
0.0
 40
0.0149926478689234
 50
149.9271727251993127
 51
210.0053341860007095
  0
LINE
  5
1BBC
  8
0
 10
262.1798568221028063
 20
5.9766624938595383
 30
0.0
 11
262.2336948366939851
 21
6.0699130390815359
 31
0.0
  0
ARC
  5
1BBD
  8
0
 10
262.2466854032571177
 20
6.0624123458750097
 30
0.0
 40
0.0150005072649541
 50
89.9875236610973559
 51
149.9980612476290958
  0
LINE
  5
1BBE
  8
0
 10
262.2466886696653887
 20
6.0774128527843292
 30
0.0
 11
262.3543343579941052
 21
6.0774130388815371
 31
0.0
  0
ARC
  5
1BBF
  8
0
 10
262.3543337472763142
 20
6.0624121457626057
 30
0.0
 40
0.0150008931313625
 50
29.9898035454679501
 51
89.9976673689549642
  0
LINE
  5
1BC0
  8
0
 10
262.3673262363939784
 20
6.0699102802815359
 30
0.0
 11
262.4211627535847811
 21
5.9766624938603758
 31
0.0
  0
ARC
  5
1BC1
  8
0
 10
262.4081737166554831
 20
5.9691597657022841
 30
0.0
 40
0.0150002003375012
 50
329.9890927081199266
 51
30.0115916139435512
  0
LINE
  5
1BC2
  8
0
 10
262.4211628431941108
 20
5.9616571926815372
 30
0.0
 11
262.3673247388941263
 21
5.8684066991815351
 31
0.0
  0
ARC
  5
1BC3
  8
0
 10
262.3543336653015103
 20
5.8759078990887303
 30
0.0
 40
0.0150011997231865
 50
270.0026456790645284
 51
329.9973535965489759
  0
LINE
  5
1BC4
  8
0
 10
262.3543343579941052
 20
6.090906740177493
 30
0.0
 11
262.2466864710939944
 21
6.0909068226774918
 31
0.0
  0
ARC
  5
1BC5
  8
0
 10
262.2466864710939944
 20
6.105909076361681
 30
0.0
 40
0.0150022536841892
 50
210.0053341860023863
 51
269.9999999999968168
  0
LINE
  5
1BC6
  8
0
 10
262.2336948366939851
 20
6.0984067399774933
 30
0.0
 11
262.1798479811786251
 21
6.1916521804140521
 31
0.0
  0
ARC
  5
1BC7
  8
0
 10
262.1928312971456876
 20
6.1991497131161468
 30
0.0
 40
0.0149926478689234
 50
149.9271727251993127
 51
210.0053341860007095
  0
LINE
  5
1BC8
  8
0
 10
262.1798568221028063
 20
6.2066625346554938
 30
0.0
 11
262.2336948366939851
 21
6.2999130798774932
 31
0.0
  0
ARC
  5
1BC9
  8
0
 10
262.2466854032571177
 20
6.292412386670966
 30
0.0
 40
0.0150005072649541
 50
89.9875236610973559
 51
149.9980612476290958
  0
LINE
  5
1BCA
  8
0
 10
262.2466886696653887
 20
6.3074128935802847
 30
0.0
 11
262.3543343579941052
 21
6.3074130796774934
 31
0.0
  0
ARC
  5
1BCB
  8
0
 10
262.3543337472763142
 20
6.292412186558562
 30
0.0
 40
0.0150008931313625
 50
29.9898035454679501
 51
89.9976673689549642
  0
LINE
  5
1BCC
  8
0
 10
262.3673262363939784
 20
6.2999103210774932
 30
0.0
 11
262.4211627535847811
 21
6.2066625346563331
 31
0.0
  0
ARC
  5
1BCD
  8
0
 10
262.4081737166554831
 20
6.1991598064982396
 30
0.0
 40
0.0150002003375012
 50
329.9890927081199266
 51
30.0115916139435512
  0
LINE
  5
1BCE
  8
0
 10
262.4211628431941108
 20
6.1916572334774926
 30
0.0
 11
262.3673247388941263
 21
6.0984067399774906
 31
0.0
  0
ARC
  5
1BCF
  8
0
 10
262.3543336653015103
 20
6.1059079398846858
 30
0.0
 40
0.0150011997231865
 50
270.0026456790645284
 51
329.9973535965489759
  0
LINE
  5
1BD0
  8
0
 10
262.3543343579941052
 20
6.3209067498774942
 30
0.0
 11
262.2466864710939944
 21
6.3209068323774931
 31
0.0
  0
ARC
  5
1BD1
  8
0
 10
262.2466864710939944
 20
6.3359090860616831
 30
0.0
 40
0.0150022536841892
 50
210.0053341860023863
 51
269.9999999999968168
  0
LINE
  5
1BD2
  8
0
 10
262.2336948366939851
 20
6.3284067496774936
 30
0.0
 11
262.1798479811786251
 21
6.4216521901140533
 31
0.0
  0
ARC
  5
1BD3
  8
0
 10
262.1928312971456876
 20
6.429149722816148
 30
0.0
 40
0.0149926478689234
 50
149.9271727251993127
 51
210.0053341860007095
  0
LINE
  5
1BD4
  8
0
 10
262.1798568221028063
 20
6.436662544355495
 30
0.0
 11
262.1943244901121943
 21
6.4617213794594548
 31
0.0
  0
LINE
  5
1BD5
  8
0
 10
262.4066950599420807
 20
6.4617213794594548
 30
0.0
 11
262.4211627535847811
 21
6.4366625443563343
 31
0.0
  0
ARC
  5
1BD6
  8
0
 10
262.4081737166554831
 20
6.4291598161982408
 30
0.0
 40
0.0150002003375012
 50
329.9890927081199266
 51
30.0115916139435512
  0
LINE
  5
1BD7
  8
0
 10
262.4211628431941108
 20
6.4216572431774939
 30
0.0
 11
262.3673247388941263
 21
6.3284067496774918
 31
0.0
  0
ARC
  5
1BD8
  8
0
 10
262.3543336653015103
 20
6.3359079495846871
 30
0.0
 40
0.0150011997231865
 50
270.0026456790645284
 51
329.9973535965489759
  0
LINE
  5
1BD9
  8
0
 10
261.9942416620756944
 20
5.8217213794595368
 30
0.0
 11
261.9798463343785784
 21
5.8466494585180948
 31
0.0
  0
ARC
  5
1BDA
  8
0
 10
261.9928296503456977
 20
5.8541469912201913
 30
0.0
 40
0.0149926478689234
 50
149.9271727251993127
 51
210.0053341860007095
  0
LINE
  5
1BDB
  8
0
 10
261.9798551753028164
 20
5.8616598127595383
 30
0.0
 11
262.0336931898941089
 21
5.9549103579815359
 31
0.0
  0
ARC
  5
1BDC
  8
0
 10
262.0466837564570142
 20
5.9474096647750097
 30
0.0
 40
0.0150005072649541
 50
89.9875236610973559
 51
149.9980612476290958
  0
LINE
  5
1BDD
  8
0
 10
262.0466870228653988
 20
5.9624101716843292
 30
0.0
 11
262.1543327111941153
 21
5.9624103577815371
 31
0.0
  0
ARC
  5
1BDE
  8
0
 10
262.1543321004763243
 20
5.9474094646626057
 30
0.0
 40
0.0150008931313625
 50
29.9898035454679501
 51
89.9976673689549642
  0
LINE
  5
1BDF
  8
0
 10
262.1673245895939885
 20
5.9549075991815359
 30
0.0
 11
262.2211611067847912
 21
5.8616598127603758
 31
0.0
  0
ARC
  5
1BE0
  8
0
 10
262.2081720698556069
 20
5.8541570846022841
 30
0.0
 40
0.0150002003375012
 50
329.9890927081199266
 51
30.0115916139435512
  0
LINE
  5
1BE1
  8
0
 10
262.2211611963940072
 20
5.8466545115815372
 30
0.0
 11
262.2067660707778032
 21
5.8217213794595377
 31
0.0
  0
LINE
  5
1BE2
  8
0
 10
262.1543327111941153
 20
5.975904059077493
 30
0.0
 11
262.0466848242941182
 21
5.9759041415774918
 31
0.0
  0
ARC
  5
1BE3
  8
0
 10
262.0466848242941182
 20
5.990906395261681
 30
0.0
 40
0.0150022536841892
 50
210.0053341860023863
 51
269.9999999999968168
  0
LINE
  5
1BE4
  8
0
 10
262.0336931898941089
 20
5.9834040588774933
 30
0.0
 11
261.9798463343785784
 21
6.0766494993140521
 31
0.0
  0
ARC
  5
1BE5
  8
0
 10
261.9928296503456977
 20
6.0841470320161468
 30
0.0
 40
0.0149926478689234
 50
149.9271727251993127
 51
210.0053341860007095
  0
LINE
  5
1BE6
  8
0
 10
261.9798551753028164
 20
6.0916598535554938
 30
0.0
 11
262.0336931898941089
 21
6.1849103987774932
 31
0.0
  0
ARC
  5
1BE7
  8
0
 10
262.0466837564570142
 20
6.177409705570966
 30
0.0
 40
0.0150005072649541
 50
89.9875236610973559
 51
149.9980612476290958
  0
LINE
  5
1BE8
  8
0
 10
262.0466870228653988
 20
6.1924102124802847
 30
0.0
 11
262.1543327111941153
 21
6.1924103985774934
 31
0.0
  0
ARC
  5
1BE9
  8
0
 10
262.1543321004763243
 20
6.177409505458562
 30
0.0
 40
0.0150008931313625
 50
29.9898035454679501
 51
89.9976673689549642
  0
LINE
  5
1BEA
  8
0
 10
262.1673245895939885
 20
6.1849076399774932
 30
0.0
 11
262.2211611067847912
 21
6.0916598535563331
 31
0.0
  0
ARC
  5
1BEB
  8
0
 10
262.2081720698556069
 20
6.0841571253982396
 30
0.0
 40
0.0150002003375012
 50
329.9890927081199266
 51
30.0115916139435512
  0
LINE
  5
1BEC
  8
0
 10
262.2211611963940072
 20
6.0766545523774926
 30
0.0
 11
262.1673230920940796
 21
5.9834040588774906
 31
0.0
  0
ARC
  5
1BED
  8
0
 10
262.1543320185015205
 20
5.9909052587846858
 30
0.0
 40
0.0150011997231865
 50
270.0026456790645284
 51
329.9973535965489759
  0
LINE
  5
1BEE
  8
0
 10
262.1543327111941153
 20
6.2059040687774942
 30
0.0
 11
262.0466848242941182
 21
6.2059041512774931
 31
0.0
  0
ARC
  5
1BEF
  8
0
 10
262.0466848242941182
 20
6.2209064049616831
 30
0.0
 40
0.0150022536841892
 50
210.0053341860023863
 51
269.9999999999968168
  0
LINE
  5
1BF0
  8
0
 10
262.0336931898941089
 20
6.2134040685774936
 30
0.0
 11
261.9798463343785784
 21
6.3066495090140533
 31
0.0
  0
ARC
  5
1BF1
  8
0
 10
261.9928296503456977
 20
6.314147041716148
 30
0.0
 40
0.0149926478689234
 50
149.9271727251993127
 51
210.0053341860007095
  0
LINE
  5
1BF2
  8
0
 10
261.9798551753028164
 20
6.321659863255495
 30
0.0
 11
262.0336931898941089
 21
6.4149104084774944
 31
0.0
  0
ARC
  5
1BF3
  8
0
 10
262.0466837564570142
 20
6.4074097152709681
 30
0.0
 40
0.0150005072649541
 50
89.9875236610973559
 51
149.9980612476290958
  0
LINE
  5
1BF4
  8
0
 10
262.0466870228653988
 20
6.4224102221802859
 30
0.0
 11
262.1543327111941153
 21
6.4224104082774938
 31
0.0
  0
ARC
  5
1BF5
  8
0
 10
262.1543321004763243
 20
6.4074095151585642
 30
0.0
 40
0.0150008931313625
 50
29.9898035454679501
 51
89.9976673689549642
  0
LINE
  5
1BF6
  8
0
 10
262.1673245895939885
 20
6.4149076496774944
 30
0.0
 11
262.2211611067847912
 21
6.3216598632563343
 31
0.0
  0
ARC
  5
1BF7
  8
0
 10
262.2081720698556069
 20
6.3141571350982408
 30
0.0
 40
0.0150002003375012
 50
329.9890927081199266
 51
30.0115916139435512
  0
LINE
  5
1BF8
  8
0
 10
262.2211611963940072
 20
6.3066545620774939
 30
0.0
 11
262.1673230920940796
 21
6.2134040685774918
 31
0.0
  0
ARC
  5
1BF9
  8
0
 10
262.1543320185015205
 20
6.2209052684846871
 30
0.0
 40
0.0150011997231865
 50
270.0026456790645284
 51
329.9973535965489759
  0
LINE
  5
1BFA
  8
0
 10
261.9520350003941189
 20
5.8609076808815361
 30
0.0
 11
261.8443871134941219
 21
5.860907763381535
 31
0.0
  0
ARC
  5
1BFB
  8
0
 10
261.8443871134941219
 20
5.875910017065725
 30
0.0
 40
0.0150022536841892
 50
210.0053341860025
 51
269.9999999999968168
  0
LINE
  5
1BFC
  8
0
 10
261.8313954790941125
 20
5.8684076806815364
 30
0.0
 11
261.777548623578582
 21
5.9616531211180952
 31
0.0
  0
ARC
  5
1BFD
  8
0
 10
261.7905319395457013
 20
5.9691506538201899
 30
0.0
 40
0.0149926478689234
 50
149.9271727251993127
 51
210.0053341860007095
  0
LINE
  5
1BFE
  8
0
 10
261.7775574645027064
 20
5.9766634753595369
 30
0.0
 11
261.8313954790941125
 21
6.0699140205815363
 31
0.0
  0
ARC
  5
1BFF
  8
0
 10
261.8443860456570746
 20
6.06241332737501
 30
0.0
 40
0.0150005072649541
 50
89.9875236610973559
 51
149.9980612476290958
  0
LINE
  5
1C00
  8
0
 10
261.8443893120652888
 20
6.0774138342843278
 30
0.0
 11
261.9520350003941189
 21
6.0774140203815357
 31
0.0
  0
ARC
  5
1C01
  8
0
 10
261.9520343896763279
 20
6.0624131272626061
 30
0.0
 40
0.0150008931313625
 50
29.9898035454679501
 51
89.9976673689549642
  0
LINE
  5
1C02
  8
0
 10
261.9650268787939922
 20
6.0699112617815363
 30
0.0
 11
262.0188633959847948
 21
5.9766634753603762
 31
0.0
  0
ARC
  5
1C03
  8
0
 10
262.0058743590556105
 20
5.9691607472022827
 30
0.0
 40
0.0150002003375012
 50
329.9890927081199266
 51
30.0115916139435512
  0
LINE
  5
1C04
  8
0
 10
262.0188634855941245
 20
5.9616581741815358
 30
0.0
 11
261.9650253812940832
 21
5.8684076806815337
 31
0.0
  0
ARC
  5
1C05
  8
0
 10
261.9520343077015241
 20
5.875908880588729
 30
0.0
 40
0.0150011997231865
 50
270.0026456790645284
 51
329.9973535965489759
  0
LINE
  5
1C06
  8
0
 10
261.9520350003941189
 20
6.0909077216774916
 30
0.0
 11
261.8443871134941219
 21
6.0909078041774922
 31
0.0
  0
ARC
  5
1C07
  8
0
 10
261.8443871134941219
 20
6.1059100578616814
 30
0.0
 40
0.0150022536841892
 50
210.0053341860023863
 51
269.9999999999968168
  0
LINE
  5
1C08
  8
0
 10
261.8313954790941125
 20
6.0984077214774919
 30
0.0
 11
261.777548623578582
 21
6.1916531619140507
 31
0.0
  0
ARC
  5
1C09
  8
0
 10
261.7905319395457013
 20
6.1991506946161472
 30
0.0
 40
0.0149926478689234
 50
149.9271727251993127
 51
210.0053341860007095
  0
LINE
  5
1C0A
  8
0
 10
261.7775574645027064
 20
6.2066635161554942
 30
0.0
 11
261.8313954790941125
 21
6.2999140613774918
 31
0.0
  0
ARC
  5
1C0B
  8
0
 10
261.8443860456570746
 20
6.2924133681709664
 30
0.0
 40
0.0150005072649541
 50
89.9875236610973559
 51
149.9980612476290958
  0
LINE
  5
1C0C
  8
0
 10
261.8443893120652888
 20
6.3074138750802851
 30
0.0
 11
261.9520350003941189
 21
6.307414061177492
 31
0.0
  0
ARC
  5
1C0D
  8
0
 10
261.9520343896763279
 20
6.2924131680585624
 30
0.0
 40
0.0150008931313625
 50
29.9898035454679501
 51
89.9976673689549642
  0
LINE
  5
1C0E
  8
0
 10
261.9650268787939922
 20
6.2999113025774918
 30
0.0
 11
262.0188633959847948
 21
6.2066635161563317
 31
0.0
  0
ARC
  5
1C0F
  8
0
 10
262.0058743590556105
 20
6.1991607879982391
 30
0.0
 40
0.0150002003375012
 50
329.9890927081199266
 51
30.0115916139435512
  0
LINE
  5
1C10
  8
0
 10
262.0188634855941245
 20
6.191658214977493
 30
0.0
 11
261.9650253812940832
 21
6.0984077214774901
 31
0.0
  0
ARC
  5
1C11
  8
0
 10
261.9520343077015241
 20
6.1059089213846862
 30
0.0
 40
0.0150011997231865
 50
270.0026456790645284
 51
329.9973535965489759
  0
LINE
  5
1C12
  8
0
 10
261.9520350003941189
 20
6.3209077313774928
 30
0.0
 11
261.8443871134941219
 21
6.3209078138774926
 31
0.0
  0
ARC
  5
1C13
  8
0
 10
261.8443871134941219
 20
6.3359100675616817
 30
0.0
 40
0.0150022536841892
 50
210.0053341860023863
 51
269.9999999999968168
  0
LINE
  5
1C14
  8
0
 10
261.8313954790941125
 20
6.328407731177494
 30
0.0
 11
261.777548623578582
 21
6.4216531716140519
 31
0.0
  0
ARC
  5
1C15
  8
0
 10
261.7905319395457013
 20
6.4291507043161484
 30
0.0
 40
0.0149926478689234
 50
149.9271727251993127
 51
210.0053341860007095
  0
LINE
  5
1C16
  8
0
 10
261.7775574645027064
 20
6.4366635258554954
 30
0.0
 11
261.7920245658451108
 21
6.4617213794594548
 31
0.0
  0
LINE
  5
1C17
  8
0
 10
262.0043962690101012
 20
6.4617213794594548
 30
0.0
 11
262.0188633959847948
 21
6.4366635258563329
 31
0.0
  0
ARC
  5
1C18
  8
0
 10
262.0058743590556105
 20
6.4291607976982412
 30
0.0
 40
0.0150002003375012
 50
329.9890927081199266
 51
30.0115916139435512
  0
LINE
  5
1C19
  8
0
 10
262.0188634855941245
 20
6.4216582246774943
 30
0.0
 11
261.9650253812940832
 21
6.3284077311774922
 31
0.0
  0
ARC
  5
1C1A
  8
0
 10
261.9520343077015241
 20
6.3359089310846866
 30
0.0
 40
0.0150011997231865
 50
270.0026456790645284
 51
329.9973535965489759
  0
LINE
  5
1C1B
  8
0
 10
261.5919416609756922
 20
5.8217213794595368
 30
0.0
 11
261.5775463332785762
 21
5.8466494585180948
 31
0.0
  0
ARC
  5
1C1C
  8
0
 10
261.5905296492456955
 20
5.8541469912201913
 30
0.0
 40
0.0149926478689234
 50
149.9271727251993127
 51
210.0053341860007095
  0
LINE
  5
1C1D
  8
0
 10
261.5775551742028142
 20
5.8616598127595383
 30
0.0
 11
261.631393188793993
 21
5.9549103579815359
 31
0.0
  0
ARC
  5
1C1E
  8
0
 10
261.6443837553571257
 20
5.9474096647750097
 30
0.0
 40
0.0150005072649541
 50
89.9875236610973559
 51
149.9980612476290958
  0
LINE
  5
1C1F
  8
0
 10
261.6443870217653966
 20
5.9624101716843292
 30
0.0
 11
261.7520327100939994
 21
5.9624103577815371
 31
0.0
  0
ARC
  5
1C20
  8
0
 10
261.7520320993763221
 20
5.9474094646626057
 30
0.0
 40
0.0150008931313625
 50
29.9898035454679501
 51
89.9976673689549642
  0
LINE
  5
1C21
  8
0
 10
261.7650245884941
 20
5.9549075991815359
 30
0.0
 11
261.8188611056849027
 21
5.8616598127603758
 31
0.0
  0
ARC
  5
1C22
  8
0
 10
261.805872068755491
 20
5.8541570846022841
 30
0.0
 40
0.0150002003375012
 50
329.9890927081199266
 51
30.0115916139435512
  0
LINE
  5
1C23
  8
0
 10
261.8188611952941187
 20
5.8466545115815372
 30
0.0
 11
261.804466069677801
 21
5.8217213794595377
 31
0.0
  0
LINE
  5
1C24
  8
0
 10
261.7520327100939994
 20
5.975904059077493
 30
0.0
 11
261.6443848231940024
 21
5.9759041415774918
 31
0.0
  0
ARC
  5
1C25
  8
0
 10
261.6443848231940024
 20
5.990906395261681
 30
0.0
 40
0.0150022536841892
 50
210.0053341860023863
 51
269.9999999999968168
  0
LINE
  5
1C26
  8
0
 10
261.631393188793993
 20
5.9834040588774933
 30
0.0
 11
261.5775463332785762
 21
6.0766494993140521
 31
0.0
  0
ARC
  5
1C27
  8
0
 10
261.5905296492456955
 20
6.0841470320161468
 30
0.0
 40
0.0149926478689234
 50
149.9271727251993127
 51
210.0053341860007095
  0
LINE
  5
1C28
  8
0
 10
261.5775551742028142
 20
6.0916598535554938
 30
0.0
 11
261.631393188793993
 21
6.1849103987774932
 31
0.0
  0
ARC
  5
1C29
  8
0
 10
261.6443837553571257
 20
6.177409705570966
 30
0.0
 40
0.0150005072649541
 50
89.9875236610973559
 51
149.9980612476290958
  0
LINE
  5
1C2A
  8
0
 10
261.6443870217653966
 20
6.1924102124802847
 30
0.0
 11
261.7520327100939994
 21
6.1924103985774934
 31
0.0
  0
ARC
  5
1C2B
  8
0
 10
261.7520320993763221
 20
6.177409505458562
 30
0.0
 40
0.0150008931313625
 50
29.9898035454679501
 51
89.9976673689549642
  0
LINE
  5
1C2C
  8
0
 10
261.7650245884941
 20
6.1849076399774932
 30
0.0
 11
261.8188611056849027
 21
6.0916598535563331
 31
0.0
  0
ARC
  5
1C2D
  8
0
 10
261.805872068755491
 20
6.0841571253982396
 30
0.0
 40
0.0150002003375012
 50
329.9890927081199266
 51
30.0115916139435512
  0
LINE
  5
1C2E
  8
0
 10
261.8188611952941187
 20
6.0766545523774926
 30
0.0
 11
261.7650230909940774
 21
5.9834040588774906
 31
0.0
  0
ARC
  5
1C2F
  8
0
 10
261.7520320174015183
 20
5.9909052587846858
 30
0.0
 40
0.0150011997231865
 50
270.0026456790645284
 51
329.9973535965489759
  0
LINE
  5
1C30
  8
0
 10
261.7520327100939994
 20
6.2059040687774942
 30
0.0
 11
261.6443848231940024
 21
6.2059041512774931
 31
0.0
  0
ARC
  5
1C31
  8
0
 10
261.6443848231940024
 20
6.2209064049616831
 30
0.0
 40
0.0150022536841892
 50
210.0053341860023863
 51
269.9999999999968168
  0
LINE
  5
1C32
  8
0
 10
261.631393188793993
 20
6.2134040685774936
 30
0.0
 11
261.5775463332785762
 21
6.3066495090140533
 31
0.0
  0
ARC
  5
1C33
  8
0
 10
261.5905296492456955
 20
6.314147041716148
 30
0.0
 40
0.0149926478689234
 50
149.9271727251993127
 51
210.0053341860007095
  0
LINE
  5
1C34
  8
0
 10
261.5775551742028142
 20
6.321659863255495
 30
0.0
 11
261.631393188793993
 21
6.4149104084774944
 31
0.0
  0
ARC
  5
1C35
  8
0
 10
261.6443837553571257
 20
6.4074097152709681
 30
0.0
 40
0.0150005072649541
 50
89.9875236610973559
 51
149.9980612476290958
  0
LINE
  5
1C36
  8
0
 10
261.6443870217653966
 20
6.4224102221802859
 30
0.0
 11
261.7520327100939994
 21
6.4224104082774938
 31
0.0
  0
ARC
  5
1C37
  8
0
 10
261.7520320993763221
 20
6.4074095151585642
 30
0.0
 40
0.0150008931313625
 50
29.9898035454679501
 51
89.9976673689549642
  0
LINE
  5
1C38
  8
0
 10
261.7650245884941
 20
6.4149076496774944
 30
0.0
 11
261.8188611056849027
 21
6.3216598632563343
 31
0.0
  0
ARC
  5
1C39
  8
0
 10
261.805872068755491
 20
6.3141571350982408
 30
0.0
 40
0.0150002003375012
 50
329.9890927081199266
 51
30.0115916139435512
  0
LINE
  5
1C3A
  8
0
 10
261.8188611952941187
 20
6.3066545620774939
 30
0.0
 11
261.7650230909940774
 21
6.2134040685774918
 31
0.0
  0
ARC
  5
1C3B
  8
0
 10
261.7520320174015183
 20
6.2209052684846871
 30
0.0
 40
0.0150011997231865
 50
270.0026456790645284
 51
329.9973535965489759
  0
LINE
  5
1C3C
  8
0
 10
261.5497343557939871
 20
5.8609066993815357
 30
0.0
 11
261.4420864688939901
 21
5.8609067818815364
 31
0.0
  0
ARC
  5
1C3D
  8
0
 10
261.4420864688939901
 20
5.8759090355657246
 30
0.0
 40
0.0150022536841892
 50
210.0053341860025
 51
269.9999999999968168
  0
LINE
  5
1C3E
  8
0
 10
261.4290948344939807
 20
5.868406699181536
 30
0.0
 11
261.375247978978507
 21
5.9616521396180948
 31
0.0
  0
ARC
  5
1C3F
  8
0
 10
261.3882312949456832
 20
5.9691496723201913
 30
0.0
 40
0.0149926478689234
 50
149.9271727251993127
 51
210.0053341860007095
  0
LINE
  5
1C40
  8
0
 10
261.3752568199028019
 20
5.9766624938595383
 30
0.0
 11
261.4290948344939807
 21
6.0699130390815359
 31
0.0
  0
ARC
  5
1C41
  8
0
 10
261.4420854010571134
 20
6.0624123458750097
 30
0.0
 40
0.0150005072649541
 50
89.9875236610973559
 51
149.9980612476290958
  0
LINE
  5
1C42
  8
0
 10
261.4420886674653843
 20
6.0774128527843292
 30
0.0
 11
261.5497343557939871
 21
6.0774130388815371
 31
0.0
  0
ARC
  5
1C43
  8
0
 10
261.5497337450763098
 20
6.0624121457626057
 30
0.0
 40
0.0150008931313625
 50
29.9898035454679501
 51
89.9976673689549642
  0
LINE
  5
1C44
  8
0
 10
261.5627262341940877
 20
6.0699102802815359
 30
0.0
 11
261.6165627513847767
 21
5.9766624938603758
 31
0.0
  0
ARC
  5
1C45
  8
0
 10
261.6035737144554787
 20
5.9691597657022841
 30
0.0
 40
0.0150002003375012
 50
329.9890927081199266
 51
30.0115916139435512
  0
LINE
  5
1C46
  8
0
 10
261.6165628409941064
 20
5.9616571926815372
 30
0.0
 11
261.5627247366941219
 21
5.8684066991815351
 31
0.0
  0
ARC
  5
1C47
  8
0
 10
261.549733663101506
 20
5.8759078990887303
 30
0.0
 40
0.0150011997231865
 50
270.0026456790645284
 51
329.9973535965489759
  0
LINE
  5
1C48
  8
0
 10
261.5497343557939871
 20
6.090906740177493
 30
0.0
 11
261.4420864688939901
 21
6.0909068226774918
 31
0.0
  0
ARC
  5
1C49
  8
0
 10
261.4420864688939901
 20
6.105909076361681
 30
0.0
 40
0.0150022536841892
 50
210.0053341860023863
 51
269.9999999999968168
  0
LINE
  5
1C4A
  8
0
 10
261.4290948344939807
 20
6.0984067399774933
 30
0.0
 11
261.375247978978507
 21
6.1916521804140521
 31
0.0
  0
ARC
  5
1C4B
  8
0
 10
261.3882312949456832
 20
6.1991497131161468
 30
0.0
 40
0.0149926478689234
 50
149.9271727251993127
 51
210.0053341860007095
  0
LINE
  5
1C4C
  8
0
 10
261.3752568199028019
 20
6.2066625346554938
 30
0.0
 11
261.4290948344939807
 21
6.2999130798774932
 31
0.0
  0
ARC
  5
1C4D
  8
0
 10
261.4420854010571134
 20
6.292412386670966
 30
0.0
 40
0.0150005072649541
 50
89.9875236610973559
 51
149.9980612476290958
  0
LINE
  5
1C4E
  8
0
 10
261.4420886674653843
 20
6.3074128935802847
 30
0.0
 11
261.5497343557939871
 21
6.3074130796774934
 31
0.0
  0
ARC
  5
1C4F
  8
0
 10
261.5497337450763098
 20
6.292412186558562
 30
0.0
 40
0.0150008931313625
 50
29.9898035454679501
 51
89.9976673689549642
  0
LINE
  5
1C50
  8
0
 10
261.5627262341940877
 20
6.2999103210774932
 30
0.0
 11
261.6165627513847767
 21
6.2066625346563331
 31
0.0
  0
ARC
  5
1C51
  8
0
 10
261.6035737144554787
 20
6.1991598064982396
 30
0.0
 40
0.0150002003375012
 50
329.9890927081199266
 51
30.0115916139435512
  0
LINE
  5
1C52
  8
0
 10
261.6165628409941064
 20
6.1916572334774926
 30
0.0
 11
261.5627247366941219
 21
6.0984067399774906
 31
0.0
  0
ARC
  5
1C53
  8
0
 10
261.549733663101506
 20
6.1059079398846858
 30
0.0
 40
0.0150011997231865
 50
270.0026456790645284
 51
329.9973535965489759
  0
LINE
  5
1C54
  8
0
 10
261.5497343557939871
 20
6.3209067498774942
 30
0.0
 11
261.4420864688939901
 21
6.3209068323774931
 31
0.0
  0
ARC
  5
1C55
  8
0
 10
261.4420864688939901
 20
6.3359090860616831
 30
0.0
 40
0.0150022536841892
 50
210.0053341860023863
 51
269.9999999999968168
  0
LINE
  5
1C56
  8
0
 10
261.4290948344939807
 20
6.3284067496774936
 30
0.0
 11
261.375247978978507
 21
6.4216521901140533
 31
0.0
  0
ARC
  5
1C57
  8
0
 10
261.3882312949456832
 20
6.429149722816148
 30
0.0
 40
0.0149926478689234
 50
149.9271727251993127
 51
210.0053341860007095
  0
LINE
  5
1C58
  8
0
 10
261.3752568199028019
 20
6.436662544355495
 30
0.0
 11
261.3897244879121899
 21
6.4617213794594548
 31
0.0
  0
LINE
  5
1C59
  8
0
 10
261.6020950577420763
 20
6.4617213794594548
 30
0.0
 11
261.6165627513847767
 21
6.4366625443563343
 31
0.0
  0
ARC
  5
1C5A
  8
0
 10
261.6035737144554787
 20
6.4291598161982408
 30
0.0
 40
0.0150002003375012
 50
329.9890927081199266
 51
30.0115916139435512
  0
LINE
  5
1C5B
  8
0
 10
261.6165628409941064
 20
6.4216572431774939
 30
0.0
 11
261.5627247366941219
 21
6.3284067496774918
 31
0.0
  0
ARC
  5
1C5C
  8
0
 10
261.549733663101506
 20
6.3359079495846871
 30
0.0
 40
0.0150011997231865
 50
270.0026456790645284
 51
329.9973535965489759
  0
LINE
  5
1C5D
  8
0
 10
261.1896448457703741
 20
5.8217213794595368
 30
0.0
 11
261.1752479725785747
 21
5.8466521348180951
 31
0.0
  0
ARC
  5
1C5E
  8
0
 10
261.188231288545694
 20
5.8541496675201907
 30
0.0
 40
0.0149926478689234
 50
149.9271727251993127
 51
210.0053341860007095
  0
LINE
  5
1C5F
  8
0
 10
261.1752568135026991
 20
5.8616624890595377
 30
0.0
 11
261.2290948280941052
 21
5.9549130342815371
 31
0.0
  0
ARC
  5
1C60
  8
0
 10
261.2420853946570105
 20
5.9474123410750099
 30
0.0
 40
0.0150005072649541
 50
89.9875236610973559
 51
149.9980612476290958
  0
LINE
  5
1C61
  8
0
 10
261.2420886610653952
 20
5.9624128479843286
 30
0.0
 11
261.3497343493941116
 21
5.9624130340815373
 31
0.0
  0
ARC
  5
1C62
  8
0
 10
261.3497337386763206
 20
5.947412140962606
 30
0.0
 40
0.0150008931313625
 50
29.9898035454679501
 51
89.9976673689549642
  0
LINE
  5
1C63
  8
0
 10
261.3627262277939849
 20
5.9549102754815371
 30
0.0
 11
261.4165627449847875
 21
5.861662489060377
 31
0.0
  0
ARC
  5
1C64
  8
0
 10
261.4035737080556032
 20
5.8541597609022844
 30
0.0
 40
0.0150002003375012
 50
329.9890927081199266
 51
30.0115916139435512
  0
LINE
  5
1C65
  8
0
 10
261.4165628345940036
 20
5.8466571878815374
 30
0.0
 11
261.4021661638179808
 21
5.8217213794595377
 31
0.0
  0
LINE
  5
1C66
  8
0
 10
261.3497343493941116
 20
5.9759067353774933
 30
0.0
 11
261.2420864624941146
 21
5.975906817877493
 31
0.0
  0
ARC
  5
1C67
  8
0
 10
261.2420864624941146
 20
5.9909090715616822
 30
0.0
 40
0.0150022536841892
 50
210.0053341860023863
 51
269.9999999999968168
  0
LINE
  5
1C68
  8
0
 10
261.2290948280941052
 20
5.9834067351774927
 30
0.0
 11
261.1752479725785747
 21
6.0766521756140524
 31
0.0
  0
ARC
  5
1C69
  8
0
 10
261.188231288545694
 20
6.0841497083161471
 30
0.0
 40
0.0149926478689234
 50
149.9271727251993127
 51
210.0053341860007095
  0
LINE
  5
1C6A
  8
0
 10
261.1752568135026991
 20
6.0916625298554941
 30
0.0
 11
261.2290948280941052
 21
6.1849130750774934
 31
0.0
  0
ARC
  5
1C6B
  8
0
 10
261.2420853946570105
 20
6.1774123818709672
 30
0.0
 40
0.0150005072649541
 50
89.9875236610973559
 51
149.9980612476290958
  0
LINE
  5
1C6C
  8
0
 10
261.2420886610653952
 20
6.192412888780285
 30
0.0
 11
261.3497343493941116
 21
6.1924130748774928
 31
0.0
  0
ARC
  5
1C6D
  8
0
 10
261.3497337386763206
 20
6.1774121817585632
 30
0.0
 40
0.0150008931313625
 50
29.9898035454679501
 51
89.9976673689549642
  0
LINE
  5
1C6E
  8
0
 10
261.3627262277939849
 20
6.1849103162774934
 30
0.0
 11
261.4165627449847875
 21
6.0916625298563334
 31
0.0
  0
ARC
  5
1C6F
  8
0
 10
261.4035737080556032
 20
6.0841598016982399
 30
0.0
 40
0.0150002003375012
 50
329.9890927081199266
 51
30.0115916139435512
  0
LINE
  5
1C70
  8
0
 10
261.4165628345940036
 20
6.0766572286774929
 30
0.0
 11
261.3627247302940759
 21
5.9834067351774909
 31
0.0
  0
ARC
  5
1C71
  8
0
 10
261.3497336567015168
 20
5.9909079350846861
 30
0.0
 40
0.0150011997231865
 50
270.0026456790645284
 51
329.9973535965489759
  0
LINE
  5
1C72
  8
0
 10
261.3497343493941116
 20
6.2059067450774936
 30
0.0
 11
261.2420864624941146
 21
6.2059068275774942
 31
0.0
  0
ARC
  5
1C73
  8
0
 10
261.2420864624941146
 20
6.2209090812616834
 30
0.0
 40
0.0150022536841892
 50
210.0053341860023863
 51
269.9999999999968168
  0
LINE
  5
1C74
  8
0
 10
261.2290948280941052
 20
6.2134067448774939
 30
0.0
 11
261.1752479725785747
 21
6.3066521853140527
 31
0.0
  0
ARC
  5
1C75
  8
0
 10
261.188231288545694
 20
6.3141497180161492
 30
0.0
 40
0.0149926478689234
 50
149.9271727251993127
 51
210.0053341860007095
  0
LINE
  5
1C76
  8
0
 10
261.1752568135026991
 20
6.3216625395554962
 30
0.0
 11
261.2290948280941052
 21
6.4149130847774938
 31
0.0
  0
ARC
  5
1C77
  8
0
 10
261.2420853946570105
 20
6.4074123915709684
 30
0.0
 40
0.0150005072649541
 50
89.9875236610973559
 51
149.9980612476290958
  0
LINE
  5
1C78
  8
0
 10
261.2420886610653952
 20
6.4224128984802871
 30
0.0
 11
261.3497343493941116
 21
6.422413084577494
 31
0.0
  0
ARC
  5
1C79
  8
0
 10
261.3497337386763206
 20
6.4074121914585644
 30
0.0
 40
0.0150008931313625
 50
29.9898035454679501
 51
89.9976673689549642
  0
LINE
  5
1C7A
  8
0
 10
261.3627262277939849
 20
6.4149103259774938
 30
0.0
 11
261.4165627449847875
 21
6.3216625395563337
 31
0.0
  0
ARC
  5
1C7B
  8
0
 10
261.4035737080556032
 20
6.314159811398242
 30
0.0
 40
0.0150002003375012
 50
329.9890927081199266
 51
30.0115916139435512
  0
LINE
  5
1C7C
  8
0
 10
261.4165628345940036
 20
6.306657238377495
 30
0.0
 11
261.3627247302940759
 21
6.213406744877493
 31
0.0
  0
ARC
  5
1C7D
  8
0
 10
261.3497336567015168
 20
6.2209079447846882
 30
0.0
 40
0.0150011997231865
 50
270.0026456790645284
 51
329.9973535965489759
  0
LINE
  5
1C7E
  8
0
 10
261.1484316669183272
 20
5.8609066476595384
 30
0.0
 11
261.0498883749992274
 21
5.8609067231818903
 31
0.0
  0
LINE
  5
1C7F
  8
0
 10
260.982320386408901
 20
5.9911532788028534
 30
0.0
 11
261.0277921456183208
 21
6.0699129873595377
 31
0.0
  0
ARC
  5
1C80
  8
0
 10
261.0407827121812829
 20
6.0624122941530123
 30
0.0
 40
0.0150005072649541
 50
89.9875236610973559
 51
149.9980612476290958
  0
LINE
  5
1C81
  8
0
 10
261.0407859785896107
 20
6.0774128010623301
 30
0.0
 11
261.1484316669183272
 21
6.0774129871595379
 31
0.0
  0
ARC
  5
1C82
  8
0
 10
261.148431056200593
 20
6.0624120940406083
 30
0.0
 40
0.0150008931313625
 50
29.9898035454679501
 51
89.9976673689549642
  0
LINE
  5
1C83
  8
0
 10
261.1614235453183142
 20
6.0699102285595377
 30
0.0
 11
261.2152600625091168
 21
5.9766624421383776
 31
0.0
  0
ARC
  5
1C84
  8
0
 10
261.2022710255798188
 20
5.969159713980285
 30
0.0
 40
0.0150002003375012
 50
329.9890927081199266
 51
30.0115916139435512
  0
LINE
  5
1C85
  8
0
 10
261.2152601521183897
 20
5.961657140959538
 30
0.0
 11
261.1614220478182915
 21
5.868406647459536
 31
0.0
  0
ARC
  5
1C86
  8
0
 10
261.1484309742256755
 20
5.8759078473667321
 30
0.0
 40
0.0150011997231865
 50
270.0026456790645284
 51
329.9973535965489759
  0
LINE
  5
1C87
  8
0
 10
261.1484316669183272
 20
6.0909066884554939
 30
0.0
 11
261.0407837800182733
 21
6.0909067709554936
 31
0.0
  0
ARC
  5
1C88
  8
0
 10
261.0407837800182733
 20
6.1059090246396828
 30
0.0
 40
0.0150022536841892
 50
210.0053341860023863
 51
269.9999999999968168
  0
LINE
  5
1C89
  8
0
 10
261.0277921456183208
 20
6.098406688255495
 30
0.0
 11
260.9820906695646272
 21
6.1775469504385017
 31
0.0
  0
LINE
  5
1C8A
  8
0
 10
260.9820570906144894
 20
6.2206972761030608
 30
0.0
 11
261.0277921456183208
 21
6.299913028155494
 31
0.0
  0
ARC
  5
1C8B
  8
0
 10
261.0407827121812829
 20
6.2924123349489678
 30
0.0
 40
0.0150005072649541
 50
89.9875236610973559
 51
149.9980612476290958
  0
LINE
  5
1C8C
  8
0
 10
261.0407859785896107
 20
6.3074128418582873
 30
0.0
 11
261.1484316669183272
 21
6.3074130279554952
 31
0.0
  0
ARC
  5
1C8D
  8
0
 10
261.148431056200593
 20
6.2924121348365638
 30
0.0
 40
0.0150008931313625
 50
29.9898035454679501
 51
89.9976673689549642
  0
LINE
  5
1C8E
  8
0
 10
261.1614235453183142
 20
6.299910269355494
 30
0.0
 11
261.2152600625091168
 21
6.206662482934334
 31
0.0
  0
ARC
  5
1C8F
  8
0
 10
261.2022710255798188
 20
6.1991597547762423
 30
0.0
 40
0.0150002003375012
 50
329.9890927081199266
 51
30.0115916139435512
  0
LINE
  5
1C90
  8
0
 10
261.2152601521183897
 20
6.1916571817554953
 30
0.0
 11
261.1614220478182915
 21
6.0984066882554933
 31
0.0
  0
ARC
  5
1C91
  8
0
 10
261.1484309742256755
 20
6.1059078881626876
 30
0.0
 40
0.0150011997231865
 50
270.0026456790645284
 51
329.9973535965489759
  0
LINE
  5
1C92
  8
0
 10
261.1484316669183272
 20
6.3209066981554951
 30
0.0
 11
261.0407837800182733
 21
6.3209067806554948
 31
0.0
  0
ARC
  5
1C93
  8
0
 10
261.0407837800182733
 20
6.335909034339684
 30
0.0
 40
0.0150022536841892
 50
210.0053341860023863
 51
269.9999999999968168
  0
LINE
  5
1C94
  8
0
 10
261.0277921456183208
 20
6.3284066979554963
 30
0.0
 11
261.0044704460004255
 21
6.368792383095049
 31
0.0
  0
LINE
  5
1C95
  8
0
 10
261.2007923390045789
 20
6.4617213794594548
 30
0.0
 11
261.2152600625091168
 21
6.4366624926343361
 31
0.0
  0
ARC
  5
1C96
  8
0
 10
261.2022710255798188
 20
6.4291597644762426
 30
0.0
 40
0.0150002003375012
 50
329.9890927081199266
 51
30.0115916139435512
  0
LINE
  5
1C97
  8
0
 10
261.2152601521183897
 20
6.4216571914554956
 30
0.0
 11
261.1614220478182915
 21
6.3284066979554936
 31
0.0
  0
ARC
  5
1C98
  8
0
 10
261.1484309742256755
 20
6.3359078978626888
 30
0.0
 40
0.0150011997231865
 50
270.0026456790645284
 51
329.9973535965489759
  0
LINE
  5
1C99
  8
0
 10
261.1620100548262826
 20
6.4617213794594548
 30
0.0
 11
267.4623917824667956
 21
6.461721379459453
 31
0.0
  0
LINE
  5
1C9A
  8
0
 10
261.1620098831028258
 20
5.8217213794595368
 30
0.0
 11
267.4623920375603916
 21
5.8217213794595351
 31
0.0
  0
ARC
  5
1C9B
  8
0
 10
268.4323925939089008
 20
5.7717200361837051
 30
0.0
 40
0.0299986567241675
 50
269.9999999831683795
 51
0.0025747504777045
  0
LINE
  5
1C9C
  8
0
 10
268.4623912506028205
 20
5.7717213842595383
 30
0.0
 11
268.4623914656028205
 21
6.3593680917595368
 31
0.0
  0
ARC
  5
1C9D
  8
0
 10
268.4318418420210151
 20
6.3602101023790132
 30
0.0
 40
0.0305612251532846
 50
358.4212098763758263
 51
88.9684272679688348
  0
LINE
  5
1C9E
  8
0
 10
268.4323920470027929
 20
6.3907663743595382
 30
0.0
 11
268.2626616973028035
 21
6.3907668036595382
 31
0.0
  0
ARC
  5
1C9F
  8
0
 10
268.2627721058216821
 20
6.8959271558988577
 30
0.0
 40
0.5051603643048367
 50
250.0952956286523943
 51
269.9874773583724163
  0
LINE
  5
1CA0
  8
0
 10
268.0907868484027858
 20
6.4209449826595382
 30
0.0
 11
267.8049029085026973
 21
6.5247395557595373
 31
0.0
  0
ARC
  5
1CA1
  8
0
 10
267.7164237122378267
 20
6.2802269016017309
 30
0.0
 40
0.2600288565043991
 50
70.1068680118892331
 51
89.8134235432433741
  0
ARC
  5
1CA2
  8
0
 10
267.4623920375603916
 20
6.0017213793205224
 30
0.0
 40
0.1799999998609847
 50
269.9999999816702143
 51
357.1374187459636005
  0
LINE
  5
1CA3
  8
0
 10
267.6421674308027718
 20
5.9927320559595376
 30
0.0
 11
267.6423920375027024
 21
6.2813608615521641
 31
0.0
  0
ARC
  5
1CA4
  8
0
 10
267.4623917824669093
 20
6.28172076461823
 30
0.0
 40
0.1800006148412222
 50
359.8854396109846903
 51
90.0000000000130314
  0
LINE
  5
1CA5
  8
0
 10
264.6186570072521818
 20
5.8217213794595368
 30
0.0
 11
264.6330538505181948
 21
5.8466520829961874
 31
0.0
  0
ARC
  5
1CA6
  8
0
 10
264.6200705345510755
 20
5.8541496156982831
 30
0.0
 40
0.0149926478689234
 50
329.9946658139992905
 51
30.0728272748006411
  0
LINE
  5
1CA7
  8
0
 10
264.6330450095940137
 20
5.86166243723763
 30
0.0
 11
264.5792069950027212
 21
5.9549129824596276
 31
0.0
  0
ARC
  5
1CA8
  8
0
 10
264.5662164284398159
 20
5.9474122892531023
 30
0.0
 40
0.0150005072649541
 50
30.001938752370819
 51
90.0124763389026441
  0
LINE
  5
1CA9
  8
0
 10
264.5662131620313744
 20
5.96241279616242
 30
0.0
 11
264.4585674737027148
 21
5.9624129822596279
 31
0.0
  0
ARC
  5
1CAA
  8
0
 10
264.4585680844205058
 20
5.9474120891406983
 30
0.0
 40
0.0150008931313625
 50
90.0023326310450358
 51
150.0101964545320072
  0
LINE
  5
1CAB
  8
0
 10
264.4455755953027278
 20
5.9549102236596276
 30
0.0
 11
264.3917390781119252
 21
5.8616624372384676
 31
0.0
  0
ARC
  5
1CAC
  8
0
 10
264.4047281150412232
 20
5.854159709080375
 30
0.0
 40
0.0150002003375012
 50
149.9884083860563919
 51
210.0109072918801019
  0
LINE
  5
1CAD
  8
0
 10
264.3917389885027092
 20
5.846657136059628
 30
0.0
 11
264.4061356293594827
 21
5.8217213794595377
 31
0.0
  0
LINE
  5
1CAE
  8
0
 10
264.4585674737027148
 20
5.9759066835555839
 30
0.0
 11
264.5662153606027118
 21
5.9759067660555836
 31
0.0
  0
ARC
  5
1CAF
  8
0
 10
264.5662153606027118
 20
5.9909090197397727
 30
0.0
 40
0.0150022536841892
 50
270.0
 51
329.9946658139975852
  0
LINE
  5
1CB0
  8
0
 10
264.5792069950027212
 20
5.983406683355585
 30
0.0
 11
264.6330538505181948
 21
6.0766521237921429
 31
0.0
  0
ARC
  5
1CB1
  8
0
 10
264.6200705345510755
 20
6.0841496564942386
 30
0.0
 40
0.0149926478689234
 50
329.9946658139992905
 51
30.0728272748006411
  0
LINE
  5
1CB2
  8
0
 10
264.6330450095940137
 20
6.0916624780335864
 30
0.0
 11
264.5792069950027212
 21
6.184913023255584
 31
0.0
  0
ARC
  5
1CB3
  8
0
 10
264.5662164284398159
 20
6.1774123300490578
 30
0.0
 40
0.0150005072649541
 50
30.001938752370819
 51
90.0124763389026441
  0
LINE
  5
1CB4
  8
0
 10
264.5662131620313744
 20
6.1924128369583773
 30
0.0
 11
264.4585674737027148
 21
6.1924130230555852
 31
0.0
  0
ARC
  5
1CB5
  8
0
 10
264.4585680844205058
 20
6.1774121299366538
 30
0.0
 40
0.0150008931313625
 50
90.0023326310450358
 51
150.0101964545320072
  0
LINE
  5
1CB6
  8
0
 10
264.4455755953027278
 20
6.184910264455584
 30
0.0
 11
264.3917390781119252
 21
6.091662478034424
 31
0.0
  0
ARC
  5
1CB7
  8
0
 10
264.4047281150412232
 20
6.0841597498763322
 30
0.0
 40
0.0150002003375012
 50
149.9884083860563919
 51
210.0109072918801019
  0
LINE
  5
1CB8
  8
0
 10
264.3917389885027092
 20
6.0766571768555853
 30
0.0
 11
264.4455770928026936
 21
5.9834066833555832
 31
0.0
  0
ARC
  5
1CB9
  8
0
 10
264.4585681663953096
 20
5.9909078832627776
 30
0.0
 40
0.0150011997231865
 50
210.0026464034509104
 51
269.9973543209354716
  0
LINE
  5
1CBA
  8
0
 10
264.4585674737027148
 20
6.2059066932555851
 30
0.0
 11
264.5662153606027118
 21
6.2059067757555848
 31
0.0
  0
ARC
  5
1CBB
  8
0
 10
264.5662153606027118
 20
6.220909029439774
 30
0.0
 40
0.0150022536841892
 50
270.0
 51
329.9946658139975852
  0
LINE
  5
1CBC
  8
0
 10
264.5792069950027212
 20
6.2134066930555862
 30
0.0
 11
264.6330538505181948
 21
6.306652133492145
 31
0.0
  0
ARC
  5
1CBD
  8
0
 10
264.6200705345510755
 20
6.3141496661942398
 30
0.0
 40
0.0149926478689234
 50
329.9946658139992905
 51
30.0728272748006411
  0
LINE
  5
1CBE
  8
0
 10
264.6330450095940137
 20
6.3216624877335867
 30
0.0
 11
264.5792069950027212
 21
6.4149130329555861
 31
0.0
  0
ARC
  5
1CBF
  8
0
 10
264.5662164284398159
 20
6.407412339749059
 30
0.0
 40
0.0150005072649541
 50
30.001938752370819
 51
90.0124763389026441
  0
LINE
  5
1CC0
  8
0
 10
264.5662131620313744
 20
6.4224128466583776
 30
0.0
 11
264.4585674737027148
 21
6.4224130327555864
 31
0.0
  0
ARC
  5
1CC1
  8
0
 10
264.4585680844205058
 20
6.407412139636655
 30
0.0
 40
0.0150008931313625
 50
90.0023326310450358
 51
150.0101964545320072
  0
LINE
  5
1CC2
  8
0
 10
264.4455755953027278
 20
6.4149102741555861
 30
0.0
 11
264.3917390781119252
 21
6.3216624877344261
 31
0.0
  0
ARC
  5
1CC3
  8
0
 10
264.4047281150412232
 20
6.3141597595763326
 30
0.0
 40
0.0150002003375012
 50
149.9884083860563919
 51
210.0109072918801019
  0
LINE
  5
1CC4
  8
0
 10
264.3917389885027092
 20
6.3066571865555856
 30
0.0
 11
264.4455770928026936
 21
6.2134066930555836
 31
0.0
  0
ARC
  5
1CC5
  8
0
 10
264.4585681663953096
 20
6.2209078929627788
 30
0.0
 40
0.0150011997231865
 50
210.0026464034509104
 51
269.9973543209354716
  0
LINE
  5
1CC6
  8
0
 10
264.6608674684031257
 20
5.8609066476590392
 30
0.0
 11
264.7685153553031228
 21
5.8609067301590381
 31
0.0
  0
ARC
  5
1CC7
  8
0
 10
264.7685153553031228
 20
5.8759089838432281
 30
0.0
 40
0.0150022536841892
 50
270.0
 51
329.9946658139975284
  0
LINE
  5
1CC8
  8
0
 10
264.7815069897030753
 20
5.8684066474590386
 30
0.0
 11
264.8353538452186058
 21
5.9616520878955983
 31
0.0
  0
ARC
  5
1CC9
  8
0
 10
264.8223705292513728
 20
5.9691496205976931
 30
0.0
 40
0.0149926478689234
 50
329.9946658139992905
 51
30.0728272748006411
  0
LINE
  5
1CCA
  8
0
 10
264.8353450042943109
 20
5.97666244213704
 30
0.0
 11
264.7815069897030753
 21
6.0699129873590394
 31
0.0
  0
ARC
  5
1CCB
  8
0
 10
264.7685164231399995
 20
6.0624122941525131
 30
0.0
 40
0.0150005072649541
 50
30.001938752370819
 51
90.0124763389026441
  0
LINE
  5
1CCC
  8
0
 10
264.7685131567317853
 20
6.0774128010618309
 30
0.0
 11
264.6608674684031257
 21
6.0774129871590388
 31
0.0
  0
ARC
  5
1CCD
  8
0
 10
264.660868079120803
 20
6.0624120940401092
 30
0.0
 40
0.0150008931313625
 50
90.0023326310450358
 51
150.0101964545320072
  0
LINE
  5
1CCE
  8
0
 10
264.6478755900030819
 20
6.0699102285590394
 30
0.0
 11
264.5940390728122793
 21
5.9766624421378793
 31
0.0
  0
ARC
  5
1CCF
  8
0
 10
264.6070281097415773
 20
5.9691597139797858
 30
0.0
 40
0.0150002003375012
 50
149.9884083860563919
 51
210.0109072918801019
  0
LINE
  5
1CD0
  8
0
 10
264.5940389832031201
 20
5.9616571409590389
 30
0.0
 11
264.6478770875031046
 21
5.8684066474590368
 31
0.0
  0
ARC
  5
1CD1
  8
0
 10
264.6608681610956069
 20
5.8759078473662321
 30
0.0
 40
0.0150011997231865
 50
210.0026464034509104
 51
269.9973543209354716
  0
LINE
  5
1CD2
  8
0
 10
264.6608674684031257
 20
6.0909066884549947
 30
0.0
 11
264.7685153553031228
 21
6.0909067709549953
 31
0.0
  0
ARC
  5
1CD3
  8
0
 10
264.7685153553031228
 20
6.1059090246391836
 30
0.0
 40
0.0150022536841892
 50
270.0
 51
329.9946658139975852
  0
LINE
  5
1CD4
  8
0
 10
264.7815069897030753
 20
6.098406688254995
 30
0.0
 11
264.8353538452186058
 21
6.1916521286915538
 31
0.0
  0
ARC
  5
1CD5
  8
0
 10
264.8223705292513728
 20
6.1991496613936503
 30
0.0
 40
0.0149926478689234
 50
329.9946658139992905
 51
30.0728272748006411
  0
LINE
  5
1CD6
  8
0
 10
264.8353450042943109
 20
6.2066624829329973
 30
0.0
 11
264.7815069897030753
 21
6.2999130281549949
 31
0.0
  0
ARC
  5
1CD7
  8
0
 10
264.7685164231399995
 20
6.2924123349484686
 30
0.0
 40
0.0150005072649541
 50
30.001938752370819
 51
90.0124763389026441
  0
LINE
  5
1CD8
  8
0
 10
264.7685131567317853
 20
6.3074128418577882
 30
0.0
 11
264.6608674684031257
 21
6.307413027954996
 31
0.0
  0
ARC
  5
1CD9
  8
0
 10
264.660868079120803
 20
6.2924121348360647
 30
0.0
 40
0.0150008931313625
 50
90.0023326310450358
 51
150.0101964545320072
  0
LINE
  5
1CDA
  8
0
 10
264.6478755900030819
 20
6.2999102693549949
 30
0.0
 11
264.5940390728122793
 21
6.2066624829338348
 31
0.0
  0
ARC
  5
1CDB
  8
0
 10
264.6070281097415773
 20
6.1991597547757431
 30
0.0
 40
0.0150002003375012
 50
149.9884083860563919
 51
210.0109072918801019
  0
LINE
  5
1CDC
  8
0
 10
264.5940389832031201
 20
6.1916571817549961
 30
0.0
 11
264.6478770875031046
 21
6.0984066882549941
 31
0.0
  0
ARC
  5
1CDD
  8
0
 10
264.6608681610956069
 20
6.1059078881621893
 30
0.0
 40
0.0150011997231865
 50
210.0026464034509104
 51
269.9973543209354716
  0
LINE
  5
1CDE
  8
0
 10
264.6608674684031257
 20
6.320906698154996
 30
0.0
 11
264.7685153553031228
 21
6.3209067806549957
 31
0.0
  0
ARC
  5
1CDF
  8
0
 10
264.7685153553031228
 20
6.3359090343391848
 30
0.0
 40
0.0150022536841892
 50
270.0
 51
329.9946658139975852
  0
LINE
  5
1CE0
  8
0
 10
264.7815069897030753
 20
6.3284066979549971
 30
0.0
 11
264.8353538452186058
 21
6.421652138391555
 31
0.0
  0
ARC
  5
1CE1
  8
0
 10
264.8223705292513728
 20
6.4291496710936507
 30
0.0
 40
0.0149926478689234
 50
329.9946658139992905
 51
30.0728272748006411
  0
LINE
  5
1CE2
  8
0
 10
264.8353450042943109
 20
6.4366624926329976
 30
0.0
 11
264.8208773064230854
 21
6.4617213794594548
 31
0.0
  0
LINE
  5
1CE3
  8
0
 10
264.6085067963169877
 20
6.4617213794594548
 30
0.0
 11
264.5940390728122793
 21
6.4366624926338361
 31
0.0
  0
ARC
  5
1CE4
  8
0
 10
264.6070281097415773
 20
6.4291597644757443
 30
0.0
 40
0.0150002003375012
 50
149.9884083860563919
 51
210.0109072918801019
  0
LINE
  5
1CE5
  8
0
 10
264.5940389832031201
 20
6.4216571914549974
 30
0.0
 11
264.6478770875031046
 21
6.3284066979549953
 31
0.0
  0
ARC
  5
1CE6
  8
0
 10
264.6608681610956069
 20
6.3359078978621897
 30
0.0
 40
0.0150011997231865
 50
210.0026464034509104
 51
269.9973543209354716
  0
LINE
  5
1CE7
  8
0
 10
265.0209602540298874
 20
5.8217213794595368
 30
0.0
 11
265.0353555817270035
 21
5.8466494585180948
 31
0.0
  0
ARC
  5
1CE8
  8
0
 10
265.0223722657598842
 20
5.8541469912201913
 30
0.0
 40
0.0149926478689234
 50
329.9946658139992905
 51
30.0728272748006411
  0
LINE
  5
1CE9
  8
0
 10
265.0353467408028223
 20
5.8616598127595383
 30
0.0
 11
264.981508726211473
 21
5.9549103579815359
 31
0.0
  0
ARC
  5
1CEA
  8
0
 10
264.9685181596485108
 20
5.9474096647750097
 30
0.0
 40
0.0150005072649541
 50
30.001938752370819
 51
90.0124763389026441
  0
LINE
  5
1CEB
  8
0
 10
264.968514893240183
 20
5.9624101716843292
 30
0.0
 11
264.8608692049115234
 21
5.9624103577815371
 31
0.0
  0
ARC
  5
1CEC
  8
0
 10
264.8608698156293144
 20
5.9474094646626057
 30
0.0
 40
0.0150008931313625
 50
90.0023326310450358
 51
150.0101964545320072
  0
LINE
  5
1CED
  8
0
 10
264.8478773265114796
 20
5.9549075991815359
 30
0.0
 11
264.794040809320677
 21
5.8616598127603758
 31
0.0
  0
ARC
  5
1CEE
  8
0
 10
264.807029846249975
 20
5.8541570846022841
 30
0.0
 40
0.0150002003375012
 50
149.9884083860563919
 51
210.0109072918801019
  0
LINE
  5
1CEF
  8
0
 10
264.7940407197115178
 20
5.8466545115815372
 30
0.0
 11
264.8084358453277787
 21
5.8217213794595377
 31
0.0
  0
LINE
  5
1CF0
  8
0
 10
264.8608692049115234
 20
5.975904059077493
 30
0.0
 11
264.9685170918115205
 21
5.9759041415774918
 31
0.0
  0
ARC
  5
1CF1
  8
0
 10
264.9685170918115205
 20
5.990906395261681
 30
0.0
 40
0.0150022536841892
 50
270.0
 51
329.9946658139975852
  0
LINE
  5
1CF2
  8
0
 10
264.981508726211473
 20
5.9834040588774933
 30
0.0
 11
265.0353555817270035
 21
6.0766494993140521
 31
0.0
  0
ARC
  5
1CF3
  8
0
 10
265.0223722657598842
 20
6.0841470320161468
 30
0.0
 40
0.0149926478689234
 50
329.9946658139992905
 51
30.0728272748006411
  0
LINE
  5
1CF4
  8
0
 10
265.0353467408028223
 20
6.0916598535554938
 30
0.0
 11
264.981508726211473
 21
6.1849103987774932
 31
0.0
  0
ARC
  5
1CF5
  8
0
 10
264.9685181596485108
 20
6.177409705570966
 30
0.0
 40
0.0150005072649541
 50
30.001938752370819
 51
90.0124763389026441
  0
LINE
  5
1CF6
  8
0
 10
264.968514893240183
 20
6.1924102124802847
 30
0.0
 11
264.8608692049115234
 21
6.1924103985774934
 31
0.0
  0
ARC
  5
1CF7
  8
0
 10
264.8608698156293144
 20
6.177409505458562
 30
0.0
 40
0.0150008931313625
 50
90.0023326310450358
 51
150.0101964545320072
  0
LINE
  5
1CF8
  8
0
 10
264.8478773265114796
 20
6.1849076399774932
 30
0.0
 11
264.794040809320677
 21
6.0916598535563331
 31
0.0
  0
ARC
  5
1CF9
  8
0
 10
264.807029846249975
 20
6.0841571253982396
 30
0.0
 40
0.0150002003375012
 50
149.9884083860563919
 51
210.0109072918801019
  0
LINE
  5
1CFA
  8
0
 10
264.7940407197115178
 20
6.0766545523774926
 30
0.0
 11
264.8478788240115023
 21
5.9834040588774906
 31
0.0
  0
ARC
  5
1CFB
  8
0
 10
264.8608698976040046
 20
5.9909052587846858
 30
0.0
 40
0.0150011997231865
 50
210.0026464034509104
 51
269.9973543209354716
  0
LINE
  5
1CFC
  8
0
 10
264.8608692049115234
 20
6.2059040687774942
 30
0.0
 11
264.9685170918115205
 21
6.2059041512774931
 31
0.0
  0
ARC
  5
1CFD
  8
0
 10
264.9685170918115205
 20
6.2209064049616831
 30
0.0
 40
0.0150022536841892
 50
270.0
 51
329.9946658139975852
  0
LINE
  5
1CFE
  8
0
 10
264.981508726211473
 20
6.2134040685774936
 30
0.0
 11
265.0353555817270035
 21
6.3066495090140533
 31
0.0
  0
ARC
  5
1CFF
  8
0
 10
265.0223722657598842
 20
6.314147041716148
 30
0.0
 40
0.0149926478689234
 50
329.9946658139992905
 51
30.0728272748006411
  0
LINE
  5
1D00
  8
0
 10
265.0353467408028223
 20
6.321659863255495
 30
0.0
 11
264.981508726211473
 21
6.4149104084774944
 31
0.0
  0
ARC
  5
1D01
  8
0
 10
264.9685181596485108
 20
6.4074097152709681
 30
0.0
 40
0.0150005072649541
 50
30.001938752370819
 51
90.0124763389026441
  0
LINE
  5
1D02
  8
0
 10
264.968514893240183
 20
6.4224102221802859
 30
0.0
 11
264.8608692049115234
 21
6.4224104082774938
 31
0.0
  0
ARC
  5
1D03
  8
0
 10
264.8608698156293144
 20
6.4074095151585642
 30
0.0
 40
0.0150008931313625
 50
90.0023326310450358
 51
150.0101964545320072
  0
LINE
  5
1D04
  8
0
 10
264.8478773265114796
 20
6.4149076496774944
 30
0.0
 11
264.794040809320677
 21
6.3216598632563343
 31
0.0
  0
ARC
  5
1D05
  8
0
 10
264.807029846249975
 20
6.3141571350982408
 30
0.0
 40
0.0150002003375012
 50
149.9884083860563919
 51
210.0109072918801019
  0
LINE
  5
1D06
  8
0
 10
264.7940407197115178
 20
6.3066545620774939
 30
0.0
 11
264.8478788240115023
 21
6.2134040685774918
 31
0.0
  0
ARC
  5
1D07
  8
0
 10
264.8608698976040046
 20
6.2209052684846871
 30
0.0
 40
0.0150011997231865
 50
210.0026464034509104
 51
269.9973543209354716
  0
LINE
  5
1D08
  8
0
 10
265.0631674696036271
 20
5.8609066476581102
 30
0.0
 11
265.1708153565036241
 21
5.860906730158109
 31
0.0
  0
ARC
  5
1D09
  8
0
 10
265.1708153565036241
 20
5.8759089838422991
 30
0.0
 40
0.0150022536841892
 50
270.0
 51
329.9946658139975284
  0
LINE
  5
1D0A
  8
0
 10
265.1838069909035767
 20
5.8684066474581096
 30
0.0
 11
265.2376538464191071
 21
5.9616520878946693
 31
0.0
  0
ARC
  5
1D0B
  8
0
 10
265.2246705304519878
 20
5.969149620596764
 30
0.0
 40
0.0149926478689234
 50
329.9946658139992905
 51
30.0728272748006411
  0
LINE
  5
1D0C
  8
0
 10
265.237645005494926
 20
5.976662442136111
 30
0.0
 11
265.1838069909035767
 21
6.0699129873581104
 31
0.0
  0
ARC
  5
1D0D
  8
0
 10
265.1708164243406145
 20
6.0624122941515841
 30
0.0
 40
0.0150005072649541
 50
30.001938752370819
 51
90.0124763389026441
  0
LINE
  5
1D0E
  8
0
 10
265.1708131579322867
 20
6.0774128010609019
 30
0.0
 11
265.0631674696036271
 21
6.0774129871581097
 31
0.0
  0
ARC
  5
1D0F
  8
0
 10
265.0631680803213044
 20
6.0624120940391801
 30
0.0
 40
0.0150008931313625
 50
90.0023326310450358
 51
150.0101964545320072
  0
LINE
  5
1D10
  8
0
 10
265.0501755912035833
 20
6.0699102285581104
 30
0.0
 11
264.9963390740127807
 21
5.9766624421369503
 31
0.0
  0
ARC
  5
1D11
  8
0
 10
265.0093281109420786
 20
5.9691597139788568
 30
0.0
 40
0.0150002003375012
 50
149.9884083860563919
 51
210.0109072918801019
  0
LINE
  5
1D12
  8
0
 10
264.9963389844036215
 20
5.9616571409581098
 30
0.0
 11
265.0501770887036059
 21
5.8684066474581078
 31
0.0
  0
ARC
  5
1D13
  8
0
 10
265.0631681622962219
 20
5.875907847365303
 30
0.0
 40
0.0150011997231865
 50
210.0026464034509104
 51
269.9973543209354716
  0
LINE
  5
1D14
  8
0
 10
265.0631674696036271
 20
6.0909066884540657
 30
0.0
 11
265.1708153565036241
 21
6.0909067709540663
 31
0.0
  0
ARC
  5
1D15
  8
0
 10
265.1708153565036241
 20
6.1059090246382546
 30
0.0
 40
0.0150022536841892
 50
270.0
 51
329.9946658139975852
  0
LINE
  5
1D16
  8
0
 10
265.1838069909035767
 20
6.098406688254066
 30
0.0
 11
265.2376538464191071
 21
6.1916521286906248
 31
0.0
  0
ARC
  5
1D17
  8
0
 10
265.2246705304519878
 20
6.1991496613927213
 30
0.0
 40
0.0149926478689234
 50
329.9946658139992905
 51
30.0728272748006411
  0
LINE
  5
1D18
  8
0
 10
265.237645005494926
 20
6.2066624829320682
 30
0.0
 11
265.1838069909035767
 21
6.2999130281540658
 31
0.0
  0
ARC
  5
1D19
  8
0
 10
265.1708164243406145
 20
6.2924123349475396
 30
0.0
 40
0.0150005072649541
 50
30.001938752370819
 51
90.0124763389026441
  0
LINE
  5
1D1A
  8
0
 10
265.1708131579322867
 20
6.3074128418568591
 30
0.0
 11
265.0631674696036271
 21
6.3074130279540661
 31
0.0
  0
ARC
  5
1D1B
  8
0
 10
265.0631680803213044
 20
6.2924121348351356
 30
0.0
 40
0.0150008931313625
 50
90.0023326310450358
 51
150.0101964545320072
  0
LINE
  5
1D1C
  8
0
 10
265.0501755912035833
 20
6.2999102693540658
 30
0.0
 11
264.9963390740127807
 21
6.2066624829329058
 31
0.0
  0
ARC
  5
1D1D
  8
0
 10
265.0093281109420786
 20
6.1991597547748141
 30
0.0
 40
0.0150002003375012
 50
149.9884083860563919
 51
210.0109072918801019
  0
LINE
  5
1D1E
  8
0
 10
264.9963389844036215
 20
6.1916571817540671
 30
0.0
 11
265.0501770887036059
 21
6.0984066882540651
 31
0.0
  0
ARC
  5
1D1F
  8
0
 10
265.0631681622962219
 20
6.1059078881612603
 30
0.0
 40
0.0150011997231865
 50
210.0026464034509104
 51
269.9973543209354716
  0
LINE
  5
1D20
  8
0
 10
265.0631674696036271
 20
6.3209066981540669
 30
0.0
 11
265.1708153565036241
 21
6.3209067806540666
 31
0.0
  0
ARC
  5
1D21
  8
0
 10
265.1708153565036241
 20
6.3359090343382558
 30
0.0
 40
0.0150022536841892
 50
270.0
 51
329.9946658139975852
  0
LINE
  5
1D22
  8
0
 10
265.1838069909035767
 20
6.3284066979540681
 30
0.0
 11
265.2376538464191071
 21
6.421652138390626
 31
0.0
  0
ARC
  5
1D23
  8
0
 10
265.2246705304519878
 20
6.4291496710927216
 30
0.0
 40
0.0149926478689234
 50
329.9946658139992905
 51
30.0728272748006411
  0
LINE
  5
1D24
  8
0
 10
265.237645005494926
 20
6.4366624926320686
 30
0.0
 11
265.2231773076230752
 21
6.4617213794594548
 31
0.0
  0
LINE
  5
1D25
  8
0
 10
265.0108067975180006
 20
6.4617213794594548
 30
0.0
 11
264.9963390740127807
 21
6.436662492632907
 31
0.0
  0
ARC
  5
1D26
  8
0
 10
265.0093281109420786
 20
6.4291597644748153
 30
0.0
 40
0.0150002003375012
 50
149.9884083860563919
 51
210.0109072918801019
  0
LINE
  5
1D27
  8
0
 10
264.9963389844036215
 20
6.4216571914540683
 30
0.0
 11
265.0501770887036059
 21
6.3284066979540663
 31
0.0
  0
ARC
  5
1D28
  8
0
 10
265.0631681622962219
 20
6.3359078978612606
 30
0.0
 40
0.0150011997231865
 50
210.0026464034509104
 51
269.9973543209354716
  0
LINE
  5
1D29
  8
0
 10
265.4232570692350919
 20
5.8217213794595368
 30
0.0
 11
265.4376539424270049
 21
5.8466521348180951
 31
0.0
  0
ARC
  5
1D2A
  8
0
 10
265.4246706264597719
 20
5.8541496675201907
 30
0.0
 40
0.0149926478689234
 50
329.9946658139992905
 51
30.0728272748006411
  0
LINE
  5
1D2B
  8
0
 10
265.4376451015028238
 20
5.8616624890595377
 30
0.0
 11
265.3838070869114745
 21
5.9549130342815371
 31
0.0
  0
ARC
  5
1D2C
  8
0
 10
265.3708165203485123
 20
5.9474123410750099
 30
0.0
 40
0.0150005072649541
 50
30.001938752370819
 51
90.0124763389026441
  0
LINE
  5
1D2D
  8
0
 10
265.3708132539401845
 20
5.9624128479843286
 30
0.0
 11
265.2631675656115249
 21
5.9624130340815373
 31
0.0
  0
ARC
  5
1D2E
  8
0
 10
265.2631681763292022
 20
5.947412140962606
 30
0.0
 40
0.0150008931313625
 50
90.0023326310450358
 51
150.0101964545320072
  0
LINE
  5
1D2F
  8
0
 10
265.2501756872114811
 20
5.9549102754815371
 30
0.0
 11
265.1963391700206785
 21
5.861662489060377
 31
0.0
  0
ARC
  5
1D30
  8
0
 10
265.2093282069499764
 20
5.8541597609022844
 30
0.0
 40
0.0150002003375012
 50
149.9884083860563919
 51
210.0109072918801019
  0
LINE
  5
1D31
  8
0
 10
265.1963390804115193
 20
5.8466571878815374
 30
0.0
 11
265.2107357511875989
 21
5.8217213794595377
 31
0.0
  0
LINE
  5
1D32
  8
0
 10
265.2631675656115249
 20
5.9759067353774933
 30
0.0
 11
265.3708154525115219
 21
5.975906817877493
 31
0.0
  0
ARC
  5
1D33
  8
0
 10
265.3708154525115219
 20
5.9909090715616822
 30
0.0
 40
0.0150022536841892
 50
270.0
 51
329.9946658139975852
  0
LINE
  5
1D34
  8
0
 10
265.3838070869114745
 20
5.9834067351774927
 30
0.0
 11
265.4376539424270049
 21
6.0766521756140524
 31
0.0
  0
ARC
  5
1D35
  8
0
 10
265.4246706264597719
 20
6.0841497083161471
 30
0.0
 40
0.0149926478689234
 50
329.9946658139992905
 51
30.0728272748006411
  0
LINE
  5
1D36
  8
0
 10
265.4376451015028238
 20
6.0916625298554941
 30
0.0
 11
265.3838070869114745
 21
6.1849130750774934
 31
0.0
  0
ARC
  5
1D37
  8
0
 10
265.3708165203485123
 20
6.1774123818709672
 30
0.0
 40
0.0150005072649541
 50
30.001938752370819
 51
90.0124763389026441
  0
LINE
  5
1D38
  8
0
 10
265.3708132539401845
 20
6.192412888780285
 30
0.0
 11
265.2631675656115249
 21
6.1924130748774928
 31
0.0
  0
ARC
  5
1D39
  8
0
 10
265.2631681763292022
 20
6.1774121817585632
 30
0.0
 40
0.0150008931313625
 50
90.0023326310450358
 51
150.0101964545320072
  0
LINE
  5
1D3A
  8
0
 10
265.2501756872114811
 20
6.1849103162774934
 30
0.0
 11
265.1963391700206785
 21
6.0916625298563334
 31
0.0
  0
ARC
  5
1D3B
  8
0
 10
265.2093282069499764
 20
6.0841598016982399
 30
0.0
 40
0.0150002003375012
 50
149.9884083860563919
 51
210.0109072918801019
  0
LINE
  5
1D3C
  8
0
 10
265.1963390804115193
 20
6.0766572286774929
 30
0.0
 11
265.2501771847115037
 21
5.9834067351774909
 31
0.0
  0
ARC
  5
1D3D
  8
0
 10
265.2631682583041197
 20
5.9909079350846861
 30
0.0
 40
0.0150011997231865
 50
210.0026464034509104
 51
269.9973543209354716
  0
LINE
  5
1D3E
  8
0
 10
265.2631675656115249
 20
6.2059067450774936
 30
0.0
 11
265.3708154525115219
 21
6.2059068275774942
 31
0.0
  0
ARC
  5
1D3F
  8
0
 10
265.3708154525115219
 20
6.2209090812616834
 30
0.0
 40
0.0150022536841892
 50
270.0
 51
329.9946658139975852
  0
LINE
  5
1D40
  8
0
 10
265.3838070869114745
 20
6.2134067448774939
 30
0.0
 11
265.4376539424270049
 21
6.3066521853140527
 31
0.0
  0
ARC
  5
1D41
  8
0
 10
265.4246706264597719
 20
6.3141497180161492
 30
0.0
 40
0.0149926478689234
 50
329.9946658139992905
 51
30.0728272748006411
  0
LINE
  5
1D42
  8
0
 10
265.4376451015028238
 20
6.3216625395554962
 30
0.0
 11
265.3838070869114745
 21
6.4149130847774938
 31
0.0
  0
ARC
  5
1D43
  8
0
 10
265.3708165203485123
 20
6.4074123915709684
 30
0.0
 40
0.0150005072649541
 50
30.001938752370819
 51
90.0124763389026441
  0
LINE
  5
1D44
  8
0
 10
265.3708132539401845
 20
6.4224128984802871
 30
0.0
 11
265.2631675656115249
 21
6.422413084577494
 31
0.0
  0
ARC
  5
1D45
  8
0
 10
265.2631681763292022
 20
6.4074121914585644
 30
0.0
 40
0.0150008931313625
 50
90.0023326310450358
 51
150.0101964545320072
  0
LINE
  5
1D46
  8
0
 10
265.2501756872114811
 20
6.4149103259774938
 30
0.0
 11
265.1963391700206785
 21
6.3216625395563337
 31
0.0
  0
ARC
  5
1D47
  8
0
 10
265.2093282069499764
 20
6.314159811398242
 30
0.0
 40
0.0150002003375012
 50
149.9884083860563919
 51
210.0109072918801019
  0
LINE
  5
1D48
  8
0
 10
265.1963390804115193
 20
6.306657238377495
 30
0.0
 11
265.2501771847115037
 21
6.213406744877493
 31
0.0
  0
ARC
  5
1D49
  8
0
 10
265.2631682583041197
 20
6.2209079447846882
 30
0.0
 40
0.0150011997231865
 50
210.0026464034509104
 51
269.9973543209354716
  0
LINE
  5
1D4A
  8
0
 10
265.4654675603114811
 20
5.8609066993815357
 30
0.0
 11
265.5731154472114781
 21
5.8609067818815364
 31
0.0
  0
ARC
  5
1D4B
  8
0
 10
265.5731154472114781
 20
5.8759090355657246
 30
0.0
 40
0.0150022536841892
 50
270.0
 51
329.9946658139975284
  0
LINE
  5
1D4C
  8
0
 10
265.5861070816114875
 20
5.868406699181536
 30
0.0
 11
265.639953937127018
 21
5.9616521396180948
 31
0.0
  0
ARC
  5
1D4D
  8
0
 10
265.626970621159785
 20
5.9691496723201913
 30
0.0
 40
0.0149926478689234
 50
329.9946658139992905
 51
30.0728272748006411
  0
LINE
  5
1D4E
  8
0
 10
265.63994509620278
 20
5.9766624938595383
 30
0.0
 11
265.5861070816114875
 21
6.0699130390815359
 31
0.0
  0
ARC
  5
1D4F
  8
0
 10
265.5731165150485253
 20
6.0624123458750097
 30
0.0
 40
0.0150005072649541
 50
30.001938752370819
 51
90.0124763389026441
  0
LINE
  5
1D50
  8
0
 10
265.5731132486401975
 20
6.0774128527843292
 30
0.0
 11
265.4654675603114811
 21
6.0774130388815371
 31
0.0
  0
ARC
  5
1D51
  8
0
 10
265.4654681710292152
 20
6.0624121457626057
 30
0.0
 40
0.0150008931313625
 50
90.0023326310450358
 51
150.0101964545320072
  0
LINE
  5
1D52
  8
0
 10
265.4524756819114941
 20
6.0699102802815359
 30
0.0
 11
265.3986391647206915
 21
5.9766624938603758
 31
0.0
  0
ARC
  5
1D53
  8
0
 10
265.4116282016499895
 20
5.9691597657022841
 30
0.0
 40
0.0150002003375012
 50
149.9884083860563919
 51
210.0109072918801019
  0
LINE
  5
1D54
  8
0
 10
265.3986390751114754
 20
5.9616571926815372
 30
0.0
 11
265.4524771794115168
 21
5.8684066991815351
 31
0.0
  0
ARC
  5
1D55
  8
0
 10
265.4654682530040759
 20
5.8759078990887303
 30
0.0
 40
0.0150011997231865
 50
210.0026464034509104
 51
269.9973543209354716
  0
LINE
  5
1D56
  8
0
 10
265.4654675603114811
 20
6.090906740177493
 30
0.0
 11
265.5731154472114781
 21
6.0909068226774918
 31
0.0
  0
ARC
  5
1D57
  8
0
 10
265.5731154472114781
 20
6.105909076361681
 30
0.0
 40
0.0150022536841892
 50
270.0
 51
329.9946658139975852
  0
LINE
  5
1D58
  8
0
 10
265.5861070816114875
 20
6.0984067399774933
 30
0.0
 11
265.639953937127018
 21
6.1916521804140521
 31
0.0
  0
ARC
  5
1D59
  8
0
 10
265.626970621159785
 20
6.1991497131161468
 30
0.0
 40
0.0149926478689234
 50
329.9946658139992905
 51
30.0728272748006411
  0
LINE
  5
1D5A
  8
0
 10
265.63994509620278
 20
6.2066625346554938
 30
0.0
 11
265.5861070816114875
 21
6.2999130798774932
 31
0.0
  0
ARC
  5
1D5B
  8
0
 10
265.5731165150485253
 20
6.292412386670966
 30
0.0
 40
0.0150005072649541
 50
30.001938752370819
 51
90.0124763389026441
  0
LINE
  5
1D5C
  8
0
 10
265.5731132486401975
 20
6.3074128935802847
 30
0.0
 11
265.4654675603114811
 21
6.3074130796774934
 31
0.0
  0
ARC
  5
1D5D
  8
0
 10
265.4654681710292152
 20
6.292412186558562
 30
0.0
 40
0.0150008931313625
 50
90.0023326310450358
 51
150.0101964545320072
  0
LINE
  5
1D5E
  8
0
 10
265.4524756819114941
 20
6.2999103210774932
 30
0.0
 11
265.3986391647206915
 21
6.2066625346563331
 31
0.0
  0
ARC
  5
1D5F
  8
0
 10
265.4116282016499895
 20
6.1991598064982396
 30
0.0
 40
0.0150002003375012
 50
149.9884083860563919
 51
210.0109072918801019
  0
LINE
  5
1D60
  8
0
 10
265.3986390751114754
 20
6.1916572334774926
 30
0.0
 11
265.4524771794115168
 21
6.0984067399774906
 31
0.0
  0
ARC
  5
1D61
  8
0
 10
265.4654682530040759
 20
6.1059079398846858
 30
0.0
 40
0.0150011997231865
 50
210.0026464034509104
 51
269.9973543209354716
  0
LINE
  5
1D62
  8
0
 10
265.4654675603114811
 20
6.3209067498774942
 30
0.0
 11
265.5731154472114781
 21
6.3209068323774931
 31
0.0
  0
ARC
  5
1D63
  8
0
 10
265.5731154472114781
 20
6.3359090860616831
 30
0.0
 40
0.0150022536841892
 50
270.0
 51
329.9946658139975852
  0
LINE
  5
1D64
  8
0
 10
265.5861070816114875
 20
6.3284067496774936
 30
0.0
 11
265.639953937127018
 21
6.4216521901140533
 31
0.0
  0
ARC
  5
1D65
  8
0
 10
265.626970621159785
 20
6.429149722816148
 30
0.0
 40
0.0149926478689234
 50
329.9946658139992905
 51
30.0728272748006411
  0
LINE
  5
1D66
  8
0
 10
265.63994509620278
 20
6.436662544355495
 30
0.0
 11
265.6254774281933919
 21
6.4617213794594548
 31
0.0
  0
LINE
  5
1D67
  8
0
 10
265.4131068583635056
 20
6.4617213794594548
 30
0.0
 11
265.3986391647206915
 21
6.4366625443563343
 31
0.0
  0
ARC
  5
1D68
  8
0
 10
265.4116282016499895
 20
6.4291598161982408
 30
0.0
 40
0.0150002003375012
 50
149.9884083860563919
 51
210.0109072918801019
  0
LINE
  5
1D69
  8
0
 10
265.3986390751114754
 20
6.4216572431774939
 30
0.0
 11
265.4524771794115168
 21
6.3284067496774918
 31
0.0
  0
ARC
  5
1D6A
  8
0
 10
265.4654682530040759
 20
6.3359079495846871
 30
0.0
 40
0.0150011997231865
 50
210.0026464034509104
 51
269.9973543209354716
  0
LINE
  5
1D6B
  8
0
 10
265.8255570703352078
 20
5.8217213794595368
 30
0.0
 11
265.8399539435270071
 21
5.8466521348180951
 31
0.0
  0
ARC
  5
1D6C
  8
0
 10
265.8269706275597741
 20
5.8541496675201907
 30
0.0
 40
0.0149926478689234
 50
329.9946658139992905
 51
30.0728272748006411
  0
LINE
  5
1D6D
  8
0
 10
265.839945102602826
 20
5.8616624890595377
 30
0.0
 11
265.7861070880114767
 21
5.9549130342815371
 31
0.0
  0
ARC
  5
1D6E
  8
0
 10
265.7731165214485145
 20
5.9474123410750099
 30
0.0
 40
0.0150005072649541
 50
30.001938752370819
 51
90.0124763389026441
  0
LINE
  5
1D6F
  8
0
 10
265.7731132550401867
 20
5.9624128479843286
 30
0.0
 11
265.6654675667115271
 21
5.9624130340815373
 31
0.0
  0
ARC
  5
1D70
  8
0
 10
265.6654681774293181
 20
5.947412140962606
 30
0.0
 40
0.0150008931313625
 50
90.0023326310450358
 51
150.0101964545320072
  0
LINE
  5
1D71
  8
0
 10
265.6524756883114833
 20
5.9549102754815371
 30
0.0
 11
265.5986391711206807
 21
5.861662489060377
 31
0.0
  0
ARC
  5
1D72
  8
0
 10
265.6116282080499786
 20
5.8541597609022844
 30
0.0
 40
0.0150002003375012
 50
149.9884083860563919
 51
210.0109072918801019
  0
LINE
  5
1D73
  8
0
 10
265.5986390815115215
 20
5.8466571878815374
 30
0.0
 11
265.6130357522876011
 21
5.8217213794595377
 31
0.0
  0
LINE
  5
1D74
  8
0
 10
265.6654675667115271
 20
5.9759067353774933
 30
0.0
 11
265.7731154536115241
 21
5.975906817877493
 31
0.0
  0
ARC
  5
1D75
  8
0
 10
265.7731154536115241
 20
5.9909090715616822
 30
0.0
 40
0.0150022536841892
 50
270.0
 51
329.9946658139975852
  0
LINE
  5
1D76
  8
0
 10
265.7861070880114767
 20
5.9834067351774927
 30
0.0
 11
265.8399539435270071
 21
6.0766521756140524
 31
0.0
  0
ARC
  5
1D77
  8
0
 10
265.8269706275597741
 20
6.0841497083161471
 30
0.0
 40
0.0149926478689234
 50
329.9946658139992905
 51
30.0728272748006411
  0
LINE
  5
1D78
  8
0
 10
265.839945102602826
 20
6.0916625298554941
 30
0.0
 11
265.7861070880114767
 21
6.1849130750774934
 31
0.0
  0
ARC
  5
1D79
  8
0
 10
265.7731165214485145
 20
6.1774123818709672
 30
0.0
 40
0.0150005072649541
 50
30.001938752370819
 51
90.0124763389026441
  0
LINE
  5
1D7A
  8
0
 10
265.7731132550401867
 20
6.192412888780285
 30
0.0
 11
265.6654675667115271
 21
6.1924130748774928
 31
0.0
  0
ARC
  5
1D7B
  8
0
 10
265.6654681774293181
 20
6.1774121817585632
 30
0.0
 40
0.0150008931313625
 50
90.0023326310450358
 51
150.0101964545320072
  0
LINE
  5
1D7C
  8
0
 10
265.6524756883114833
 20
6.1849103162774934
 30
0.0
 11
265.5986391711206807
 21
6.0916625298563334
 31
0.0
  0
ARC
  5
1D7D
  8
0
 10
265.6116282080499786
 20
6.0841598016982399
 30
0.0
 40
0.0150002003375012
 50
149.9884083860563919
 51
210.0109072918801019
  0
LINE
  5
1D7E
  8
0
 10
265.5986390815115215
 20
6.0766572286774929
 30
0.0
 11
265.6524771858115059
 21
5.9834067351774909
 31
0.0
  0
ARC
  5
1D7F
  8
0
 10
265.6654682594041219
 20
5.9909079350846861
 30
0.0
 40
0.0150011997231865
 50
210.0026464034509104
 51
269.9973543209354716
  0
LINE
  5
1D80
  8
0
 10
265.6654675667115271
 20
6.2059067450774936
 30
0.0
 11
265.7731154536115241
 21
6.2059068275774942
 31
0.0
  0
ARC
  5
1D81
  8
0
 10
265.7731154536115241
 20
6.2209090812616834
 30
0.0
 40
0.0150022536841892
 50
270.0
 51
329.9946658139975852
  0
LINE
  5
1D82
  8
0
 10
265.7861070880114767
 20
6.2134067448774939
 30
0.0
 11
265.8399539435270071
 21
6.3066521853140527
 31
0.0
  0
ARC
  5
1D83
  8
0
 10
265.8269706275597741
 20
6.3141497180161492
 30
0.0
 40
0.0149926478689234
 50
329.9946658139992905
 51
30.0728272748006411
  0
LINE
  5
1D84
  8
0
 10
265.839945102602826
 20
6.3216625395554962
 30
0.0
 11
265.7861070880114767
 21
6.4149130847774938
 31
0.0
  0
ARC
  5
1D85
  8
0
 10
265.7731165214485145
 20
6.4074123915709684
 30
0.0
 40
0.0150005072649541
 50
30.001938752370819
 51
90.0124763389026441
  0
LINE
  5
1D86
  8
0
 10
265.7731132550401867
 20
6.4224128984802871
 30
0.0
 11
265.6654675667115271
 21
6.422413084577494
 31
0.0
  0
ARC
  5
1D87
  8
0
 10
265.6654681774293181
 20
6.4074121914585644
 30
0.0
 40
0.0150008931313625
 50
90.0023326310450358
 51
150.0101964545320072
  0
LINE
  5
1D88
  8
0
 10
265.6524756883114833
 20
6.4149103259774938
 30
0.0
 11
265.5986391711206807
 21
6.3216625395563337
 31
0.0
  0
ARC
  5
1D89
  8
0
 10
265.6116282080499786
 20
6.314159811398242
 30
0.0
 40
0.0150002003375012
 50
149.9884083860563919
 51
210.0109072918801019
  0
LINE
  5
1D8A
  8
0
 10
265.5986390815115215
 20
6.306657238377495
 30
0.0
 11
265.6524771858115059
 21
6.213406744877493
 31
0.0
  0
ARC
  5
1D8B
  8
0
 10
265.6654682594041219
 20
6.2209079447846882
 30
0.0
 40
0.0150011997231865
 50
210.0026464034509104
 51
269.9973543209354716
  0
LINE
  5
1D8C
  8
0
 10
265.8677674717985724
 20
5.8609066476668152
 30
0.0
 11
265.9754153586986263
 21
5.8609067301668141
 31
0.0
  0
ARC
  5
1D8D
  8
0
 10
265.9754153586986263
 20
5.8759089838510041
 30
0.0
 40
0.0150022536841892
 50
270.0
 51
329.9946658139975284
  0
LINE
  5
1D8E
  8
0
 10
265.9884069930985788
 20
5.8684066474668146
 30
0.0
 11
266.0422538486141093
 21
5.9616520879033743
 31
0.0
  0
ARC
  5
1D8F
  8
0
 10
266.0292705326468763
 20
5.9691496206054691
 30
0.0
 40
0.0149926478689234
 50
329.9946658139992905
 51
30.0728272748006411
  0
LINE
  5
1D90
  8
0
 10
266.0422450076899281
 20
5.976662442144816
 30
0.0
 11
265.9884069930985788
 21
6.0699129873668154
 31
0.0
  0
ARC
  5
1D91
  8
0
 10
265.975416426535503
 20
6.0624122941602892
 30
0.0
 40
0.0150005072649541
 50
30.001938752370819
 51
90.0124763389026441
  0
LINE
  5
1D92
  8
0
 10
265.9754131601272888
 20
6.0774128010696069
 30
0.0
 11
265.8677674717985724
 21
6.0774129871668148
 31
0.0
  0
ARC
  5
1D93
  8
0
 10
265.8677680825163065
 20
6.0624120940478852
 30
0.0
 40
0.0150008931313625
 50
90.0023326310450358
 51
150.0101964545320072
  0
LINE
  5
1D94
  8
0
 10
265.8547755933985854
 20
6.0699102285668154
 30
0.0
 11
265.8009390762077828
 21
5.9766624421456553
 31
0.0
  0
ARC
  5
1D95
  8
0
 10
265.8139281131370808
 20
5.9691597139875618
 30
0.0
 40
0.0150002003375012
 50
149.9884083860563919
 51
210.0109072918801019
  0
LINE
  5
1D96
  8
0
 10
265.8009389865986236
 20
5.9616571409668149
 30
0.0
 11
265.8547770908984944
 21
5.8684066474668128
 31
0.0
  0
ARC
  5
1D97
  8
0
 10
265.8677681644911104
 20
5.8759078473740081
 30
0.0
 40
0.0150011997231865
 50
210.0026464034509104
 51
269.9973543209354716
  0
LINE
  5
1D98
  8
0
 10
265.8677674717985724
 20
6.0909066884627707
 30
0.0
 11
265.9754153586986263
 21
6.0909067709627713
 31
0.0
  0
ARC
  5
1D99
  8
0
 10
265.9754153586986263
 20
6.1059090246469596
 30
0.0
 40
0.0150022536841892
 50
270.0
 51
329.9946658139975852
  0
LINE
  5
1D9A
  8
0
 10
265.9884069930985788
 20
6.098406688262771
 30
0.0
 11
266.0422538486141093
 21
6.1916521286993298
 31
0.0
  0
ARC
  5
1D9B
  8
0
 10
266.0292705326468763
 20
6.1991496614014263
 30
0.0
 40
0.0149926478689234
 50
329.9946658139992905
 51
30.0728272748006411
  0
LINE
  5
1D9C
  8
0
 10
266.0422450076899281
 20
6.2066624829407733
 30
0.0
 11
265.9884069930985788
 21
6.2999130281627709
 31
0.0
  0
ARC
  5
1D9D
  8
0
 10
265.975416426535503
 20
6.2924123349562446
 30
0.0
 40
0.0150005072649541
 50
30.001938752370819
 51
90.0124763389026441
  0
LINE
  5
1D9E
  8
0
 10
265.9754131601272888
 20
6.3074128418655642
 30
0.0
 11
265.8677674717985724
 21
6.307413027962772
 31
0.0
  0
ARC
  5
1D9F
  8
0
 10
265.8677680825163065
 20
6.2924121348438407
 30
0.0
 40
0.0150008931313625
 50
90.0023326310450358
 51
150.0101964545320072
  0
LINE
  5
1DA0
  8
0
 10
265.8547755933985854
 20
6.2999102693627709
 30
0.0
 11
265.8009390762077828
 21
6.2066624829416108
 31
0.0
  0
ARC
  5
1DA1
  8
0
 10
265.8139281131370808
 20
6.1991597547835191
 30
0.0
 40
0.0150002003375012
 50
149.9884083860563919
 51
210.0109072918801019
  0
LINE
  5
1DA2
  8
0
 10
265.8009389865986236
 20
6.1916571817627721
 30
0.0
 11
265.8547770908984944
 21
6.0984066882627701
 31
0.0
  0
ARC
  5
1DA3
  8
0
 10
265.8677681644911104
 20
6.1059078881699653
 30
0.0
 40
0.0150011997231865
 50
210.0026464034509104
 51
269.9973543209354716
  0
LINE
  5
1DA4
  8
0
 10
265.8677674717985724
 20
6.320906698162772
 30
0.0
 11
265.9754153586986263
 21
6.3209067806627717
 31
0.0
  0
ARC
  5
1DA5
  8
0
 10
265.9754153586986263
 20
6.3359090343469608
 30
0.0
 40
0.0150022536841892
 50
270.0
 51
329.9946658139975852
  0
LINE
  5
1DA6
  8
0
 10
265.9884069930985788
 20
6.3284066979627731
 30
0.0
 11
266.0422538486141093
 21
6.421652138399331
 31
0.0
  0
ARC
  5
1DA7
  8
0
 10
266.0292705326468763
 20
6.4291496711014267
 30
0.0
 40
0.0149926478689234
 50
329.9946658139992905
 51
30.0728272748006411
  0
LINE
  5
1DA8
  8
0
 10
266.0422450076899281
 20
6.4366624926407736
 30
0.0
 11
266.0277773098230796
 21
6.4617213794594548
 31
0.0
  0
LINE
  5
1DA9
  8
0
 10
265.8154067997080006
 20
6.4617213794594548
 30
0.0
 11
265.8009390762077828
 21
6.4366624926416121
 31
0.0
  0
ARC
  5
1DAA
  8
0
 10
265.8139281131370808
 20
6.4291597644835203
 30
0.0
 40
0.0150002003375012
 50
149.9884083860563919
 51
210.0109072918801019
  0
LINE
  5
1DAB
  8
0
 10
265.8009389865986236
 20
6.4216571914627734
 30
0.0
 11
265.8547770908984944
 21
6.3284066979627713
 31
0.0
  0
ARC
  5
1DAC
  8
0
 10
265.8677681644911104
 20
6.3359078978699657
 30
0.0
 40
0.0150011997231865
 50
210.0026464034509104
 51
269.9973543209354716
  0
LINE
  5
1DAD
  8
0
 10
266.2278602574298816
 20
5.8217213794595368
 30
0.0
 11
266.2422555851269976
 21
5.8466494585180948
 31
0.0
  0
ARC
  5
1DAE
  8
0
 10
266.2292722691598783
 20
5.8541469912201913
 30
0.0
 40
0.0149926478689234
 50
329.9946658139992905
 51
30.0728272748006411
  0
LINE
  5
1DAF
  8
0
 10
266.2422467442028164
 20
5.8616598127595383
 30
0.0
 11
266.188408729611524
 21
5.9549103579815359
 31
0.0
  0
ARC
  5
1DB0
  8
0
 10
266.175418163048505
 20
5.9474096647750097
 30
0.0
 40
0.0150005072649541
 50
30.001938752370819
 51
90.0124763389026441
  0
LINE
  5
1DB1
  8
0
 10
266.1754148966401772
 20
5.9624101716843292
 30
0.0
 11
266.0677692083115176
 21
5.9624103577815371
 31
0.0
  0
ARC
  5
1DB2
  8
0
 10
266.0677698190291949
 20
5.9474094646626057
 30
0.0
 40
0.0150008931313625
 50
90.0023326310450358
 51
150.0101964545320072
  0
LINE
  5
1DB3
  8
0
 10
266.0547773299114738
 20
5.9549075991815359
 30
0.0
 11
266.000940812720728
 21
5.8616598127603758
 31
0.0
  0
ARC
  5
1DB4
  8
0
 10
266.013929849650026
 20
5.8541570846022841
 30
0.0
 40
0.0150002003375012
 50
149.9884083860563919
 51
210.0109072918801019
  0
LINE
  5
1DB5
  8
0
 10
266.0009407231115119
 20
5.8466545115815372
 30
0.0
 11
266.0153358487277728
 21
5.8217213794595377
 31
0.0
  0
LINE
  5
1DB6
  8
0
 10
266.0677692083115176
 20
5.975904059077493
 30
0.0
 11
266.1754170952115146
 21
5.9759041415774918
 31
0.0
  0
ARC
  5
1DB7
  8
0
 10
266.1754170952115146
 20
5.990906395261681
 30
0.0
 40
0.0150022536841892
 50
270.0
 51
329.9946658139975852
  0
LINE
  5
1DB8
  8
0
 10
266.188408729611524
 20
5.9834040588774933
 30
0.0
 11
266.2422555851269976
 21
6.0766494993140521
 31
0.0
  0
ARC
  5
1DB9
  8
0
 10
266.2292722691598783
 20
6.0841470320161468
 30
0.0
 40
0.0149926478689234
 50
329.9946658139992905
 51
30.0728272748006411
  0
LINE
  5
1DBA
  8
0
 10
266.2422467442028164
 20
6.0916598535554938
 30
0.0
 11
266.188408729611524
 21
6.1849103987774932
 31
0.0
  0
ARC
  5
1DBB
  8
0
 10
266.175418163048505
 20
6.177409705570966
 30
0.0
 40
0.0150005072649541
 50
30.001938752370819
 51
90.0124763389026441
  0
LINE
  5
1DBC
  8
0
 10
266.1754148966401772
 20
6.1924102124802847
 30
0.0
 11
266.0677692083115176
 21
6.1924103985774934
 31
0.0
  0
ARC
  5
1DBD
  8
0
 10
266.0677698190291949
 20
6.177409505458562
 30
0.0
 40
0.0150008931313625
 50
90.0023326310450358
 51
150.0101964545320072
  0
LINE
  5
1DBE
  8
0
 10
266.0547773299114738
 20
6.1849076399774932
 30
0.0
 11
266.000940812720728
 21
6.0916598535563331
 31
0.0
  0
ARC
  5
1DBF
  8
0
 10
266.013929849650026
 20
6.0841571253982396
 30
0.0
 40
0.0150002003375012
 50
149.9884083860563919
 51
210.0109072918801019
  0
LINE
  5
1DC0
  8
0
 10
266.0009407231115119
 20
6.0766545523774926
 30
0.0
 11
266.0547788274114964
 21
5.9834040588774906
 31
0.0
  0
ARC
  5
1DC1
  8
0
 10
266.0677699010041124
 20
5.9909052587846858
 30
0.0
 40
0.0150011997231865
 50
210.0026464034509104
 51
269.9973543209354716
  0
LINE
  5
1DC2
  8
0
 10
266.0677692083115176
 20
6.2059040687774942
 30
0.0
 11
266.1754170952115146
 21
6.2059041512774931
 31
0.0
  0
ARC
  5
1DC3
  8
0
 10
266.1754170952115146
 20
6.2209064049616831
 30
0.0
 40
0.0150022536841892
 50
270.0
 51
329.9946658139975852
  0
LINE
  5
1DC4
  8
0
 10
266.188408729611524
 20
6.2134040685774936
 30
0.0
 11
266.2422555851269976
 21
6.3066495090140533
 31
0.0
  0
ARC
  5
1DC5
  8
0
 10
266.2292722691598783
 20
6.314147041716148
 30
0.0
 40
0.0149926478689234
 50
329.9946658139992905
 51
30.0728272748006411
  0
LINE
  5
1DC6
  8
0
 10
266.2422467442028164
 20
6.321659863255495
 30
0.0
 11
266.188408729611524
 21
6.4149104084774944
 31
0.0
  0
ARC
  5
1DC7
  8
0
 10
266.175418163048505
 20
6.4074097152709681
 30
0.0
 40
0.0150005072649541
 50
30.001938752370819
 51
90.0124763389026441
  0
LINE
  5
1DC8
  8
0
 10
266.1754148966401772
 20
6.4224102221802859
 30
0.0
 11
266.0677692083115176
 21
6.4224104082774938
 31
0.0
  0
ARC
  5
1DC9
  8
0
 10
266.0677698190291949
 20
6.4074095151585642
 30
0.0
 40
0.0150008931313625
 50
90.0023326310450358
 51
150.0101964545320072
  0
LINE
  5
1DCA
  8
0
 10
266.0547773299114738
 20
6.4149076496774944
 30
0.0
 11
266.000940812720728
 21
6.3216598632563343
 31
0.0
  0
ARC
  5
1DCB
  8
0
 10
266.013929849650026
 20
6.3141571350982408
 30
0.0
 40
0.0150002003375012
 50
149.9884083860563919
 51
210.0109072918801019
  0
LINE
  5
1DCC
  8
0
 10
266.0009407231115119
 20
6.3066545620774939
 30
0.0
 11
266.0547788274114964
 21
6.2134040685774918
 31
0.0
  0
ARC
  5
1DCD
  8
0
 10
266.0677699010041124
 20
6.2209052684846871
 30
0.0
 40
0.0150011997231865
 50
210.0026464034509104
 51
269.9973543209354716
  0
LINE
  5
1DCE
  8
0
 10
266.2700675626115867
 20
5.8609066993815357
 30
0.0
 11
266.3777154495115269
 21
5.8609067818815364
 31
0.0
  0
ARC
  5
1DCF
  8
0
 10
266.3777154495115269
 20
5.8759090355657246
 30
0.0
 40
0.0150022536841892
 50
270.0
 51
329.9946658139975284
  0
LINE
  5
1DD0
  8
0
 10
266.3907070839114795
 20
5.868406699181536
 30
0.0
 11
266.4445539394270099
 21
5.9616521396180948
 31
0.0
  0
ARC
  5
1DD1
  8
0
 10
266.4315706234598906
 20
5.9691496723201913
 30
0.0
 40
0.0149926478689234
 50
329.9946658139992905
 51
30.0728272748006411
  0
LINE
  5
1DD2
  8
0
 10
266.4445450985027719
 20
5.9766624938595383
 30
0.0
 11
266.3907070839114795
 21
6.0699130390815359
 31
0.0
  0
ARC
  5
1DD3
  8
0
 10
266.3777165173485173
 20
6.0624123458750097
 30
0.0
 40
0.0150005072649541
 50
30.001938752370819
 51
90.0124763389026441
  0
LINE
  5
1DD4
  8
0
 10
266.3777132509401895
 20
6.0774128527843292
 30
0.0
 11
266.2700675626115867
 21
6.0774130388815371
 31
0.0
  0
ARC
  5
1DD5
  8
0
 10
266.2700681733292072
 20
6.0624121457626057
 30
0.0
 40
0.0150008931313625
 50
90.0023326310450358
 51
150.0101964545320072
  0
LINE
  5
1DD6
  8
0
 10
266.2570756842114861
 20
6.0699102802815359
 30
0.0
 11
266.2032391670206835
 21
5.9766624938603758
 31
0.0
  0
ARC
  5
1DD7
  8
0
 10
266.2162282039500951
 20
5.9691597657022841
 30
0.0
 40
0.0150002003375012
 50
149.9884083860563919
 51
210.0109072918801019
  0
LINE
  5
1DD8
  8
0
 10
266.2032390774115242
 20
5.9616571926815372
 30
0.0
 11
266.2570771817115087
 21
5.8684066991815351
 31
0.0
  0
ARC
  5
1DD9
  8
0
 10
266.2700682553041247
 20
5.8759078990887303
 30
0.0
 40
0.0150011997231865
 50
210.0026464034509104
 51
269.9973543209354716
  0
LINE
  5
1DDA
  8
0
 10
266.2700675626115867
 20
6.090906740177493
 30
0.0
 11
266.3777154495115269
 21
6.0909068226774918
 31
0.0
  0
ARC
  5
1DDB
  8
0
 10
266.3777154495115269
 20
6.105909076361681
 30
0.0
 40
0.0150022536841892
 50
270.0
 51
329.9946658139975852
  0
LINE
  5
1DDC
  8
0
 10
266.3907070839114795
 20
6.0984067399774933
 30
0.0
 11
266.4445539394270099
 21
6.1916521804140521
 31
0.0
  0
ARC
  5
1DDD
  8
0
 10
266.4315706234598906
 20
6.1991497131161468
 30
0.0
 40
0.0149926478689234
 50
329.9946658139992905
 51
30.0728272748006411
  0
LINE
  5
1DDE
  8
0
 10
266.4445450985027719
 20
6.2066625346554938
 30
0.0
 11
266.3907070839114795
 21
6.2999130798774932
 31
0.0
  0
ARC
  5
1DDF
  8
0
 10
266.3777165173485173
 20
6.292412386670966
 30
0.0
 40
0.0150005072649541
 50
30.001938752370819
 51
90.0124763389026441
  0
LINE
  5
1DE0
  8
0
 10
266.3777132509401895
 20
6.3074128935802847
 30
0.0
 11
266.2700675626115867
 21
6.3074130796774934
 31
0.0
  0
ARC
  5
1DE1
  8
0
 10
266.2700681733292072
 20
6.292412186558562
 30
0.0
 40
0.0150008931313625
 50
90.0023326310450358
 51
150.0101964545320072
  0
LINE
  5
1DE2
  8
0
 10
266.2570756842114861
 20
6.2999103210774932
 30
0.0
 11
266.2032391670206835
 21
6.2066625346563331
 31
0.0
  0
ARC
  5
1DE3
  8
0
 10
266.2162282039500951
 20
6.1991598064982396
 30
0.0
 40
0.0150002003375012
 50
149.9884083860563919
 51
210.0109072918801019
  0
LINE
  5
1DE4
  8
0
 10
266.2032390774115242
 20
6.1916572334774926
 30
0.0
 11
266.2570771817115087
 21
6.0984067399774906
 31
0.0
  0
ARC
  5
1DE5
  8
0
 10
266.2700682553041247
 20
6.1059079398846858
 30
0.0
 40
0.0150011997231865
 50
210.0026464034509104
 51
269.9973543209354716
  0
LINE
  5
1DE6
  8
0
 10
266.2700675626115867
 20
6.3209067498774942
 30
0.0
 11
266.3777154495115269
 21
6.3209068323774931
 31
0.0
  0
ARC
  5
1DE7
  8
0
 10
266.3777154495115269
 20
6.3359090860616831
 30
0.0
 40
0.0150022536841892
 50
270.0
 51
329.9946658139975852
  0
LINE
  5
1DE8
  8
0
 10
266.3907070839114795
 20
6.3284067496774936
 30
0.0
 11
266.4445539394270099
 21
6.4216521901140533
 31
0.0
  0
ARC
  5
1DE9
  8
0
 10
266.4315706234598906
 20
6.429149722816148
 30
0.0
 40
0.0149926478689234
 50
329.9946658139992905
 51
30.0728272748006411
  0
LINE
  5
1DEA
  8
0
 10
266.4445450985027719
 20
6.436662544355495
 30
0.0
 11
266.4300774304933839
 21
6.4617213794594548
 31
0.0
  0
LINE
  5
1DEB
  8
0
 10
266.2177068606634975
 20
6.4617213794594548
 30
0.0
 11
266.2032391670206835
 21
6.4366625443563343
 31
0.0
  0
ARC
  5
1DEC
  8
0
 10
266.2162282039500951
 20
6.4291598161982408
 30
0.0
 40
0.0150002003375012
 50
149.9884083860563919
 51
210.0109072918801019
  0
LINE
  5
1DED
  8
0
 10
266.2032390774115242
 20
6.4216572431774939
 30
0.0
 11
266.2570771817115087
 21
6.3284067496774918
 31
0.0
  0
ARC
  5
1DEE
  8
0
 10
266.2700682553041247
 20
6.3359079495846871
 30
0.0
 40
0.0150011997231865
 50
210.0026464034509104
 51
269.9973543209354716
  0
LINE
  5
1DEF
  8
0
 10
266.6301602585298838
 20
5.8217213794595368
 30
0.0
 11
266.6445555862269998
 21
5.8466494585180948
 31
0.0
  0
ARC
  5
1DF0
  8
0
 10
266.6315722702598805
 20
5.8541469912201913
 30
0.0
 40
0.0149926478689234
 50
329.9946658139992905
 51
30.0728272748006411
  0
LINE
  5
1DF1
  8
0
 10
266.6445467453028186
 20
5.8616598127595383
 30
0.0
 11
266.5907087307115262
 21
5.9549103579815359
 31
0.0
  0
ARC
  5
1DF2
  8
0
 10
266.5777181641485072
 20
5.9474096647750097
 30
0.0
 40
0.0150005072649541
 50
30.001938752370819
 51
90.0124763389026441
  0
LINE
  5
1DF3
  8
0
 10
266.5777148977401794
 20
5.9624101716843292
 30
0.0
 11
266.4700692094115198
 21
5.9624103577815371
 31
0.0
  0
ARC
  5
1DF4
  8
0
 10
266.4700698201293108
 20
5.9474094646626057
 30
0.0
 40
0.0150008931313625
 50
90.0023326310450358
 51
150.0101964545320072
  0
LINE
  5
1DF5
  8
0
 10
266.457077331011476
 20
5.9549075991815359
 30
0.0
 11
266.4032408138206733
 21
5.8616598127603758
 31
0.0
  0
ARC
  5
1DF6
  8
0
 10
266.4162298507500282
 20
5.8541570846022841
 30
0.0
 40
0.0150002003375012
 50
149.9884083860563919
 51
210.0109072918801019
  0
LINE
  5
1DF7
  8
0
 10
266.4032407242115141
 20
5.8466545115815372
 30
0.0
 11
266.417635849827775
 21
5.8217213794595377
 31
0.0
  0
LINE
  5
1DF8
  8
0
 10
266.4700692094115198
 20
5.975904059077493
 30
0.0
 11
266.5777170963115168
 21
5.9759041415774918
 31
0.0
  0
ARC
  5
1DF9
  8
0
 10
266.5777170963115168
 20
5.990906395261681
 30
0.0
 40
0.0150022536841892
 50
270.0
 51
329.9946658139975852
  0
LINE
  5
1DFA
  8
0
 10
266.5907087307115262
 20
5.9834040588774933
 30
0.0
 11
266.6445555862269998
 21
6.0766494993140521
 31
0.0
  0
ARC
  5
1DFB
  8
0
 10
266.6315722702598805
 20
6.0841470320161468
 30
0.0
 40
0.0149926478689234
 50
329.9946658139992905
 51
30.0728272748006411
  0
LINE
  5
1DFC
  8
0
 10
266.6445467453028186
 20
6.0916598535554938
 30
0.0
 11
266.5907087307115262
 21
6.1849103987774932
 31
0.0
  0
ARC
  5
1DFD
  8
0
 10
266.5777181641485072
 20
6.177409705570966
 30
0.0
 40
0.0150005072649541
 50
30.001938752370819
 51
90.0124763389026441
  0
LINE
  5
1DFE
  8
0
 10
266.5777148977401794
 20
6.1924102124802847
 30
0.0
 11
266.4700692094115198
 21
6.1924103985774934
 31
0.0
  0
ARC
  5
1DFF
  8
0
 10
266.4700698201293108
 20
6.177409505458562
 30
0.0
 40
0.0150008931313625
 50
90.0023326310450358
 51
150.0101964545320072
  0
LINE
  5
1E00
  8
0
 10
266.457077331011476
 20
6.1849076399774932
 30
0.0
 11
266.4032408138206733
 21
6.0916598535563331
 31
0.0
  0
ARC
  5
1E01
  8
0
 10
266.4162298507500282
 20
6.0841571253982396
 30
0.0
 40
0.0150002003375012
 50
149.9884083860563919
 51
210.0109072918801019
  0
LINE
  5
1E02
  8
0
 10
266.4032407242115141
 20
6.0766545523774926
 30
0.0
 11
266.4570788285114986
 21
5.9834040588774906
 31
0.0
  0
ARC
  5
1E03
  8
0
 10
266.4700699021040009
 20
5.9909052587846858
 30
0.0
 40
0.0150011997231865
 50
210.0026464034509104
 51
269.9973543209354716
  0
LINE
  5
1E04
  8
0
 10
266.4700692094115198
 20
6.2059040687774942
 30
0.0
 11
266.5777170963115168
 21
6.2059041512774931
 31
0.0
  0
ARC
  5
1E05
  8
0
 10
266.5777170963115168
 20
6.2209064049616831
 30
0.0
 40
0.0150022536841892
 50
270.0
 51
329.9946658139975852
  0
LINE
  5
1E06
  8
0
 10
266.5907087307115262
 20
6.2134040685774936
 30
0.0
 11
266.6445555862269998
 21
6.3066495090140533
 31
0.0
  0
ARC
  5
1E07
  8
0
 10
266.6315722702598805
 20
6.314147041716148
 30
0.0
 40
0.0149926478689234
 50
329.9946658139992905
 51
30.0728272748006411
  0
LINE
  5
1E08
  8
0
 10
266.6445467453028186
 20
6.321659863255495
 30
0.0
 11
266.5907087307115262
 21
6.4149104084774944
 31
0.0
  0
ARC
  5
1E09
  8
0
 10
266.5777181641485072
 20
6.4074097152709681
 30
0.0
 40
0.0150005072649541
 50
30.001938752370819
 51
90.0124763389026441
  0
LINE
  5
1E0A
  8
0
 10
266.5777148977401794
 20
6.4224102221802859
 30
0.0
 11
266.4700692094115198
 21
6.4224104082774938
 31
0.0
  0
ARC
  5
1E0B
  8
0
 10
266.4700698201293108
 20
6.4074095151585642
 30
0.0
 40
0.0150008931313625
 50
90.0023326310450358
 51
150.0101964545320072
  0
LINE
  5
1E0C
  8
0
 10
266.457077331011476
 20
6.4149076496774944
 30
0.0
 11
266.4032408138206733
 21
6.3216598632563343
 31
0.0
  0
ARC
  5
1E0D
  8
0
 10
266.4162298507500282
 20
6.3141571350982408
 30
0.0
 40
0.0150002003375012
 50
149.9884083860563919
 51
210.0109072918801019
  0
LINE
  5
1E0E
  8
0
 10
266.4032407242115141
 20
6.3066545620774939
 30
0.0
 11
266.4570788285114986
 21
6.2134040685774918
 31
0.0
  0
ARC
  5
1E0F
  8
0
 10
266.4700699021040009
 20
6.2209052684846871
 30
0.0
 40
0.0150011997231865
 50
210.0026464034509104
 51
269.9973543209354716
  0
LINE
  5
1E10
  8
0
 10
266.6723669202115161
 20
5.8609076808815361
 30
0.0
 11
266.7800148071115132
 21
5.860907763381535
 31
0.0
  0
ARC
  5
1E11
  8
0
 10
266.7800148071115132
 20
5.875910017065725
 30
0.0
 40
0.0150022536841892
 50
270.0
 51
329.9946658139975284
  0
LINE
  5
1E12
  8
0
 10
266.7930064415115226
 20
5.8684076806815364
 30
0.0
 11
266.8468532970269962
 21
5.9616531211180952
 31
0.0
  0
ARC
  5
1E13
  8
0
 10
266.8338699810598769
 20
5.9691506538201899
 30
0.0
 40
0.0149926478689234
 50
329.9946658139992905
 51
30.0728272748006411
  0
LINE
  5
1E14
  8
0
 10
266.846844456102815
 20
5.9766634753595369
 30
0.0
 11
266.7930064415115226
 21
6.0699140205815363
 31
0.0
  0
ARC
  5
1E15
  8
0
 10
266.7800158749485036
 20
6.06241332737501
 30
0.0
 40
0.0150005072649541
 50
30.001938752370819
 51
90.0124763389026441
  0
LINE
  5
1E16
  8
0
 10
266.7800126085401757
 20
6.0774138342843278
 30
0.0
 11
266.6723669202115161
 21
6.0774140203815357
 31
0.0
  0
ARC
  5
1E17
  8
0
 10
266.6723675309293071
 20
6.0624131272626061
 30
0.0
 40
0.0150008931313625
 50
90.0023326310450358
 51
150.0101964545320072
  0
LINE
  5
1E18
  8
0
 10
266.6593750418114723
 20
6.0699112617815363
 30
0.0
 11
266.6055385246207265
 21
5.9766634753603762
 31
0.0
  0
ARC
  5
1E19
  8
0
 10
266.6185275615500245
 20
5.9691607472022827
 30
0.0
 40
0.0150002003375012
 50
149.9884083860563919
 51
210.0109072918801019
  0
LINE
  5
1E1A
  8
0
 10
266.6055384350115105
 20
5.9616581741815358
 30
0.0
 11
266.659376539311495
 21
5.8684076806815337
 31
0.0
  0
ARC
  5
1E1B
  8
0
 10
266.6723676129039973
 20
5.875908880588729
 30
0.0
 40
0.0150011997231865
 50
210.0026464034509104
 51
269.9973543209354716
  0
LINE
  5
1E1C
  8
0
 10
266.6723669202115161
 20
6.0909077216774916
 30
0.0
 11
266.7800148071115132
 21
6.0909078041774922
 31
0.0
  0
ARC
  5
1E1D
  8
0
 10
266.7800148071115132
 20
6.1059100578616814
 30
0.0
 40
0.0150022536841892
 50
270.0
 51
329.9946658139975852
  0
LINE
  5
1E1E
  8
0
 10
266.7930064415115226
 20
6.0984077214774919
 30
0.0
 11
266.8468532970269962
 21
6.1916531619140507
 31
0.0
  0
ARC
  5
1E1F
  8
0
 10
266.8338699810598769
 20
6.1991506946161472
 30
0.0
 40
0.0149926478689234
 50
329.9946658139992905
 51
30.0728272748006411
  0
LINE
  5
1E20
  8
0
 10
266.846844456102815
 20
6.2066635161554942
 30
0.0
 11
266.7930064415115226
 21
6.2999140613774918
 31
0.0
  0
ARC
  5
1E21
  8
0
 10
266.7800158749485036
 20
6.2924133681709664
 30
0.0
 40
0.0150005072649541
 50
30.001938752370819
 51
90.0124763389026441
  0
LINE
  5
1E22
  8
0
 10
266.7800126085401757
 20
6.3074138750802851
 30
0.0
 11
266.6723669202115161
 21
6.307414061177492
 31
0.0
  0
ARC
  5
1E23
  8
0
 10
266.6723675309293071
 20
6.2924131680585624
 30
0.0
 40
0.0150008931313625
 50
90.0023326310450358
 51
150.0101964545320072
  0
LINE
  5
1E24
  8
0
 10
266.6593750418114723
 20
6.2999113025774918
 30
0.0
 11
266.6055385246207265
 21
6.2066635161563317
 31
0.0
  0
ARC
  5
1E25
  8
0
 10
266.6185275615500245
 20
6.1991607879982391
 30
0.0
 40
0.0150002003375012
 50
149.9884083860563919
 51
210.0109072918801019
  0
LINE
  5
1E26
  8
0
 10
266.6055384350115105
 20
6.191658214977493
 30
0.0
 11
266.659376539311495
 21
6.0984077214774901
 31
0.0
  0
ARC
  5
1E27
  8
0
 10
266.6723676129039973
 20
6.1059089213846862
 30
0.0
 40
0.0150011997231865
 50
210.0026464034509104
 51
269.9973543209354716
  0
LINE
  5
1E28
  8
0
 10
266.6723669202115161
 20
6.3209077313774928
 30
0.0
 11
266.7800148071115132
 21
6.3209078138774926
 31
0.0
  0
ARC
  5
1E29
  8
0
 10
266.7800148071115132
 20
6.3359100675616817
 30
0.0
 40
0.0150022536841892
 50
270.0
 51
329.9946658139975852
  0
LINE
  5
1E2A
  8
0
 10
266.7930064415115226
 20
6.328407731177494
 30
0.0
 11
266.8468532970269962
 21
6.4216531716140519
 31
0.0
  0
ARC
  5
1E2B
  8
0
 10
266.8338699810598769
 20
6.4291507043161484
 30
0.0
 40
0.0149926478689234
 50
329.9946658139992905
 51
30.0728272748006411
  0
LINE
  5
1E2C
  8
0
 10
266.846844456102815
 20
6.4366635258554954
 30
0.0
 11
266.8323773547604105
 21
6.4617213794594548
 31
0.0
  0
LINE
  5
1E2D
  8
0
 10
266.620005651595477
 20
6.4617213794594548
 30
0.0
 11
266.6055385246207265
 21
6.4366635258563329
 31
0.0
  0
ARC
  5
1E2E
  8
0
 10
266.6185275615500245
 20
6.4291607976982412
 30
0.0
 40
0.0150002003375012
 50
149.9884083860563919
 51
210.0109072918801019
  0
LINE
  5
1E2F
  8
0
 10
266.6055384350115105
 20
6.4216582246774943
 30
0.0
 11
266.659376539311495
 21
6.3284077311774922
 31
0.0
  0
ARC
  5
1E30
  8
0
 10
266.6723676129039973
 20
6.3359089310846866
 30
0.0
 40
0.0150011997231865
 50
210.0026464034509104
 51
269.9973543209354716
  0
LINE
  5
1E31
  8
0
 10
267.032460259629886
 20
5.8217213794595368
 30
0.0
 11
267.046855587327002
 21
5.8466494585180948
 31
0.0
  0
ARC
  5
1E32
  8
0
 10
267.0338722713598827
 20
5.8541469912201913
 30
0.0
 40
0.0149926478689234
 50
329.9946658139992905
 51
30.0728272748006411
  0
LINE
  5
1E33
  8
0
 10
267.0468467464027071
 20
5.8616598127595383
 30
0.0
 11
266.9930087318115284
 21
5.9549103579815359
 31
0.0
  0
ARC
  5
1E34
  8
0
 10
266.9800181652485094
 20
5.9474096647750097
 30
0.0
 40
0.0150005072649541
 50
30.001938752370819
 51
90.0124763389026441
  0
LINE
  5
1E35
  8
0
 10
266.9800148988401816
 20
5.9624101716843292
 30
0.0
 11
266.8723692105115219
 21
5.9624103577815371
 31
0.0
  0
ARC
  5
1E36
  8
0
 10
266.8723698212293129
 20
5.9474094646626057
 30
0.0
 40
0.0150008931313625
 50
90.0023326310450358
 51
150.0101964545320072
  0
LINE
  5
1E37
  8
0
 10
266.8593773321114782
 20
5.9549075991815359
 30
0.0
 11
266.8055408149206755
 21
5.8616598127603758
 31
0.0
  0
ARC
  5
1E38
  8
0
 10
266.8185298518499735
 20
5.8541570846022841
 30
0.0
 40
0.0150002003375012
 50
149.9884083860563919
 51
210.0109072918801019
  0
LINE
  5
1E39
  8
0
 10
266.8055407253115163
 20
5.8466545115815372
 30
0.0
 11
266.8199358509277772
 21
5.8217213794595377
 31
0.0
  0
LINE
  5
1E3A
  8
0
 10
266.8723692105115219
 20
5.975904059077493
 30
0.0
 11
266.980017097411519
 21
5.9759041415774918
 31
0.0
  0
ARC
  5
1E3B
  8
0
 10
266.980017097411519
 20
5.990906395261681
 30
0.0
 40
0.0150022536841892
 50
270.0
 51
329.9946658139975852
  0
LINE
  5
1E3C
  8
0
 10
266.9930087318115284
 20
5.9834040588774933
 30
0.0
 11
267.046855587327002
 21
6.0766494993140521
 31
0.0
  0
ARC
  5
1E3D
  8
0
 10
267.0338722713598827
 20
6.0841470320161468
 30
0.0
 40
0.0149926478689234
 50
329.9946658139992905
 51
30.0728272748006411
  0
LINE
  5
1E3E
  8
0
 10
267.0468467464027071
 20
6.0916598535554938
 30
0.0
 11
266.9930087318115284
 21
6.1849103987774932
 31
0.0
  0
ARC
  5
1E3F
  8
0
 10
266.9800181652485094
 20
6.177409705570966
 30
0.0
 40
0.0150005072649541
 50
30.001938752370819
 51
90.0124763389026441
  0
LINE
  5
1E40
  8
0
 10
266.9800148988401816
 20
6.1924102124802847
 30
0.0
 11
266.8723692105115219
 21
6.1924103985774934
 31
0.0
  0
ARC
  5
1E41
  8
0
 10
266.8723698212293129
 20
6.177409505458562
 30
0.0
 40
0.0150008931313625
 50
90.0023326310450358
 51
150.0101964545320072
  0
LINE
  5
1E42
  8
0
 10
266.8593773321114782
 20
6.1849076399774932
 30
0.0
 11
266.8055408149206755
 21
6.0916598535563331
 31
0.0
  0
ARC
  5
1E43
  8
0
 10
266.8185298518499735
 20
6.0841571253982396
 30
0.0
 40
0.0150002003375012
 50
149.9884083860563919
 51
210.0109072918801019
  0
LINE
  5
1E44
  8
0
 10
266.8055407253115163
 20
6.0766545523774926
 30
0.0
 11
266.8593788296115008
 21
5.9834040588774906
 31
0.0
  0
ARC
  5
1E45
  8
0
 10
266.8723699032041168
 20
5.9909052587846858
 30
0.0
 40
0.0150011997231865
 50
210.0026464034509104
 51
269.9973543209354716
  0
LINE
  5
1E46
  8
0
 10
266.8723692105115219
 20
6.2059040687774942
 30
0.0
 11
266.980017097411519
 21
6.2059041512774931
 31
0.0
  0
ARC
  5
1E47
  8
0
 10
266.980017097411519
 20
6.2209064049616831
 30
0.0
 40
0.0150022536841892
 50
270.0
 51
329.9946658139975852
  0
LINE
  5
1E48
  8
0
 10
266.9930087318115284
 20
6.2134040685774936
 30
0.0
 11
267.046855587327002
 21
6.3066495090140533
 31
0.0
  0
ARC
  5
1E49
  8
0
 10
267.0338722713598827
 20
6.314147041716148
 30
0.0
 40
0.0149926478689234
 50
329.9946658139992905
 51
30.0728272748006411
  0
LINE
  5
1E4A
  8
0
 10
267.0468467464027071
 20
6.321659863255495
 30
0.0
 11
266.9930087318115284
 21
6.4149104084774944
 31
0.0
  0
ARC
  5
1E4B
  8
0
 10
266.9800181652485094
 20
6.4074097152709681
 30
0.0
 40
0.0150005072649541
 50
30.001938752370819
 51
90.0124763389026441
  0
LINE
  5
1E4C
  8
0
 10
266.9800148988401816
 20
6.4224102221802859
 30
0.0
 11
266.8723692105115219
 21
6.4224104082774938
 31
0.0
  0
ARC
  5
1E4D
  8
0
 10
266.8723698212293129
 20
6.4074095151585642
 30
0.0
 40
0.0150008931313625
 50
90.0023326310450358
 51
150.0101964545320072
  0
LINE
  5
1E4E
  8
0
 10
266.8593773321114782
 20
6.4149076496774944
 30
0.0
 11
266.8055408149206755
 21
6.3216598632563343
 31
0.0
  0
ARC
  5
1E4F
  8
0
 10
266.8185298518499735
 20
6.3141571350982408
 30
0.0
 40
0.0150002003375012
 50
149.9884083860563919
 51
210.0109072918801019
  0
LINE
  5
1E50
  8
0
 10
266.8055407253115163
 20
6.3066545620774939
 30
0.0
 11
266.8593788296115008
 21
6.2134040685774918
 31
0.0
  0
ARC
  5
1E51
  8
0
 10
266.8723699032041168
 20
6.2209052684846871
 30
0.0
 40
0.0150011997231865
 50
210.0026464034509104
 51
269.9973543209354716
  0
LINE
  5
1E52
  8
0
 10
267.0746675648114774
 20
5.8609066993815357
 30
0.0
 11
267.1823154517114745
 21
5.8609067818815364
 31
0.0
  0
ARC
  5
1E53
  8
0
 10
267.1823154517114745
 20
5.8759090355657246
 30
0.0
 40
0.0150022536841892
 50
270.0
 51
329.9946658139975284
  0
LINE
  5
1E54
  8
0
 10
267.1953070861114838
 20
5.868406699181536
 30
0.0
 11
267.2491539416270143
 21
5.9616521396180948
 31
0.0
  0
ARC
  5
1E55
  8
0
 10
267.2361706256597813
 20
5.9691496723201913
 30
0.0
 40
0.0149926478689234
 50
329.9946658139992905
 51
30.0728272748006411
  0
LINE
  5
1E56
  8
0
 10
267.2491451007027763
 20
5.9766624938595383
 30
0.0
 11
267.1953070861114838
 21
6.0699130390815359
 31
0.0
  0
ARC
  5
1E57
  8
0
 10
267.1823165195485217
 20
6.0624123458750097
 30
0.0
 40
0.0150005072649541
 50
30.001938752370819
 51
90.0124763389026441
  0
LINE
  5
1E58
  8
0
 10
267.1823132531401939
 20
6.0774128527843292
 30
0.0
 11
267.0746675648114774
 21
6.0774130388815371
 31
0.0
  0
ARC
  5
1E59
  8
0
 10
267.0746681755293253
 20
6.0624121457626057
 30
0.0
 40
0.0150008931313625
 50
90.0023326310450358
 51
150.0101964545320072
  0
LINE
  5
1E5A
  8
0
 10
267.0616756864114905
 20
6.0699102802815359
 30
0.0
 11
267.0078391692206878
 21
5.9766624938603758
 31
0.0
  0
ARC
  5
1E5B
  8
0
 10
267.0208282061499858
 20
5.9691597657022841
 30
0.0
 40
0.0150002003375012
 50
149.9884083860563919
 51
210.0109072918801019
  0
LINE
  5
1E5C
  8
0
 10
267.0078390796114718
 20
5.9616571926815372
 30
0.0
 11
267.0616771839115131
 21
5.8684066991815351
 31
0.0
  0
ARC
  5
1E5D
  8
0
 10
267.0746682575040722
 20
5.8759078990887303
 30
0.0
 40
0.0150011997231865
 50
210.0026464034509104
 51
269.9973543209354716
  0
LINE
  5
1E5E
  8
0
 10
267.0746675648114774
 20
6.090906740177493
 30
0.0
 11
267.1823154517114745
 21
6.0909068226774918
 31
0.0
  0
ARC
  5
1E5F
  8
0
 10
267.1823154517114745
 20
6.105909076361681
 30
0.0
 40
0.0150022536841892
 50
270.0
 51
329.9946658139975852
  0
LINE
  5
1E60
  8
0
 10
267.1953070861114838
 20
6.0984067399774933
 30
0.0
 11
267.2491539416270143
 21
6.1916521804140521
 31
0.0
  0
ARC
  5
1E61
  8
0
 10
267.2361706256597813
 20
6.1991497131161468
 30
0.0
 40
0.0149926478689234
 50
329.9946658139992905
 51
30.0728272748006411
  0
LINE
  5
1E62
  8
0
 10
267.2491451007027763
 20
6.2066625346554938
 30
0.0
 11
267.1953070861114838
 21
6.2999130798774932
 31
0.0
  0
ARC
  5
1E63
  8
0
 10
267.1823165195485217
 20
6.292412386670966
 30
0.0
 40
0.0150005072649541
 50
30.001938752370819
 51
90.0124763389026441
  0
LINE
  5
1E64
  8
0
 10
267.1823132531401939
 20
6.3074128935802847
 30
0.0
 11
267.0746675648114774
 21
6.3074130796774934
 31
0.0
  0
ARC
  5
1E65
  8
0
 10
267.0746681755293253
 20
6.292412186558562
 30
0.0
 40
0.0150008931313625
 50
90.0023326310450358
 51
150.0101964545320072
  0
LINE
  5
1E66
  8
0
 10
267.0616756864114905
 20
6.2999103210774932
 30
0.0
 11
267.0078391692206878
 21
6.2066625346563331
 31
0.0
  0
ARC
  5
1E67
  8
0
 10
267.0208282061499858
 20
6.1991598064982396
 30
0.0
 40
0.0150002003375012
 50
149.9884083860563919
 51
210.0109072918801019
  0
LINE
  5
1E68
  8
0
 10
267.0078390796114718
 20
6.1916572334774926
 30
0.0
 11
267.0616771839115131
 21
6.0984067399774906
 31
0.0
  0
ARC
  5
1E69
  8
0
 10
267.0746682575040722
 20
6.1059079398846858
 30
0.0
 40
0.0150011997231865
 50
210.0026464034509104
 51
269.9973543209354716
  0
LINE
  5
1E6A
  8
0
 10
267.0746675648114774
 20
6.3209067498774942
 30
0.0
 11
267.1823154517114745
 21
6.3209068323774931
 31
0.0
  0
ARC
  5
1E6B
  8
0
 10
267.1823154517114745
 20
6.3359090860616831
 30
0.0
 40
0.0150022536841892
 50
270.0
 51
329.9946658139975852
  0
LINE
  5
1E6C
  8
0
 10
267.1953070861114838
 20
6.3284067496774936
 30
0.0
 11
267.2491539416270143
 21
6.4216521901140533
 31
0.0
  0
ARC
  5
1E6D
  8
0
 10
267.2361706256597813
 20
6.429149722816148
 30
0.0
 40
0.0149926478689234
 50
329.9946658139992905
 51
30.0728272748006411
  0
LINE
  5
1E6E
  8
0
 10
267.2491451007027763
 20
6.436662544355495
 30
0.0
 11
267.2346774326933883
 21
6.4617213794594548
 31
0.0
  0
LINE
  5
1E6F
  8
0
 10
267.0223068628635019
 20
6.4617213794594548
 30
0.0
 11
267.0078391692206878
 21
6.4366625443563343
 31
0.0
  0
ARC
  5
1E70
  8
0
 10
267.0208282061499858
 20
6.4291598161982408
 30
0.0
 40
0.0150002003375012
 50
149.9884083860563919
 51
210.0109072918801019
  0
LINE
  5
1E71
  8
0
 10
267.0078390796114718
 20
6.4216572431774939
 30
0.0
 11
267.0616771839115131
 21
6.3284067496774918
 31
0.0
  0
ARC
  5
1E72
  8
0
 10
267.0746682575040722
 20
6.3359079495846871
 30
0.0
 40
0.0150011997231865
 50
210.0026464034509104
 51
269.9973543209354716
  0
LINE
  5
1E73
  8
0
 10
267.4347570748352041
 20
5.8217213794595368
 30
0.0
 11
267.4491539480270035
 21
5.8466521348180951
 31
0.0
  0
ARC
  5
1E74
  8
0
 10
267.4361706320598842
 20
5.8541496675201907
 30
0.0
 40
0.0149926478689234
 50
329.9946658139992905
 51
30.0728272748006411
  0
LINE
  5
1E75
  8
0
 10
267.4491451071028223
 20
5.8616624890595377
 30
0.0
 11
267.395307092511473
 21
5.9549130342815371
 31
0.0
  0
ARC
  5
1E76
  8
0
 10
267.3823165259485108
 20
5.9474123410750099
 30
0.0
 40
0.0150005072649541
 50
30.001938752370819
 51
90.0124763389026441
  0
LINE
  5
1E77
  8
0
 10
267.382313259540183
 20
5.9624128479843286
 30
0.0
 11
267.2746675712115234
 21
5.9624130340815373
 31
0.0
  0
ARC
  5
1E78
  8
0
 10
267.2746681819293144
 20
5.947412140962606
 30
0.0
 40
0.0150008931313625
 50
90.0023326310450358
 51
150.0101964545320072
  0
LINE
  5
1E79
  8
0
 10
267.2616756928114796
 20
5.9549102754815371
 30
0.0
 11
267.207839175620677
 21
5.861662489060377
 31
0.0
  0
ARC
  5
1E7A
  8
0
 10
267.220828212549975
 20
5.8541597609022844
 30
0.0
 40
0.0150002003375012
 50
149.9884083860563919
 51
210.0109072918801019
  0
LINE
  5
1E7B
  8
0
 10
267.2078390860115178
 20
5.8466571878815374
 30
0.0
 11
267.2222357567875974
 21
5.8217213794595377
 31
0.0
  0
LINE
  5
1E7C
  8
0
 10
267.2746675712115234
 20
5.9759067353774933
 30
0.0
 11
267.3823154581115205
 21
5.975906817877493
 31
0.0
  0
ARC
  5
1E7D
  8
0
 10
267.3823154581115205
 20
5.9909090715616822
 30
0.0
 40
0.0150022536841892
 50
270.0
 51
329.9946658139975852
  0
LINE
  5
1E7E
  8
0
 10
267.395307092511473
 20
5.9834067351774927
 30
0.0
 11
267.4491539480270035
 21
6.0766521756140524
 31
0.0
  0
ARC
  5
1E7F
  8
0
 10
267.4361706320598842
 20
6.0841497083161471
 30
0.0
 40
0.0149926478689234
 50
329.9946658139992905
 51
30.0728272748006411
  0
LINE
  5
1E80
  8
0
 10
267.4491451071028223
 20
6.0916625298554941
 30
0.0
 11
267.395307092511473
 21
6.1849130750774934
 31
0.0
  0
ARC
  5
1E81
  8
0
 10
267.3823165259485108
 20
6.1774123818709672
 30
0.0
 40
0.0150005072649541
 50
30.001938752370819
 51
90.0124763389026441
  0
LINE
  5
1E82
  8
0
 10
267.382313259540183
 20
6.192412888780285
 30
0.0
 11
267.2746675712115234
 21
6.1924130748774928
 31
0.0
  0
ARC
  5
1E83
  8
0
 10
267.2746681819293144
 20
6.1774121817585632
 30
0.0
 40
0.0150008931313625
 50
90.0023326310450358
 51
150.0101964545320072
  0
LINE
  5
1E84
  8
0
 10
267.2616756928114796
 20
6.1849103162774934
 30
0.0
 11
267.207839175620677
 21
6.0916625298563334
 31
0.0
  0
ARC
  5
1E85
  8
0
 10
267.220828212549975
 20
6.0841598016982399
 30
0.0
 40
0.0150002003375012
 50
149.9884083860563919
 51
210.0109072918801019
  0
LINE
  5
1E86
  8
0
 10
267.2078390860115178
 20
6.0766572286774929
 30
0.0
 11
267.2616771903115023
 21
5.9834067351774909
 31
0.0
  0
ARC
  5
1E87
  8
0
 10
267.2746682639040046
 20
5.9909079350846861
 30
0.0
 40
0.0150011997231865
 50
210.0026464034509104
 51
269.9973543209354716
  0
LINE
  5
1E88
  8
0
 10
267.2746675712115234
 20
6.2059067450774936
 30
0.0
 11
267.3823154581115205
 21
6.2059068275774942
 31
0.0
  0
ARC
  5
1E89
  8
0
 10
267.3823154581115205
 20
6.2209090812616834
 30
0.0
 40
0.0150022536841892
 50
270.0
 51
329.9946658139975852
  0
LINE
  5
1E8A
  8
0
 10
267.395307092511473
 20
6.2134067448774939
 30
0.0
 11
267.4491539480270035
 21
6.3066521853140527
 31
0.0
  0
ARC
  5
1E8B
  8
0
 10
267.4361706320598842
 20
6.3141497180161492
 30
0.0
 40
0.0149926478689234
 50
329.9946658139992905
 51
30.0728272748006411
  0
LINE
  5
1E8C
  8
0
 10
267.4491451071028223
 20
6.3216625395554962
 30
0.0
 11
267.395307092511473
 21
6.4149130847774938
 31
0.0
  0
ARC
  5
1E8D
  8
0
 10
267.3823165259485108
 20
6.4074123915709684
 30
0.0
 40
0.0150005072649541
 50
30.001938752370819
 51
90.0124763389026441
  0
LINE
  5
1E8E
  8
0
 10
267.382313259540183
 20
6.4224128984802871
 30
0.0
 11
267.2746675712115234
 21
6.422413084577494
 31
0.0
  0
ARC
  5
1E8F
  8
0
 10
267.2746681819293144
 20
6.4074121914585644
 30
0.0
 40
0.0150008931313625
 50
90.0023326310450358
 51
150.0101964545320072
  0
LINE
  5
1E90
  8
0
 10
267.2616756928114796
 20
6.4149103259774938
 30
0.0
 11
267.207839175620677
 21
6.3216625395563337
 31
0.0
  0
ARC
  5
1E91
  8
0
 10
267.220828212549975
 20
6.314159811398242
 30
0.0
 40
0.0150002003375012
 50
149.9884083860563919
 51
210.0109072918801019
  0
LINE
  5
1E92
  8
0
 10
267.2078390860115178
 20
6.306657238377495
 30
0.0
 11
267.2616771903115023
 21
6.213406744877493
 31
0.0
  0
ARC
  5
1E93
  8
0
 10
267.2746682639040046
 20
6.2209079447846882
 30
0.0
 40
0.0150011997231865
 50
210.0026464034509104
 51
269.9973543209354716
  0
LINE
  5
1E94
  8
0
 10
267.4759702536873078
 20
5.8609066476595384
 30
0.0
 11
267.5745135456064077
 21
5.8609067231818903
 31
0.0
  0
LINE
  5
1E95
  8
0
 10
267.6420815341966772
 20
5.9911532788028534
 30
0.0
 11
267.5966097749872006
 21
6.0699129873595377
 31
0.0
  0
ARC
  5
1E96
  8
0
 10
267.5836192084242953
 20
6.0624122941530123
 30
0.0
 40
0.0150005072649541
 50
30.001938752370819
 51
90.0124763389026441
  0
LINE
  5
1E97
  8
0
 10
267.5836159420160243
 20
6.0774128010623301
 30
0.0
 11
267.4759702536873078
 21
6.0774129871595379
 31
0.0
  0
ARC
  5
1E98
  8
0
 10
267.4759708644049852
 20
6.0624120940406083
 30
0.0
 40
0.0150008931313625
 50
90.0023326310450358
 51
150.0101964545320072
  0
LINE
  5
1E99
  8
0
 10
267.4629783752873209
 20
6.0699102285595377
 30
0.0
 11
267.4091418580965183
 21
5.9766624421383776
 31
0.0
  0
ARC
  5
1E9A
  8
0
 10
267.4221308950258162
 20
5.969159713980285
 30
0.0
 40
0.0150002003375012
 50
149.9884083860563919
 51
210.0109072918801019
  0
LINE
  5
1E9B
  8
0
 10
267.4091417684873022
 20
5.961657140959538
 30
0.0
 11
267.462979872787173
 21
5.868406647459536
 31
0.0
  0
ARC
  5
1E9C
  8
0
 10
267.475970946379789
 20
5.8759078473667321
 30
0.0
 40
0.0150011997231865
 50
210.0026464034509104
 51
269.9973543209354716
  0
LINE
  5
1E9D
  8
0
 10
267.4759702536873078
 20
6.0909066884554939
 30
0.0
 11
267.5836181405871912
 21
6.0909067709554936
 31
0.0
  0
ARC
  5
1E9E
  8
0
 10
267.5836181405871912
 20
6.1059090246396828
 30
0.0
 40
0.0150022536841892
 50
270.0
 51
329.9946658139975852
  0
LINE
  5
1E9F
  8
0
 10
267.5966097749872006
 20
6.098406688255495
 30
0.0
 11
267.6423112510410078
 21
6.1775469504385017
 31
0.0
  0
LINE
  5
1EA0
  8
0
 10
267.6423448299909751
 20
6.2206972761030608
 30
0.0
 11
267.5966097749872006
 21
6.299913028155494
 31
0.0
  0
ARC
  5
1EA1
  8
0
 10
267.5836192084242953
 20
6.2924123349489678
 30
0.0
 40
0.0150005072649541
 50
30.001938752370819
 51
90.0124763389026441
  0
LINE
  5
1EA2
  8
0
 10
267.5836159420160243
 20
6.3074128418582873
 30
0.0
 11
267.4759702536873078
 21
6.3074130279554952
 31
0.0
  0
ARC
  5
1EA3
  8
0
 10
267.4759708644049852
 20
6.2924121348365638
 30
0.0
 40
0.0150008931313625
 50
90.0023326310450358
 51
150.0101964545320072
  0
LINE
  5
1EA4
  8
0
 10
267.4629783752873209
 20
6.299910269355494
 30
0.0
 11
267.4091418580965183
 21
6.206662482934334
 31
0.0
  0
ARC
  5
1EA5
  8
0
 10
267.4221308950258162
 20
6.1991597547762423
 30
0.0
 40
0.0150002003375012
 50
149.9884083860563919
 51
210.0109072918801019
  0
LINE
  5
1EA6
  8
0
 10
267.4091417684873022
 20
6.1916571817554953
 30
0.0
 11
267.462979872787173
 21
6.0984066882554933
 31
0.0
  0
ARC
  5
1EA7
  8
0
 10
267.475970946379789
 20
6.1059078881626876
 30
0.0
 40
0.0150011997231865
 50
210.0026464034509104
 51
269.9973543209354716
  0
LINE
  5
1EA8
  8
0
 10
267.4759702536873078
 20
6.3209066981554951
 30
0.0
 11
267.5836181405871912
 21
6.3209067806554948
 31
0.0
  0
ARC
  5
1EA9
  8
0
 10
267.5836181405871912
 20
6.335909034339684
 30
0.0
 40
0.0150022536841892
 50
270.0
 51
329.9946658139975852
  0
LINE
  5
1EAA
  8
0
 10
267.5966097749872006
 20
6.3284066979554963
 30
0.0
 11
267.6199314746052096
 21
6.368792383095049
 31
0.0
  0
LINE
  5
1EAB
  8
0
 10
267.4236095816008856
 20
6.4617213794594548
 30
0.0
 11
267.4091418580965183
 21
6.4366624926343361
 31
0.0
  0
ARC
  5
1EAC
  8
0
 10
267.4221308950258162
 20
6.4291597644762426
 30
0.0
 40
0.0150002003375012
 50
149.9884083860563919
 51
210.0109072918801019
  0
LINE
  5
1EAD
  8
0
 10
267.4091417684873022
 20
6.4216571914554956
 30
0.0
 11
267.462979872787173
 21
6.3284066979554936
 31
0.0
  0
ARC
  5
1EAE
  8
0
 10
267.475970946379789
 20
6.3359078978626888
 30
0.0
 40
0.0150011997231865
 50
210.0026464034509104
 51
269.9973543209354716
  0
LINE
  5
1EAF
  8
0
 10
260.1920098832027861
 20
5.7417213794595368
 30
0.0
 11
268.4323925939000901
 21
5.7417213794595368
 31
0.0
  0
LINE
  5
1EB0
  8
0
 10
269.6848455166963276
 20
5.7149497259595403
 30
0.0
 11
269.8233019244028128
 21
5.7149497259595377
 31
0.0
  0
ARC
  5
1EB1
  8
0
 10
269.8233915258342108
 20
5.7227907235247626
 30
0.0
 40
0.007841509499731
 50
269.3452924363014063
 51
358.2002280859579741
  0
LINE
  5
1EB2
  8
0
 10
269.8312291670027889
 20
5.722544446959537
 30
0.0
 11
269.9059280067028226
 21
6.4334942081595381
 31
0.0
  0
ARC
  5
1EB3
  8
0
 10
269.8980430694032862
 20
6.4341479676293289
 30
0.0
 40
0.007911993279852
 50
355.2603076700765996
 51
85.635745192483526
  0
LINE
  5
1EB4
  8
0
 10
269.8986451482027746
 20
6.4420370194595371
 30
0.0
 11
269.8835811930667887
 21
6.442059560359537
 31
0.0
  0
ARC
  5
1EB5
  8
0
 10
269.8912939598642993
 20
6.4341872648083642
 30
0.0
 40
0.0078688167138579
 50
92.5095324749279371
 51
146.0956309931700901
  0
ARC
  5
1EB6
  8
0
 10
270.2346391952556246
 20
6.2034308362010098
 30
0.0
 40
0.421552850741625
 50
146.0956309931700901
 51
174.1652549691247032
  0
LINE
  5
1EB7
  8
0
 10
269.8152703070460916
 20
6.2462857258909699
 30
0.0
 11
269.7600795914306104
 21
5.7237698278581304
 31
0.0
  0
ARC
  5
1EB8
  8
0
 10
269.7678733317782189
 20
5.7228031830029531
 30
0.0
 40
0.0078534572566556
 50
172.9298044301287121
 51
269.9866480845896035
  0
LINE
  5
1EB9
  8
0
 10
263.2903563398028268
 20
7.0692804345595386
 30
0.0
 11
263.2903563398028268
 21
7.1480205920595381
 31
0.0
  0
LINE
  5
1EBA
  8
0
 10
263.2903563398028268
 20
7.1480205920595381
 30
0.0
 11
265.2588602768028068
 21
7.148020592059539
 31
0.0
  0
LINE
  5
1EBB
  8
0
 10
263.2903563398028268
 20
7.0692804345595386
 30
0.0
 11
265.2588602768028068
 21
7.069282535089032
 31
0.0
  0
LINE
  5
1EBC
  8
0
 10
265.2588602768028068
 20
7.0692804345595386
 30
0.0
 11
265.2588602768028068
 21
7.1480205920595381
 31
0.0
  0
ENDSEC
  0
EOF
