  0
SECTION
  2
HEADER
  9
$ACADVER
  1
AC1009
  9
$INSBASE
 10
3453.9156222077908751
 20
225.9820509446028893
 30
0.0
  9
$EXTMIN
 10
3446.4664768947750417
 20
197.2021301219496081
 30
-0.0015258207003583
  9
$EXTMAX
 10
3461.2540944792799564
 20
225.9955442486794084
 30
0.0000000349246037
  9
$LIMMIN
 10
0.0
 20
0.0
  9
$LIMMAX
 10
11.6929133858000007
 20
8.2677165353999982
  9
$ORTHOMODE
 70
     0
  9
$REGENMODE
 70
     1
  9
$FILLMODE
 70
     1
  9
$QTEXTMODE
 70
     0
  9
$MIRRTEXT
 70
     0
  9
$DRAGMODE
 70
     2
  9
$LTSCALE
 40
0.6431102362
  9
$OSMODE
 70
  2039
  9
$ATTMODE
 70
     1
  9
$TEXTSIZE
 40
0.2
  9
$TRACEWID
 40
0.05
  9
$TEXTSTYLE
  7
STANDARD
  9
$CLAYER
  8
0
  9
$CELTYPE
  6
BYLAYER
  9
$CECOLOR
 62
   256
  9
$DIMSCALE
 40
1.0
  9
$DIMASZ
 40
0.1875
  9
$DIMEXO
 40
0.0625
  9
$DIMDLI
 40
0.4443307087
  9
$DIMRND
 40
0.0
  9
$DIMDLE
 40
0.0
  9
$DIMEXE
 40
0.125
  9
$DIMTP
 40
0.01
  9
$DIMTM
 40
0.01
  9
$DIMTXT
 40
2.0
  9
$DIMCEN
 40
0.1052362205
  9
$DIMTSZ
 40
0.0
  9
$DIMTOL
 70
     1
  9
$DIMLIM
 70
     0
  9
$DIMTIH
 70
     1
  9
$DIMTOH
 70
     1
  9
$DIMSE1
 70
     0
  9
$DIMSE2
 70
     0
  9
$DIMTAD
 70
     0
  9
$DIMZIN
 70
     0
  9
$DIMBLK
  1

  9
$DIMASO
 70
     1
  9
$DIMSHO
 70
     1
  9
$DIMPOST
  1
\X
  9
$DIMAPOST
  1

  9
$DIMALT
 70
     1
  9
$DIMALTD
 70
     2
  9
$DIMALTF
 40
25.3999999999999986
  9
$DIMLFAC
 40
1.0
  9
$DIMTOFL
 70
     0
  9
$DIMTVP
 40
0.0
  9
$DIMTIX
 70
     0
  9
$DIMSOXD
 70
     0
  9
$DIMSAH
 70
     0
  9
$DIMBLK1
  1

  9
$DIMBLK2
  1

  9
$DIMSTYLE
  2
STANDARD
  9
$DIMCLRD
 70
     0
  9
$DIMCLRE
 70
     0
  9
$DIMCLRT
 70
     0
  9
$DIMTFAC
 40
1.0
  9
$DIMGAP
 40
0.09
  9
$LUNITS
 70
     2
  9
$LUPREC
 70
     4
  9
$SKETCHINC
 40
0.1
  9
$FILLETRAD
 40
0.0
  9
$AUNITS
 70
     0
  9
$AUPREC
 70
     0
  9
$MENU
  1
.
  9
$ELEVATION
 40
0.0
  9
$PELEVATION
 40
0.0
  9
$THICKNESS
 40
0.0
  9
$LIMCHECK
 70
     0
  9
$BLIPMODE
 70
     0
  9
$CHAMFERA
 40
0.0
  9
$CHAMFERB
 40
0.0
  9
$SKPOLY
 70
     0
  9
$TDCREATE
 40
2458060.468368056230247
  9
$TDUPDATE
 40
2459144.4309953697957098
  9
$TDINDWG
 40
0.578409838
  9
$TDUSRTIMER
 40
0.578409838
  9
$USRTIMER
 70
     1
  9
$ANGBASE
 50
0.0
  9
$ANGDIR
 70
     0
  9
$PDMODE
 70
     0
  9
$PDSIZE
 40
0.3125
  9
$PLINEWID
 40
0.0
  9
$COORDS
 70
     1
  9
$SPLFRAME
 70
     0
  9
$SPLINETYPE
 70
     6
  9
$SPLINESEGS
 70
     8
  9
$ATTDIA
 70
     1
  9
$ATTREQ
 70
     1
  9
$HANDLING
 70
     1
  9
$HANDSEED
  5
1B246
  9
$SURFTAB1
 70
     6
  9
$SURFTAB2
 70
     6
  9
$SURFTYPE
 70
     6
  9
$SURFU
 70
     6
  9
$SURFV
 70
     6
  9
$UCSNAME
  2

  9
$UCSORG
 10
0.0
 20
0.0
 30
0.0
  9
$UCSXDIR
 10
1.0
 20
0.0
 30
0.0
  9
$UCSYDIR
 10
0.0
 20
1.0
 30
0.0
  9
$PUCSNAME
  2

  9
$PUCSORG
 10
0.0
 20
0.0
 30
0.0
  9
$PUCSXDIR
 10
1.0
 20
0.0
 30
0.0
  9
$PUCSYDIR
 10
0.0
 20
1.0
 30
0.0
  9
$USERI1
 70
     0
  9
$USERI2
 70
     0
  9
$USERI3
 70
     0
  9
$USERI4
 70
     0
  9
$USERI5
 70
     0
  9
$USERR1
 40
0.0
  9
$USERR2
 40
0.0
  9
$USERR3
 40
0.0
  9
$USERR4
 40
0.0
  9
$USERR5
 40
0.0
  9
$WORLDVIEW
 70
     1
  9
$SHADEDGE
 70
     3
  9
$SHADEDIF
 70
    70
  9
$TILEMODE
 70
     1
  9
$MAXACTVP
 70
    64
  9
$PLIMCHECK
 70
     0
  9
$PEXTMIN
 10
1.0000000000000000E+20
 20
1.0000000000000000E+20
 30
1.0000000000000000E+20
  9
$PEXTMAX
 10
-1.0000000000000000E+20
 20
-1.0000000000000000E+20
 30
-1.0000000000000000E+20
  9
$PLIMMIN
 10
0.0
 20
0.0
  9
$PLIMMAX
 10
12.0
 20
9.0
  9
$UNITMODE
 70
     0
  9
$VISRETAIN
 70
     1
  9
$PLINEGEN
 70
     0
  9
$PSLTSCALE
 70
     1
  0
ENDSEC
  0
SECTION
  2
TABLES
  0
TABLE
  2
VPORT
 70
     1
  0
VPORT
  2
*ACTIVE
 70
     0
 10
0.0
 20
0.0
 11
1.0
 21
1.0
 12
150.1671704526524991
 22
16.3373256094267809
 13
0.0
 23
0.0
 14
1.0
 24
1.0
 15
0.0
 25
0.0
 16
0.0
 26
0.0
 36
96.5995694866707311
 17
3303.693115234375
 27
195.2615115758877096
 37
0.0
 40
29.0330264495596992
 41
2.6486111111111108
 42
50.0
 43
0.0
 44
0.0
 50
0.0
 51
0.0
 71
     0
 72
   100
 73
     1
 74
     1
 75
     0
 76
     0
 77
     0
 78
     0
  0
ENDTAB
  0
TABLE
  2
LTYPE
 70
     2
  0
LTYPE
  2
CONTINUOUS
 70
     0
  3
Solid line
 72
    65
 73
     0
 40
0.0
  0
LTYPE
  2
PHANTOM2
 70
     0
  3
___ _ _ ___ _ _ ___ _ _ ___ _ _
 72
    65
 73
     6
 40
1.25
 49
0.625
 49
-0.125
 49
0.125
 49
-0.125
 49
0.125
 49
-0.125
  0
ENDTAB
  0
TABLE
  2
LAYER
 70
     2
  0
LAYER
  2
0
 70
     0
 62
   255
  6
CONTINUOUS
  0
LAYER
  2
DEFPOINTS
 70
     0
 62
     7
  6
CONTINUOUS
  0
ENDTAB
  0
TABLE
  2
STYLE
 70
     1
  0
STYLE
  2
STANDARD
 70
     0
 40
0.0
 41
0.8
 50
0.0
 71
     0
 42
0.2
  3
txt
  4

  0
ENDTAB
  0
TABLE
  2
VIEW
 70
     0
  0
ENDTAB
  0
TABLE
  2
UCS
 70
     0
  0
ENDTAB
  0
TABLE
  2
APPID
 70
     9
  0
APPID
  2
ACAD
 70
     0
  0
APPID
  2
ACAD_MLEADERVER
 70
     0
  0
APPID
  2
ACAD_EXEMPT_FROM_CAD_STANDARDS
 70
     0
  0
APPID
  2
ACAD_NAV_VCDISPLAY
 70
     0
  0
APPID
  2
ACAECLAYERSTANDARD
 70
     0
  0
APPID
  2
ACCMTRANSPARENCY
 70
     0
  0
APPID
  2
ACAD_DSTYLE_DIMJAG
 70
     0
  0
APPID
  2
ACAD_DSTYLE_DIMTALN
 70
     0
  0
APPID
  2
ACDBATTR
 70
     0
  0
ENDTAB
  0
TABLE
  2
DIMSTYLE
 70
     1
  0
DIMSTYLE
  2
STANDARD
 70
     0
  3

  4

  5

  6

  7

 40
1.0
 41
0.1875
 42
0.0625
 43
0.38
 44
0.125
 45
0.0
 46
0.0
 47
0.01
 48
0.01
140
0.15625
141
0.09
142
0.0
143
25.3999999999999986
144
1.0
145
0.0
146
1.0
147
0.09
 71
     1
 72
     0
 73
     1
 74
     1
 75
     0
 76
     0
 77
     0
 78
     4
170
     0
171
     2
172
     0
173
     0
174
     0
175
     0
176
     0
177
     0
178
     0
  0
ENDTAB
  0
ENDSEC
  0
SECTION
  2
BLOCKS
  0
BLOCK
  8
0
  2
$MODEL_SPACE
 70
     0
 10
0.0
 20
0.0
 30
0.0
  3
$MODEL_SPACE
  1

  0
ENDBLK
  5
21
  8
0
  0
BLOCK
 67
     1
  8
0
  2
$PAPER_SPACE
 70
     0
 10
0.0
 20
0.0
 30
0.0
  3
$PAPER_SPACE
  1

  0
ENDBLK
  5
1D
 67
     1
  8
0
  0
BLOCK
  8
0
  2
_FILLED
 70
     0
 10
0.0
 20
0.0
 30
0.0
  3
_FILLED
  1

  0
SOLID
  5
9E2C
  8
0
  6
BYBLOCK
 62
     0
 10
0.0
 20
0.0
 30
0.0
 11
-1.0
 21
0.1666666667
 31
0.0
 12
-1.0
 22
-0.1666666667
 32
0.0
 13
-1.0
 23
-0.1666666667
 33
0.0
  0
ENDBLK
  5
9E2D
  8
0
  6
BYBLOCK
 62
     0
  0
BLOCK
  8
0
  2
A$C6B0F1CD5
 70
     2
 10
0.0
 20
0.0
 30
0.0
  3
A$C6B0F1CD5
  1

  0
ATTDEF
  5
B779
  8
DEFPOINTS
 10
0.0005209962714616
 20
0.000347009907216
 30
0.0
 40
0.001
  1
BATH FAUCET
  3

  2
PRODUCT
 70
     0
1001
ACDBATTR
1070
     0
1070
     1
  0
ATTDEF
  5
B77A
  8
DEFPOINTS
 10
0.0005209962714616
 20
0.0020136765738812
 30
0.0
 40
0.001
  1
SINGULIER
  3

  2
TRADENAME
 70
     0
1001
ACDBATTR
1070
     0
1070
     1
  0
ATTDEF
  5
B77B
  8
DEFPOINTS
 10
0.0005209962714616
 20
0.0036803432405463
 30
0.0
 40
0.001
  1
K-10873W
  3

  2
MODELNUMBER
 70
     0
1001
ACDBATTR
1070
     0
1070
     1
  0
ENDBLK
  5
B77F
  8
0
  0
BLOCK
  8
0
  2
A$C790C4779
 70
     0
 10
0.0
 20
0.0
 30
0.0
  3
A$C790C4779
  1

  0
LINE
  5
135B8
  8
0
 62
     1
 10
0.0000000000000002
 20
-37.3954278042999988
 30
0.0
 11
0.0000000000000018
 21
225.9555597538428344
 31
0.0
  0
LINE
  5
135B9
  8
0
 10
-4.232274871249996
 20
-0.0000000000500009
 30
0.0
 11
-1.6732305542500019
 21
0.0000000000500009
 31
0.0
  0
ARC
  5
135BA
  8
0
 10
-1.673230554249227
 20
-0.019685039349227
 30
0.0
 40
0.0196850393992278
 50
359.9999999977458174
 51
90.0000000022289299
  0
LINE
  5
135BB
  8
0
 10
-1.65354551485
 20
-0.0196850393500014
 30
0.0
 11
-1.6535455148548031
 21
-0.1417322834500041
 31
0.0
  0
ARC
  5
135BC
  8
0
 10
-1.8503959085783681
 20
-0.1417322834422592
 30
0.0
 40
0.1968503937235679
 50
308.0000000051189204
 51
359.9999999977458174
  0
ARC
  5
135BD
  8
0
 10
206402.867126322700642
 20
-264186.1327213866170496
 30
0.0
 40
335256.6379051808035001
 50
128.0000000051190909
 51
128.0001315430347972
  0
ARC
  5
135BE
  8
0
 10
-2.3841858483936611
 20
-0.7086672312258245
 30
0.0
 40
0.0787343436991881
 50
269.9974989648274004
 51
308.0001315430346835
  0
LINE
  5
135BF
  8
0
 10
-2.3841892852500002
 20
-0.7874015748500014
 30
0.0
 11
-3.521326940266623
 21
-0.7873519373147886
 31
0.0
  0
ARC
  5
135C0
  8
0
 10
-3.5213234946367509
 20
-0.7084166022533154
 30
0.0
 40
0.0789353351366763
 50
232.1074321309334039
 51
269.9974989648262067
  0
ARC
  5
135C1
  8
0
 10
122.5627830190684051
 20
161.2970992303251876
 30
0.0
 40
205.3665118602133077
 50
231.8926994283673935
 51
232.1074321309334039
  0
ARC
  5
135C2
  8
0
 10
-4.05438302028411
 20
-0.1413806812727074
 30
0.0
 40
0.1975826044299356
 50
180.1019590338792966
 51
231.894492101153304
  0
LINE
  5
135C3
  8
0
 10
-3.4665376408499968
 20
-0.8464569578199387
 30
0.0
 11
-3.4665376408499968
 21
-0.7873543289388536
 31
0.0
  0
LINE
  5
135C4
  8
0
 10
-2.4389785857499979
 20
-0.8464564280499971
 30
0.0
 11
-2.4389785857499979
 21
-0.7873991832258938
 31
0.0
  0
LINE
  5
135C5
  8
0
 10
-4.1763149515081661
 20
-0.2968525105499964
 30
0.0
 11
-1.729202704762441
 21
-0.2968525105499964
 31
0.0
  0
ARC
  5
135C6
  8
0
 10
-4.2322710507446732
 20
-0.0196942628668566
 30
0.0
 40
0.0196942632874289
 50
90.0111148525494258
 51
179.9731663683137128
  0
LINE
  5
135C7
  8
0
 10
-4.2519653118722616
 20
-0.0196850393500014
 30
0.0
 11
-4.2519653118722616
 21
-0.1417322834500041
 31
0.0
  0
LINE
  5
135C8
  8
0
 10
4.2322748712499969
 20
-0.0000000000500009
 30
0.0
 11
1.6732305542500019
 21
0.0000000000500009
 31
0.0
  0
ARC
  5
135C9
  8
0
 10
1.6732305542492281
 20
-0.019685039349227
 30
0.0
 40
0.0196850393992278
 50
89.9999999977710843
 51
180.0000000022540974
  0
LINE
  5
135CA
  8
0
 10
1.65354551485
 20
-0.0196850393500014
 30
0.0
 11
1.6535455148548031
 21
-0.1417322834500041
 31
0.0
  0
ARC
  5
135CB
  8
0
 10
1.8503959085783681
 20
-0.1417322834422592
 30
0.0
 40
0.1968503937235679
 50
180.0000000022540974
 51
231.999999994881108
  0
ARC
  5
135CC
  8
0
 10
-206402.867126322700642
 20
-264186.1327213866170496
 30
0.0
 40
335256.6379051808035001
 50
51.9998684569652525
 51
51.9999999948808806
  0
ARC
  5
135CD
  8
0
 10
2.3841858483936611
 20
-0.7086672312258245
 30
0.0
 40
0.0787343436991881
 50
231.9998684569652028
 51
270.0025010351724859
  0
LINE
  5
135CE
  8
0
 10
2.3841892852500002
 20
-0.7874015748500014
 30
0.0
 11
3.5213269402666239
 21
-0.7873519373147886
 31
0.0
  0
ARC
  5
135CF
  8
0
 10
3.5213234946367522
 20
-0.7084166022533154
 30
0.0
 40
0.0789353351366763
 50
270.0025010351737933
 51
307.8925678690666246
  0
ARC
  5
135D0
  8
0
 10
-122.5627830190684051
 20
161.2970992303251876
 30
0.0
 40
205.3665118602133077
 50
307.8925678690666246
 51
308.1073005716326065
  0
ARC
  5
135D1
  8
0
 10
4.0543830206346447
 20
-0.1413806814436782
 30
0.0
 40
0.1975826040790903
 50
308.1055078494570125
 51
359.8980410155184018
  0
LINE
  5
135D2
  8
0
 10
3.5236243727499978
 20
-0.8464569872500007
 30
0.0
 11
2.3818920892499991
 21
-0.8464563986499982
 31
0.0
  0
LINE
  5
135D3
  8
0
 10
2.3818920892499991
 20
-0.8464563986499982
 30
0.0
 11
2.3228369407499989
 21
-0.9055114862499991
 31
0.0
  0
LINE
  5
135D4
  8
0
 10
2.3228369407499989
 20
-0.9055114862499991
 30
0.0
 11
2.32283669621774
 21
-1.377952431149992
 31
0.0
  0
LINE
  5
135D5
  8
0
 10
2.32283669621774
 20
-1.377952431149992
 30
0.0
 11
2.3818917848499961
 21
-1.4370075797500019
 31
0.0
  0
LINE
  5
135D6
  8
0
 10
2.3818917848499961
 20
-1.4370075797500019
 30
0.0
 11
3.5236240682500002
 21
-1.4370092896499991
 31
0.0
  0
LINE
  5
135D7
  8
0
 10
3.5236240682500002
 20
-1.4370092896499991
 30
0.0
 11
3.5826792168500021
 21
-1.377954201950004
 31
0.0
  0
LINE
  5
135D8
  8
0
 10
3.5826792168500021
 20
-1.377954201950004
 30
0.0
 11
3.582679460450001
 21
-0.905512135849996
 31
0.0
  0
LINE
  5
135D9
  8
0
 10
3.582679460450001
 20
-0.905512135849996
 30
0.0
 11
3.5236243727499978
 21
-0.8464569872500007
 31
0.0
  0
LINE
  5
135DA
  8
0
 10
3.4665376408499982
 20
-0.8464569578199387
 30
0.0
 11
3.4665376408499982
 21
-0.7873543289388536
 31
0.0
  0
LINE
  5
135DB
  8
0
 10
2.4389785857499979
 20
-0.8464564280499971
 30
0.0
 11
2.4389785857499979
 21
-0.7873991832258938
 31
0.0
  0
LINE
  5
135DC
  8
0
 10
4.176314951508167
 20
-0.2968525105499964
 30
0.0
 11
1.729202704762441
 21
-0.2968525105499964
 31
0.0
  0
ARC
  5
135DD
  8
0
 10
4.2322710507446706
 20
-0.0196942628668637
 30
0.0
 40
0.01969426328744
 50
0.0268336317070377
 51
89.9888851474415361
  0
LINE
  5
135DE
  8
0
 10
4.2519653118722616
 20
-0.0196850393500014
 30
0.0
 11
4.2519653118722616
 21
-0.1417322834500041
 31
0.0
  0
LINE
  5
135DF
  8
0
 10
3.5433038938999988
 20
-0.9055123383000065
 30
0.0
 11
3.543303893900001
 21
-1.3779528689999969
 31
0.0
  0
LINE
  5
135E0
  8
0
 10
3.5826792168507078
 20
-1.377952833859438
 30
0.0
 11
3.4378639481999991
 21
-1.3779529631
 31
0.0
  0
ARC
  5
135E1
  8
0
 10
3.248028303433538
 20
-0.9399295068502055
 30
0.0
 40
0.4773909512347318
 50
246.5685011794114985
 51
293.4314988205883878
  0
LINE
  5
135E2
  8
0
 10
3.0581926583999999
 20
-1.3779529631
 30
0.0
 11
2.8473127671000542
 21
-1.3779527748999949
 31
0.0
  0
ARC
  5
135E3
  8
0
 10
2.6574772525882229
 20
-0.9398586328204601
 30
0.0
 40
0.4774560333709902
 50
246.5718688740558946
 51
293.4280970205315953
  0
LINE
  5
135E4
  8
0
 10
2.4676414772999991
 20
-1.3779529631
 30
0.0
 11
2.322837098936501
 21
-1.3779528338691589
 31
0.0
  0
LINE
  5
135E5
  8
0
 10
2.3622015316999998
 20
-1.3779528689999969
 30
0.0
 11
2.3622015316999989
 21
-0.9055123382999994
 31
0.0
  0
LINE
  5
135E6
  8
0
 10
3.582679460449878
 20
-0.9055123734407715
 30
0.0
 11
3.4378639481999991
 21
-0.9055122441999969
 31
0.0
  0
ARC
  5
135E7
  8
0
 10
3.248028303433538
 20
-1.343535700449791
 30
0.0
 40
0.4773909512347318
 50
66.5685011794114843
 51
113.4314988205885015
  0
LINE
  5
135E8
  8
0
 10
3.0581926583999999
 20
-0.9055122441999969
 30
0.0
 11
2.8473127671000542
 21
-0.9055124324000018
 31
0.0
  0
ARC
  5
135E9
  8
0
 10
2.6574772525882229
 20
-1.3436065744795369
 30
0.0
 40
0.4774560333709902
 50
66.5719029794683621
 51
113.4281311259440059
  0
LINE
  5
135EA
  8
0
 10
2.4676414772999991
 20
-0.9055122441999969
 30
0.0
 11
2.3228369407495402
 21
-0.9055123734309802
 31
0.0
  0
LINE
  5
135EB
  8
0
 10
3.4378639481999982
 20
-0.9055122441999969
 30
0.0
 11
3.4378639481999982
 21
-1.3779529631
 31
0.0
  0
LINE
  5
135EC
  8
0
 10
3.0581926583999999
 20
-0.9055122442336838
 30
0.0
 11
3.058192658399999
 21
-1.377952963066313
 31
0.0
  0
LINE
  5
135ED
  8
0
 10
2.8473127671
 20
-0.9055124324000018
 30
0.0
 11
2.8473127671
 21
-1.3779527748999949
 31
0.0
  0
LINE
  5
135EE
  8
0
 10
2.4676414772999991
 20
-0.9055122441999969
 30
0.0
 11
2.4676414772999999
 21
-1.3779529631
 31
0.0
  0
LINE
  5
135EF
  8
0
 10
-3.6169677232999988
 20
-1.523622219399996
 30
0.0
 11
3.6169677232999988
 21
-1.523622219399996
 31
0.0
  0
LINE
  5
135F0
  8
0
 10
-3.6169677232999988
 20
-1.523622219399996
 30
0.0
 11
-3.6169655664706148
 21
-1.79921328830644
 31
0.0
  0
LINE
  5
135F1
  8
0
 10
3.6169677233000002
 20
-1.523622219399996
 30
0.0
 11
3.6169655664706148
 21
-1.79921328830644
 31
0.0
  0
ARC
  5
135F2
  8
0
 10
2.6574690738000011
 20
-1.7992057790999989
 30
0.0
 40
0.9594964926999981
 50
270.0002677998999729
 51
359.9995515920693947
  0
LINE
  5
135F3
  8
0
 10
2.6574735584770042
 20
-2.7587022717895162
 30
0.0
 11
2.2392906997799491
 21
-2.7587042263720098
 31
0.0
  0
ARC
  5
135F4
  8
0
 10
1.907109920768588
 20
-4.075208196272551
 30
0.0
 40
1.3083373122455031
 50
92.8163441161551788
 51
111.9714302184384991
  0
ARC
  5
135F5
  8
0
 10
1.6844007503543561
 20
-3.5169014528423679
 30
0.0
 40
0.7072586572166115
 50
112.1620754251559049
 51
163.3646549416143046
  0
ARC
  5
135F6
  8
0
 10
2.7186311955143219
 20
-3.8197152938323948
 30
0.0
 40
1.784901853957199
 50
163.5553001483318099
 51
178.3862015974247868
  0
ARC
  5
135F7
  8
0
 10
17.0322942082439717
 20
-4.2229819411431349
 30
0.0
 40
16.1042444656422106
 50
178.3862015974247868
 51
179.0624040412432976
  0
LINE
  5
135F8
  8
0
 10
0.9302059317510785
 20
-3.9594616474315032
 30
0.0
 11
0.9302059317510789
 21
-6.2430797267999969
 31
0.0
  0
ARC
  5
135F9
  8
0
 10
-11.7908390203851798
 20
-5.718937694217189
 30
0.0
 40
12.7318384196702503
 50
355.5078398175591019
 51
357.6405908905456954
  0
ARC
  5
135FA
  8
0
 10
0.2226689771053312
 20
-6.6400791684104936
 30
0.0
 40
0.6834632913349376
 50
333.5756682723919084
 51
353.6113554237957146
  0
ARC
  5
135FB
  8
0
 10
-0.000004227200002
 20
-6.543456277899991
 30
0.0
 40
0.9259561775000049
 50
270.0002615682309965
 51
334.3531834573997799
  0
ARC
  5
135FC
  8
0
 10
-0.0039294877421534
 20
-2.5412034252165361
 30
0.0
 40
0.8186418030565732
 50
2.3872099443528429
 51
89.7249787062001758
  0
ARC
  5
135FD
  8
0
 10
-1.2042913979932119
 20
-4.5679724788304936
 30
0.0
 40
2.0296260080375919
 50
339.3436971396209856
 51
353.942414238114111
  0
ARC
  5
135FE
  8
0
 10
0.004017697323935
 20
-4.9538129150649262
 30
0.0
 40
0.7656678747152985
 50
269.6993498564817742
 51
334.446170457167284
  0
ARC
  5
135FF
  8
0
 10
2.1686245118476162
 20
-7.9508769724150801
 30
0.0
 40
5.192656081247792
 50
89.2201525049801347
 51
93.5971406112717261
  0
LINE
  5
13600
  8
0
 10
10.3808581070999999
 20
0.0000014401000001
 30
0.0
 11
12.3030732488000005
 21
0.0000014401000001
 31
0.0
  0
LINE
  5
13601
  8
0
 10
12.3030732488000005
 20
0.0000014401000001
 30
0.0
 11
12.29657102
 21
-1.033483819499998
 31
0.0
  0
ARC
  5
13602
  8
0
 10
8.1992593507892622
 20
-1.007705359971282
 30
0.0
 40
4.0973927616993393
 50
345.2166835011761918
 51
359.6395252388066979
  0
ARC
  5
13603
  8
0
 10
7.665804588572442
 20
-0.8630059943421527
 30
0.0
 40
4.6501126065208096
 50
341.9974842144903278
 51
345.1699741906389818
  0
ARC
  5
13604
  8
0
 10
12.0028788648755391
 20
-2.2764817731436571
 30
0.0
 40
0.0886059968295827
 50
318.0992830752639975
 51
344.4977818221523762
  0
ARC
  5
13605
  8
0
 10
12.0222500335543199
 20
-2.2924277543286129
 30
0.0
 40
0.0635475594357337
 50
280.4396121136027205
 51
317.1360971380005935
  0
LINE
  5
13606
  8
0
 10
12.0337647944999997
 20
-2.3549233748999958
 30
0.0
 11
11.9798079277565606
 21
-2.3627665272333331
 31
0.0
  0
ARC
  5
13607
  8
0
 10
11.9770126687480296
 20
-2.3433200881157599
 30
0.0
 40
0.0196466119684799
 50
190.154941106188403
 51
277.939795250628606
  0
LINE
  5
13608
  8
0
 10
11.95767382945
 20
-2.3467839957999952
 30
0.0
 11
11.9571443876300005
 21
-2.308943896012607
 31
0.0
  0
LINE
  5
13609
  8
0
 10
10.7521216164000002
 20
-1.210324162899993
 30
0.0
 11
11.9318097393000002
 21
-1.210324196599998
 31
0.0
  0
ARC
  5
1360A
  8
0
 10
11.9318097387331292
 20
-1.230167867049893
 30
0.0
 40
0.0198436704498946
 50
359.8147381281693242
 51
89.9999983632289542
  0
LINE
  5
1360B
  8
0
 10
11.9516533054496605
 20
-1.2302320300503231
 30
0.0
 11
11.9566201102960505
 21
-2.208815112944535
 31
0.0
  0
ARC
  5
1360C
  8
0
 10
11.8551802160073105
 20
-2.2804312542049838
 30
0.0
 40
0.1058756961608776
 50
344.3772049374097719
 51
2.5461677608355711
  0
ARC
  5
1360D
  8
0
 10
10.6067466818612992
 20
-2.3297893135268088
 30
0.0
 40
1.3552833762090479
 50
2.2861042438788921
 51
5.1211050264768181
  0
LINE
  5
1360E
  8
0
 10
11.9443278825999997
 20
-1.214818001299995
 30
0.0
 11
11.9443278825999997
 21
-2.0771530284999988
 31
0.0
  0
ARC
  5
1360F
  8
0
 10
7.7738742757910222
 20
-2.5360116965846942
 30
0.0
 40
4.1956208794196908
 50
4.4909549061469374
 51
6.2787749749526132
  0
ARC
  5
13610
  8
0
 10
8.9328028997891487
 20
-2.4084993214452619
 30
0.0
 40
3.0296985143644992
 50
6.2787749749526123
 51
11.4328692858054399
  0
ARC
  5
13611
  8
0
 10
6.2269925402716213
 20
-2.9813099462674368
 30
0.0
 40
5.7954158466209558
 50
11.6810173414004108
 51
12.6660501549976203
  0
ARC
  5
13612
  8
0
 10
11.3410135079070997
 20
-1.8142682605241871
 30
0.0
 40
0.5503239048216554
 50
10.86426564846942
 51
89.8999399818415554
  0
ARC
  5
13613
  8
0
 10
11.9403624301628604
 20
-1.271832645922472
 30
0.0
 40
0.011990444703853
 50
16.7031499675962891
 51
70.6476770153719542
  0
ARC
  5
13614
  8
0
 10
11.9403908746999896
 20
-1.8779516345999949
 30
0.0
 40
0.011811023600004
 50
289.5118474172356855
 51
0.0
  0
LINE
  5
13615
  8
0
 10
11.9522018983000002
 20
-1.8779516345999949
 30
0.0
 11
11.9528880707079601
 21
-1.4735112468700251
 31
0.0
  0
ARC
  5
13616
  8
0
 10
11.8716683941174104
 20
-2.2845554211270871
 30
0.0
 40
0.0888872497842505
 50
331.9619538346584022
 51
344.0752043370417255
  0
ARC
  5
13617
  8
0
 10
13.6448174646469802
 20
-2.6082002513809708
 30
0.0
 40
1.7179739166623069
 50
170.5569657723497983
 51
176.416341704627996
  0
ARC
  5
13618
  8
0
 10
40.6176326128047194
 20
-4.5165655329799712
 30
0.0
 40
28.7581617563696206
 50
175.9806653773430867
 51
177.8243949032508056
  0
ARC
  5
13619
  8
0
 10
11.3109454596221699
 20
-3.9843821651330771
 30
0.0
 40
2.3739108471967758
 50
270.7487131088689125
 51
304.0721119084967086
  0
ARC
  5
1361A
  8
0
 10
11.9392484018913105
 20
-4.9930688185020671
 30
0.0
 40
1.1872246568299929
 50
306.2278427815676878
 51
341.1817607006785806
  0
ARC
  5
1361B
  8
0
 10
12.2872573453760499
 20
-5.1116643625316414
 30
0.0
 40
0.8195629538895935
 50
341.1817607006785806
 51
357.4079159961017922
  0
ARC
  5
1361C
  8
0
 10
11.8011570714692908
 20
-5.0896579760327496
 30
0.0
 40
1.3061611015833281
 50
357.4079159961017922
 51
1.859337335707236
  0
LINE
  5
1361D
  8
0
 10
13.1066304719000009
 20
-5.0472784519999934
 30
0.0
 11
13.0868023329999996
 21
-4.6459973220999942
 31
0.0
  0
ARC
  5
1361E
  8
0
 10
12.1079914253851406
 20
-4.7028268321022209
 30
0.0
 40
0.9804592730312299
 50
3.322847899046351
 51
30.3415943727762816
  0
ARC
  5
1361F
  8
0
 10
11.7444886779769906
 20
-4.9405605757694451
 30
0.0
 40
1.4144290415860841
 50
31.2144213116060705
 51
59.0490585062247391
  0
ARC
  5
13620
  8
0
 10
10.8464265443629309
 20
-6.5341546809798103
 30
0.0
 40
3.2433612945695489
 50
59.9218854450547767
 51
66.9248125443956212
  0
ARC
  5
13621
  8
0
 10
12.6684623023076401
 20
-2.2204077592796159
 30
0.0
 40
1.4394475239673199
 50
236.7965187613311002
 51
247.5006852366697103
  0
ARC
  5
13622
  8
0
 10
12.0955923033801795
 20
-3.08839684311718
 30
0.0
 40
0.3994826227261367
 50
222.6214766235947025
 51
237.3723914536045925
  0
ARC
  5
13623
  8
0
 10
11.8438483531682408
 20
-3.3152100033849901
 30
0.0
 40
0.0609266116601539
 50
200.1534310629050992
 51
225.9817505718258133
  0
ARC
  5
13624
  8
0
 10
11.9762488603168809
 20
-3.3085488660547631
 30
0.0
 40
0.1916027213839594
 50
177.8119439527129089
 51
188.2980249856892101
  0
LINE
  5
13625
  8
0
 10
11.7847858370215999
 20
-3.3012335704231068
 30
0.0
 11
11.8417615188000003
 21
-1.918661399399987
 31
0.0
  0
ARC
  5
13626
  8
0
 10
12.9657332026160592
 20
-1.9649801770574551
 30
0.0
 40
1.124925675404381
 50
165.616448583165095
 51
177.6401810463889888
  0
ARC
  5
13627
  8
0
 10
11.3471134242308
 20
-3.5432079149980491
 30
0.0
 40
2.3829989295199301
 50
269.8762315409881012
 51
287.8607440399625261
  0
ARC
  5
13628
  8
0
 10
11.51442690145727
 20
-4.062436459526416
 30
0.0
 40
1.837478919699338
 50
287.8607440399622988
 51
310.9111810268066733
  0
ARC
  5
13629
  8
0
 10
11.9834054086248099
 20
-4.6036266166918827
 30
0.0
 40
1.1213590788920349
 50
310.9111810268066733
 51
334.6055649638310001
  0
ARC
  5
1362A
  8
0
 10
12.1240198547220093
 20
-4.6703785286917103
 30
0.0
 40
0.9657048460332601
 50
334.6055649638310001
 51
351.8644030939661889
  0
ARC
  5
1362B
  8
0
 10
12.2224814324441091
 20
-4.6844541034681866
 30
0.0
 40
0.866242269690127
 50
351.8644030939661889
 51
359.9718430927334225
  0
LINE
  5
1362C
  8
0
 10
10.3808581069999999
 20
0.0000014401000001
 30
0.0
 11
10.3873603358000004
 21
-1.033483819499998
 31
0.0
  0
ARC
  5
1362D
  8
0
 10
14.48467200501074
 20
-1.007705359971282
 30
0.0
 40
4.0973927616993393
 50
180.3604747611933021
 51
194.7833164988236945
  0
ARC
  5
1362E
  8
0
 10
15.0181267672275602
 20
-0.8630059943421527
 30
0.0
 40
4.6501126065208096
 50
194.8300258093609898
 51
198.0025157855097007
  0
ARC
  5
1362F
  8
0
 10
10.6810524909244595
 20
-2.2764817731436571
 30
0.0
 40
0.0886059968295827
 50
195.5022181778475101
 51
221.9007169247360025
  0
ARC
  5
13630
  8
0
 10
10.6616813222456894
 20
-2.2924277543286129
 30
0.0
 40
0.0635475594357337
 50
222.8639028619994065
 51
259.5603878863972227
  0
LINE
  5
13631
  8
0
 10
10.6501665613000007
 20
-2.3549233748999958
 30
0.0
 11
10.7041234280434399
 21
-2.3627665272333331
 31
0.0
  0
ARC
  5
13632
  8
0
 10
10.7069186870519708
 20
-2.3433200881157599
 30
0.0
 40
0.0196466119684799
 50
262.0602047493715077
 51
349.845058893811597
  0
LINE
  5
13633
  8
0
 10
10.7262575263500004
 20
-2.3467839957999952
 30
0.0
 11
10.7267869681699999
 21
-2.308943896012607
 31
0.0
  0
ARC
  5
13634
  8
0
 10
10.7521216170668694
 20
-1.230167867049893
 30
0.0
 40
0.0198436704498946
 50
90.0000016367710316
 51
180.1852618718305905
  0
LINE
  5
13635
  8
0
 10
10.7322780503503399
 20
-1.2302320300503231
 30
0.0
 11
10.7273112455039605
 21
-2.208815112944535
 31
0.0
  0
ARC
  5
13636
  8
0
 10
10.8287511397926899
 20
-2.2804312542049838
 30
0.0
 40
0.1058756961608776
 50
177.4538322391643987
 51
195.6227950625901997
  0
ARC
  5
13637
  8
0
 10
12.0771846739387101
 20
-2.3297893135268088
 30
0.0
 40
1.3552833762090479
 50
174.8788949735231881
 51
177.7138957561211043
  0
LINE
  5
13638
  8
0
 10
10.7396034732000007
 20
-1.214818001299995
 30
0.0
 11
10.7396034732000007
 21
-2.0771530284999988
 31
0.0
  0
ARC
  5
13639
  8
0
 10
14.9100570800089791
 20
-2.5360116965846942
 30
0.0
 40
4.1956208794196908
 50
173.7212250250474028
 51
175.5090450938533877
  0
ARC
  5
1363A
  8
0
 10
13.75112845601085
 20
-2.4084993214452619
 30
0.0
 40
3.0296985143644992
 50
168.5671307141944908
 51
173.7212250250474028
  0
ARC
  5
1363B
  8
0
 10
16.4569388155283782
 20
-2.9813099462674368
 30
0.0
 40
5.7954158466209558
 50
167.3339498450023086
 51
168.3189826585995093
  0
ARC
  5
1363C
  8
0
 10
11.3429178478929007
 20
-1.8142682605241871
 30
0.0
 40
0.5503239048216554
 50
90.1000600181584446
 51
169.1357343515306013
  0
ARC
  5
1363D
  8
0
 10
10.7435689256371294
 20
-1.271832645922472
 30
0.0
 40
0.011990444703853
 50
109.3523229846280032
 51
163.2968500324037109
  0
ARC
  5
1363E
  8
0
 10
10.7435404811000108
 20
-1.8779516345999949
 30
0.0
 40
0.011811023600004
 50
180.0
 51
250.4881525827642861
  0
LINE
  5
1363F
  8
0
 10
10.7317294575000002
 20
-1.8779516345999949
 30
0.0
 11
10.7310432850920296
 21
-1.4735112468700251
 31
0.0
  0
ARC
  5
13640
  8
0
 10
10.81226296168259
 20
-2.2845554211270871
 30
0.0
 40
0.0888872497842505
 50
195.9247956629581893
 51
208.0380461653415125
  0
ARC
  5
13641
  8
0
 10
9.0391138911530184
 20
-2.6082002513809708
 30
0.0
 40
1.7179739166623069
 50
3.583658295372016
 51
9.4430342276501467
  0
ARC
  5
13642
  8
0
 10
-17.9337012570047207
 20
-4.5165655329799712
 30
0.0
 40
28.7581617563696206
 50
2.1756050967491292
 51
4.0193346226568458
  0
ARC
  5
13643
  8
0
 10
11.4255435852618508
 20
-3.8167771224841109
 30
0.0
 40
2.5426871789811072
 50
237.0628215887417127
 51
268.1163533938930073
  0
ARC
  5
13644
  8
0
 10
10.7446829539086792
 20
-4.9930688185020671
 30
0.0
 40
1.1872246568299929
 50
198.8182392993213909
 51
233.7721572184323975
  0
ARC
  5
13645
  8
0
 10
10.3966740104239399
 20
-5.1116643625316414
 30
0.0
 40
0.8195629538895935
 50
182.5920840038982078
 51
198.8182392993213909
  0
ARC
  5
13646
  8
0
 10
10.8827742843307096
 20
-5.0896579760327496
 30
0.0
 40
1.3061611015833281
 50
178.1406626642927051
 51
182.5920840038982078
  0
LINE
  5
13647
  8
0
 10
9.5773008839000013
 20
-5.0472784519999934
 30
0.0
 11
9.5971290228000043
 21
-4.6459973220999942
 31
0.0
  0
ARC
  5
13648
  8
0
 10
10.5759399304148705
 20
-4.7028268321022209
 30
0.0
 40
0.9804592730312299
 50
149.6584056272236865
 51
176.6771521009536059
  0
ARC
  5
13649
  8
0
 10
10.9394426778230098
 20
-4.9405605757694451
 30
0.0
 40
1.4144290415860841
 50
120.9509414937752041
 51
148.7855786883939118
  0
ARC
  5
1364A
  8
0
 10
11.8375048114370696
 20
-6.5341546809798103
 30
0.0
 40
3.2433612945695489
 50
113.075187455604393
 51
120.0781145549451026
  0
ARC
  5
1364B
  8
0
 10
10.0154690534923603
 20
-2.2204077592796159
 30
0.0
 40
1.4394475239673199
 50
292.4993147633302897
 51
303.2034812386688145
  0
ARC
  5
1364C
  8
0
 10
10.5883390524198209
 20
-3.08839684311718
 30
0.0
 40
0.3994826227261367
 50
302.6276085463953223
 51
317.378523376405326
  0
ARC
  5
1364D
  8
0
 10
10.8400830026317703
 20
-3.3152100033849901
 30
0.0
 40
0.0609266116601539
 50
314.0182494281742152
 51
339.8465689370949008
  0
ARC
  5
1364E
  8
0
 10
10.7076824954831196
 20
-3.3085488660547631
 30
0.0
 40
0.1916027213839594
 50
351.7019750143107899
 51
2.1880560472870609
  0
LINE
  5
1364F
  8
0
 10
10.8991455187783899
 20
-3.3012335704231068
 30
0.0
 11
10.8421698370000001
 21
-1.918661399399987
 31
0.0
  0
ARC
  5
13650
  8
0
 10
9.7181981531839376
 20
-1.9649801770574551
 30
0.0
 40
1.124925675404381
 50
2.3598189536110099
 51
14.3835514168352994
  0
ARC
  5
13651
  8
0
 10
11.3368179315692004
 20
-3.5432079149980491
 30
0.0
 40
2.3829989295199301
 50
252.1392559600373886
 51
270.1237684590118988
  0
ARC
  5
13652
  8
0
 10
11.1695044543427304
 20
-4.062436459526416
 30
0.0
 40
1.837478919699338
 50
229.088818973193213
 51
252.1392559600375876
  0
ARC
  5
13653
  8
0
 10
10.7005259471751906
 20
-4.6036266166918827
 30
0.0
 40
1.1213590788920349
 50
205.3944350361689999
 51
229.088818973193213
  0
ARC
  5
13654
  8
0
 10
10.559911501078
 20
-4.6703785286917103
 30
0.0
 40
0.9657048460332601
 50
188.1355969060338111
 51
205.3944350361689999
  0
ARC
  5
13655
  8
0
 10
10.4614499233558895
 20
-4.6844541034681866
 30
0.0
 40
0.866242269690127
 50
180.0281569072666059
 51
188.1355969060338111
  0
LINE
  5
13656
  8
0
 10
10.4604561302098205
 20
-1.7786230187561849
 30
0.0
 11
0.9302059317510789
 21
-4.5311086975323072
 31
0.0
  0
LINE
  5
13657
  8
0
 10
0.9302059317510792
 20
-5.1048187572632591
 30
0.0
 11
10.5999036389994501
 21
-2.312061071976216
 31
0.0
  0
LINE
  5
13658
  8
0
 10
11.2336978269000003
 20
-0.1102346034999968
 30
0.0
 11
11.4502333625000006
 21
-0.1102346034999968
 31
0.0
  0
ARC
  5
13659
  8
0
 10
11.4502333625000006
 20
-0.1200771551352986
 30
0.0
 40
0.0098425516353018
 50
0.0048522026362922
 51
90.0000000000394493
  0
LINE
  5
1365A
  8
0
 10
11.4600759141000008
 20
-0.1200763215999956
 30
0.0
 11
11.4600909177550001
 21
-0.2972424812523968
 31
0.0
  0
ARC
  5
1365B
  8
0
 10
11.4502492180850197
 20
-0.2972433147155584
 30
0.0
 40
0.0098416997052721
 50
269.9078786402786818
 51
0.0048522026338495
  0
LINE
  5
1365C
  8
0
 10
11.4502333943999997
 20
-0.3070850016999955
 30
0.0
 11
11.2336979033999995
 21
-0.3070850016000008
 31
0.0
  0
ARC
  5
1365D
  8
0
 10
11.23369796110393
 20
-0.2972424820962374
 30
0.0
 40
0.0098425195039326
 50
179.9999994397452099
 51
269.999664090888075
  0
LINE
  5
1365E
  8
0
 10
11.2238554415999996
 20
-0.2972424819999944
 30
0.0
 11
11.2238554433323703
 21
-0.1200771232158502
 31
0.0
  0
ARC
  5
1365F
  8
0
 10
11.2336979631454099
 20
-0.1200771233120932
 30
0.0
 40
0.0098425198130396
 50
90.0007931187747943
 51
179.9999994397468015
  0
LINE
  5
13660
  8
0
 10
11.2435404810000001
 20
-0.285157346899993
 30
0.0
 11
11.4403908747000003
 21
-0.285157346899993
 31
0.0
  0
LINE
  5
13661
  8
0
 10
11.4403908747000003
 20
-0.285157346899993
 30
0.0
 11
11.4403908747000003
 21
-0.1259827065999985
 31
0.0
  0
LINE
  5
13662
  8
0
 10
11.4403908747000003
 20
-0.1259827065999985
 30
0.0
 11
11.2435404810000001
 21
-0.1259827065999985
 31
0.0
  0
LINE
  5
13663
  8
0
 10
11.2435404810000001
 20
-0.1259827065999985
 30
0.0
 11
11.2435404810000001
 21
-0.285157346899993
 31
0.0
  0
LINE
  5
13664
  8
0
 10
11.2435404810000001
 20
-0.1329247435999932
 30
0.0
 11
11.4403908747000003
 21
-0.1329247435999932
 31
0.0
  0
LINE
  5
13665
  8
0
 10
11.4403908747000003
 20
-0.1758951483000004
 30
0.0
 11
11.2435404810000001
 21
-0.1758951483000004
 31
0.0
  0
LINE
  5
13666
  8
0
 62
     1
 10
2.9527527127499957
 20
0.0
 30
0.0
 11
3462.4763977040015561
 21
0.0
 31
0.0
  0
LINE
  5
13667
  8
0
 10
-3.3740125552999989
 20
-1.437007873999995
 30
0.0
 11
-3.3740125552999989
 21
-1.5236220473000011
 31
0.0
  0
LINE
  5
13668
  8
0
 10
-2.5314928702999988
 20
-1.523622219399996
 30
0.0
 11
-2.5314928702999988
 21
-1.4370080725999941
 31
0.0
  0
LINE
  5
13669
  8
0
 10
2.5315011772
 20
-1.5236210477475041
 30
0.0
 11
2.5315013069151591
 21
-1.4370078038106859
 31
0.0
  0
LINE
  5
1366A
  8
0
 10
3.3740208622000001
 20
-1.5236209259999991
 30
0.0
 11
3.3740208622000001
 21
-1.437009065598772
 31
0.0
  0
ARC
  5
1366B
  8
0
 10
2.271510834839332
 20
-1.5234519131982931
 30
0.0
 40
0.0207238646051601
 50
359.5319609112299872
 51
56.0224196324593322
  0
ARC
  5
1366C
  8
0
 10
2.2754550412557482
 20
-1.5175994482230091
 30
0.0
 40
0.0136663784704072
 50
56.0224196324582806
 51
91.2475798736429198
  0
LINE
  5
1366D
  8
0
 10
2.2751574879000001
 20
-1.503936309399996
 30
0.0
 11
-2.2752329068285522
 21
-1.5039382334107709
 31
0.0
  0
ARC
  5
1366E
  8
0
 10
-2.2740689617853578
 20
-1.521347485033139
 30
0.0
 40
0.0174094494500777
 50
89.727221817396412
 51
153.1828808872606089
  0
ARC
  5
1366F
  8
0
 10
-2.270154145968919
 20
-1.5238287508724959
 30
0.0
 40
0.022027201329863
 50
152.016809705136609
 51
179.4627927975514012
  0
LINE
  5
13670
  8
0
 10
-1.7716502950999991
 20
-1.503936318799993
 30
0.0
 11
-1.7716502967500001
 21
-1.4842512795
 31
0.0
  0
LINE
  5
13671
  8
0
 10
-1.7716502967500001
 20
-1.4842512795
 30
0.0
 11
-1.5354298242999991
 21
-1.484251260299998
 31
0.0
  0
LINE
  5
13672
  8
0
 10
-1.5354298242999991
 20
-1.484251260299998
 30
0.0
 11
-1.5354298226999989
 21
-1.5039362989999949
 31
0.0
  0
LINE
  5
13673
  8
0
 10
-2.3818893597500002
 20
-0.8464569872500007
 30
0.0
 11
-3.5236216432499989
 21
-0.8464563986499982
 31
0.0
  0
LINE
  5
13674
  8
0
 10
-3.5236216432499989
 20
-0.8464563986499982
 30
0.0
 11
-3.5826767917499991
 21
-0.9055114862499991
 31
0.0
  0
LINE
  5
13675
  8
0
 10
-3.5826767917499991
 20
-0.9055114862499991
 30
0.0
 11
-3.5826770362822589
 21
-1.377952431149992
 31
0.0
  0
LINE
  5
13676
  8
0
 10
-3.5826770362822589
 20
-1.377952431149992
 30
0.0
 11
-3.5236219476500028
 21
-1.4370075797500019
 31
0.0
  0
LINE
  5
13677
  8
0
 10
-3.5236219476500028
 20
-1.4370075797500019
 30
0.0
 11
-2.3818896642499992
 21
-1.4370092896499991
 31
0.0
  0
LINE
  5
13678
  8
0
 10
-2.3818896642499992
 20
-1.4370092896499991
 30
0.0
 11
-2.3228345156499959
 21
-1.377954201950004
 31
0.0
  0
LINE
  5
13679
  8
0
 10
-2.3228345156499959
 20
-1.377954201950004
 30
0.0
 11
-2.322834272049997
 21
-0.905512135849996
 31
0.0
  0
LINE
  5
1367A
  8
0
 10
-2.322834272049997
 20
-0.905512135849996
 30
0.0
 11
-2.3818893597500002
 21
-0.8464569872500007
 31
0.0
  0
LINE
  5
1367B
  8
0
 10
-2.3622098386000001
 20
-0.9055123383000065
 30
0.0
 11
-2.3622098385999979
 21
-1.3779528689999969
 31
0.0
  0
LINE
  5
1367C
  8
0
 10
-2.3228345156492902
 20
-1.377952833859438
 30
0.0
 11
-2.4676497842999989
 21
-1.3779529631
 31
0.0
  0
ARC
  5
1367D
  8
0
 10
-2.65748542906646
 20
-0.9399295068502055
 30
0.0
 40
0.4773909512347318
 50
246.5685011794114985
 51
293.4314988205883878
  0
LINE
  5
1367E
  8
0
 10
-2.847321074099999
 20
-1.3779529631
 30
0.0
 11
-3.0582009653999451
 21
-1.3779527748999949
 31
0.0
  0
ARC
  5
1367F
  8
0
 10
-3.248036479911776
 20
-0.9398586328204601
 30
0.0
 40
0.4774560333709902
 50
246.5718688740558946
 51
293.4280970205315953
  0
LINE
  5
13680
  8
0
 10
-3.4378722551999989
 20
-1.3779529631
 30
0.0
 11
-3.582676633563497
 21
-1.3779528338691589
 31
0.0
  0
LINE
  5
13681
  8
0
 10
-3.5433122007999991
 20
-1.3779528689999969
 30
0.0
 11
-3.5433122007999991
 21
-0.9055123382999994
 31
0.0
  0
LINE
  5
13682
  8
0
 10
-2.3228342720501201
 20
-0.9055123734407715
 30
0.0
 11
-2.4676497842999989
 21
-0.9055122441999969
 31
0.0
  0
ARC
  5
13683
  8
0
 10
-2.65748542906646
 20
-1.343535700449791
 30
0.0
 40
0.4773909512347318
 50
66.5685011794115127
 51
113.4314988205885015
  0
LINE
  5
13684
  8
0
 10
-2.847321074099999
 20
-0.9055122441999969
 30
0.0
 11
-3.0582009653999451
 21
-0.9055124324000018
 31
0.0
  0
ARC
  5
13685
  8
0
 10
-3.248036479911776
 20
-1.3436065744795369
 30
0.0
 40
0.4774560333709902
 50
66.5719029794683905
 51
113.4281311259440059
  0
LINE
  5
13686
  8
0
 10
-3.4378722551999989
 20
-0.9055122441999969
 30
0.0
 11
-3.5826767917504578
 21
-0.9055123734309802
 31
0.0
  0
LINE
  5
13687
  8
0
 10
-2.4676497842999998
 20
-0.9055122441999969
 30
0.0
 11
-2.4676497842999998
 21
-1.3779529631
 31
0.0
  0
LINE
  5
13688
  8
0
 10
-2.847321074099999
 20
-0.9055122442336838
 30
0.0
 11
-2.847321074099999
 21
-1.377952963066313
 31
0.0
  0
LINE
  5
13689
  8
0
 10
-3.058200965399998
 20
-0.9055124324000018
 30
0.0
 11
-3.0582009653999989
 21
-1.3779527748999949
 31
0.0
  0
LINE
  5
1368A
  8
0
 10
-3.4378722551999989
 20
-0.9055122441999969
 30
0.0
 11
-3.4378722551999981
 21
-1.3779529631
 31
0.0
  0
LINE
  5
1368B
  8
0
 10
0.8140018595208253
 20
-2.5071048493476691
 30
0.0
 11
0.8140018595208253
 21
-4.7821547824318884
 31
0.0
  0
ARC
  5
1368C
  8
0
 10
-2.6574690738000011
 20
-1.7992057790999989
 30
0.0
 40
0.9594964926999981
 50
180.0004484079302074
 51
269.9997322001000271
  0
LINE
  5
1368D
  8
0
 10
-2.6574735584770042
 20
-2.7587022717895162
 30
0.0
 11
-2.2392906997799491
 21
-2.7587042263720098
 31
0.0
  0
ARC
  5
1368E
  8
0
 10
-1.907109920768588
 20
-4.075208196272551
 30
0.0
 40
1.3083373122455031
 50
68.0285697815615009
 51
87.1836558838448354
  0
ARC
  5
1368F
  8
0
 10
-1.6844007503543561
 20
-3.5169014528423679
 30
0.0
 40
0.7072586572166115
 50
16.635345058385699
 51
67.8379245748440667
  0
ARC
  5
13690
  8
0
 10
-2.718631195514321
 20
-3.8197152938323948
 30
0.0
 40
1.784901853957199
 50
1.6137984025751699
 51
16.4446998516682008
  0
ARC
  5
13691
  8
0
 10
-17.0322942082439717
 20
-4.2229819411431349
 30
0.0
 40
16.1042444656422106
 50
0.9375959587566665
 51
1.6137984025751699
  0
LINE
  5
13692
  8
0
 10
-0.930205931751078
 20
-3.9594616474315032
 30
0.0
 11
-0.9302059317510785
 21
-6.2430797267999969
 31
0.0
  0
ARC
  5
13693
  8
0
 10
11.7908390203851798
 20
-5.718937694217189
 30
0.0
 40
12.7318384196702503
 50
182.3594091094543046
 51
184.4921601824408981
  0
ARC
  5
13694
  8
0
 10
-0.2226689771053307
 20
-6.6400791684104936
 30
0.0
 40
0.6834632913349376
 50
186.3886445762043138
 51
206.4243317276082053
  0
ARC
  5
13695
  8
0
 10
0.0000042272000025
 20
-6.543456277899991
 30
0.0
 40
0.9259561775000049
 50
205.6468165426001065
 51
269.9997384317690035
  0
ARC
  5
13696
  8
0
 10
0.000001751300015
 20
-2.531514959500007
 30
0.0
 40
0.8089439065000162
 50
90.0001240408620333
 51
178.2708212361322921
  0
ARC
  5
13697
  8
0
 10
0.9295205756342417
 20
-4.6520449919252647
 30
0.0
 40
1.742957414251957
 50
184.2810471217289034
 51
201.2565944974953993
  0
ARC
  5
13698
  8
0
 10
-0.0040176973239345
 20
-4.9538129150649262
 30
0.0
 40
0.7656678747152985
 50
205.5538295428326876
 51
270.3006501435182258
  0
ARC
  5
13699
  8
0
 10
-2.1686245118476162
 20
-7.9508769724150801
 30
0.0
 40
5.192656081247792
 50
86.4028593887282739
 51
90.7798474950198369
  0
LINE
  5
1369A
  8
0
 10
-0.8085737803517024
 20
-2.5071048493476691
 30
0.0
 11
-0.8085737803517024
 21
-4.7821547824318884
 31
0.0
  0
ENDBLK
  5
1369E
  8
0
  0
ENDSEC
  0
SECTION
  2
ENTITIES
  0
ATTDEF
  5
1AA36
  8
DEFPOINTS
 10
3453.9160244053778115
 20
225.9862535006975008
 30
0.0
 40
0.001
  1
K-3902T-S
  3

  2
MODELNUMBER
 70
     0
1001
ACDBATTR
1070
     0
1070
     1
  0
ATTDEF
  5
1AA37
  8
DEFPOINTS
 10
3453.9160244053778115
 20
225.9845868340308925
 30
0.0
 40
0.001
  1
KARESS
  3

  2
TRADENAME
 70
     0
1001
ACDBATTR
1070
     0
1070
     1
  0
ATTDEF
  5
1AA38
  8
DEFPOINTS
 10
3453.9160244053778115
 20
225.982920167364199
 30
0.0
 40
0.001
  1
TOILET
  3

  2
PRODUCT
 70
     0
1001
ACDBATTR
1070
     0
1070
     1
  0
LINE
  5
1AF29
  8
0
 10
3449.5855620311981511
 20
216.8568366362028996
 30
0.0
 11
3449.3613394261860776
 21
216.8569943836529887
 31
0.0
  0
ARC
  5
1AF2A
  8
0
 10
3449.3612513547359413
 20
216.7318094110717084
 30
0.0
 40
0.1251850035616548
 50
89.9596906760432375
 51
124.9178802495104037
  0
ARC
  5
1AF2B
  8
0
 10
3449.4412824791620551
 20
216.6171637455256871
 30
0.0
 40
0.2650013456164353
 50
124.9178802495104037
 51
138.3332937456814875
  0
ARC
  5
1AF2C
  8
0
 10
3450.4177528589489157
 20
215.7481776839860004
 30
0.0
 40
1.572147541629165
 50
138.3332937456814875
 51
146.1806196864754952
  0
ARC
  5
1AF2D
  8
0
 10
3454.0467309491100423
 20
213.317010584418
 30
0.0
 40
5.9402198218106577
 50
146.1806196864754952
 51
150.4659833910071995
  0
ARC
  5
1AF2E
  8
0
 10
3592.2159715171278549
 20
135.036289624657087
 30
0.0
 40
164.7439046440549077
 50
150.4659833910071995
 51
150.6141497350589873
  0
ARC
  5
1AF2F
  8
0
 10
3454.9199091805480748
 20
212.3539792101124135
 30
0.0
 40
7.174130080648542
 50
150.6141497350589873
 51
154.6029676097749928
  0
ARC
  5
1AF30
  8
0
 10
3440.0071732806550244
 20
219.4341203074664861
 30
0.0
 40
9.3339918591248558
 50
333.4234717913885788
 51
334.6029676097750212
  0
ARC
  5
1AF31
  8
0
 10
3455.1982263876639081
 20
211.8347896853385919
 30
0.0
 40
7.6518234114000316
 50
153.4234717913886072
 51
157.5675958165323038
  0
ARC
  5
1AF32
  8
0
 10
3464.7669494255092104
 20
207.8297332111415017
 30
0.0
 40
18.0248581404555317
 50
157.406639553385304
 51
171.6156961404610115
  0
ARC
  5
1AF33
  8
0
 10
3484.5333033626770884
 20
205.249661344736694
 30
0.0
 40
37.9575926866298019
 50
172.1133362958049986
 51
175.179235628145193
  0
ARC
  5
1AF34
  8
0
 10
3453.3372856779378708
 20
207.824161255029793
 30
0.0
 40
6.6558115941678269
 50
174.6946745503258001
 51
184.8951907714559013
  0
ARC
  5
1AF35
  8
0
 10
3460.7124153761551497
 20
208.1342129520693049
 30
0.0
 40
14.0341563389391002
 50
183.5869183383800021
 51
195.5628710287340937
  0
ARC
  5
1AF36
  8
0
 10
3461.2105601437178848
 20
208.2417721874163021
 30
0.0
 40
14.5429261256250406
 50
195.4445427028001063
 51
216.7994073556052115
  0
ARC
  5
1AF37
  8
0
 10
3454.7686872242447862
 20
203.4532165341153984
 30
0.0
 40
6.5163039973499632
 50
217.0139856617302883
 51
236.3315188983144139
  0
ARC
  5
1AF38
  8
0
 10
3453.8531046546900143
 20
202.1467322635112112
 30
0.0
 40
4.9215280688614493
 50
236.770474707291811
 51
256.79265217551972
  0
ARC
  5
1AF39
  8
0
 10
3453.8093296786928477
 20
201.7813480397329045
 30
0.0
 40
4.5559901479255984
 50
256.2787388329762734
 51
266.359694979042672
  0
ARC
  5
1AF3A
  8
0
 10
3453.9869019916259276
 20
204.209684423036407
 30
0.0
 40
6.9907393703024079
 50
266.1709196291373019
 51
269.4157959373180802
  0
ARC
  5
1AF3B
  8
0
 10
3449.5742353592358995
 20
216.7705810673921007
 30
0.0
 40
0.0869960726046793
 50
57.045062388683931
 51
82.5189942380173989
  0
LINE
  5
1AF3C
  8
0
 10
3449.6215594187028728
 20
216.8435793553454971
 30
0.0
 11
3449.6288707306471224
 21
216.6190933004768056
 31
0.0
  0
ARC
  5
1AF3D
  8
0
 10
3449.6999180651660026
 20
216.6176120190575034
 30
0.0
 40
0.0710627746217547
 50
178.805600803609309
 51
188.2178065877085942
  0
ARC
  5
1AF3E
  8
0
 10
3449.6430060535240045
 20
216.6116390747287994
 30
0.0
 40
0.0140582936633562
 50
197.3168151466284996
 51
224.430584249598212
  0
ARC
  5
1AF3F
  8
0
 10
3449.6587949752279201
 20
216.628890347734
 30
0.0
 40
0.0374312305435074
 50
226.3690716755945971
 51
246.6681491596505964
  0
ARC
  5
1AF40
  8
0
 10
3449.703547757475917
 20
216.7297611781768865
 30
0.0
 40
0.1477825115736374
 50
246.2251216258437978
 51
256.7983382776765779
  0
ARC
  5
1AF41
  8
0
 10
3449.74045860308388
 20
216.9061827702622054
 30
0.0
 40
0.3280002703343638
 50
257.559211181316698
 51
270.6853197846081116
  0
ARC
  5
1AF42
  8
0
 10
3450.5781088615490262
 20
240.6574942349191133
 30
0.0
 40
24.0937175336632095
 50
268.0169692366069967
 51
269.1494233764764772
  0
LINE
  5
1AF43
  8
0
 10
3450.3434834449981281
 20
216.5656753506528958
 30
0.0
 11
3457.4877638748798745
 21
216.5656753506528958
 31
0.0
  0
ARC
  5
1AF44
  8
0
 10
3450.3329182124098224
 20
224.8565194635746138
 30
0.0
 40
8.2908508446906346
 50
269.2226843042333826
 51
270.0730134231052944
  0
LINE
  5
1AF45
  8
0
 10
3449.6288707306471224
 20
216.6190933004768056
 30
0.0
 11
3449.6439701114982199
 21
216.619087223052901
 31
0.0
  0
LINE
  5
1AF46
  8
0
 10
3449.6439701114982199
 20
216.619087223052901
 30
0.0
 11
3449.6439701114982199
 21
216.5945200053529049
 31
0.0
  0
LINE
  5
1AF47
  8
0
 10
3449.6565055733308327
 20
216.5896642163604895
 30
0.0
 11
3449.6582142693428068
 21
216.7491897902737037
 31
0.0
  0
ARC
  5
1AF48
  8
0
 10
3449.853814605601201
 20
216.7470946935034988
 30
0.0
 40
0.1956115563416346
 50
175.2629507289537969
 51
179.3863220556578995
  0
ARC
  5
1AF49
  8
0
 10
3449.7516465255162075
 20
216.7555609539344914
 30
0.0
 40
0.0930932938037643
 50
159.3591064921077134
 51
175.2629507289522053
  0
ARC
  5
1AF4A
  8
0
 10
3449.7338050695871061
 20
216.762281653231895
 30
0.0
 40
0.0740280020743564
 50
123.1576978975429029
 51
159.3591064921077134
  0
ARC
  5
1AF4B
  8
0
 10
3449.73937747300306
 20
216.7537523908600008
 30
0.0
 40
0.0842162304010069
 50
91.1526359129312738
 51
123.1576978975429029
  0
LINE
  5
1AF4C
  8
0
 10
3449.7376833847979469
 20
216.8379515804529092
 30
0.0
 11
3450.0803152348958065
 21
216.8379438049441887
 31
0.0
  0
ARC
  5
1AF4D
  8
0
 10
3450.0802290912652097
 20
216.7785444971017057
 30
0.0
 40
0.0593993703072239
 50
57.386428439963872
 51
89.9169070609881516
  0
ARC
  5
1AF4E
  8
0
 10
3450.0805500386900349
 20
216.7790460868035893
 30
0.0
 40
0.0588038877471332
 50
20.6396742609622486
 51
57.386428439962998
  0
ARC
  5
1AF4F
  8
0
 10
3450.0847442373378726
 20
216.7806258978735059
 30
0.0
 40
0.0543220237025761
 50
10.1700981904368497
 51
20.6396742609637691
  0
LINE
  5
1AF50
  8
0
 10
3450.1382127475271773
 20
216.7902175962271087
 30
0.0
 11
3450.1431996177980182
 21
216.7404422895529024
 31
0.0
  0
ARC
  5
1AF51
  8
0
 10
3449.6523069487789144
 20
216.7054888639706007
 30
0.0
 40
0.4921355041622523
 50
0.2543613402996861
 51
4.0728037445445633
  0
ARC
  5
1AF52
  8
0
 10
3459.8315383371859753
 20
216.7506792771426092
 30
0.0
 40
9.687196194538906
 50
180.2543613402997096
 51
181.0826039573339017
  0
LINE
  5
1AF53
  8
0
 10
3450.1444376032850414
 20
216.7076736642528942
 30
0.0
 11
3450.1538126311979795
 21
216.7076736642528942
 31
0.0
  0
LINE
  5
1AF54
  8
0
 10
3450.1538126311979795
 20
216.7076736642528942
 30
0.0
 11
3450.1538126311979795
 21
216.5675129708986049
 31
0.0
  0
LINE
  5
1AF55
  8
0
 10
3450.1538126311979795
 20
216.6584610658528902
 30
0.0
 11
3450.1783943386981264
 21
216.6584610658528902
 31
0.0
  0
LINE
  5
1AF56
  8
0
 10
3450.1783943386981264
 20
216.6584610658528902
 30
0.0
 11
3450.180176121698878
 21
216.5670630613907974
 31
0.0
  0
LINE
  5
1AF57
  8
0
 10
3450.168499415397946
 20
216.6584610658528902
 30
0.0
 11
3450.1684994153938533
 21
216.8553114593632074
 31
0.0
  0
ARC
  5
1AF58
  8
0
 10
3450.2078694946389987
 20
216.8553114593642022
 30
0.0
 40
0.0393700792456364
 50
90.0065454071846744
 51
180.0000000014607053
  0
LINE
  5
1AF59
  8
0
 10
3450.2078649969857906
 20
216.8946815383764033
 30
0.0
 11
3450.3191669619568529
 21
216.8943379346519009
 31
0.0
  0
ARC
  5
1AF5A
  8
0
 10
3450.3187617729709018
 20
216.8742649570504
 30
0.0
 40
0.0200770667155988
 50
36.0661502888874494
 51
88.8435962620569057
  0
LINE
  5
1AF5B
  8
0
 10
3450.3191669619568529
 20
216.8943379346519009
 30
0.0
 11
3450.3191669619568529
 21
216.8860854494529065
 31
0.0
  0
LINE
  5
1AF5C
  8
0
 10
3450.3191669619568529
 20
216.8860854494529065
 30
0.0
 11
3457.5120803579247877
 21
216.8860867231308873
 31
0.0
  0
LINE
  5
1AF5D
  8
0
 10
3450.4057811350980955
 20
216.8860864108528972
 30
0.0
 11
3450.4057811350980955
 21
216.930722478752898
 31
0.0
  0
ARC
  5
1AF5E
  8
0
 10
3450.3860960914989846
 20
216.930722478752898
 30
0.0
 40
0.0196850436000138
 50
0.0000000000016284
 51
89.9999877753360522
  0
LINE
  5
1AF5F
  8
0
 10
3450.3860960956981216
 20
216.9504075223528901
 30
0.0
 11
3450.2483008242988944
 21
216.9504075517529884
 31
0.0
  0
ARC
  5
1AF60
  8
0
 10
3450.2483008200979384
 20
216.9307225123529861
 30
0.0
 40
0.0196850394000099
 50
89.9999877753360522
 51
180.0000855732371008
  0
LINE
  5
1AF61
  8
0
 10
3450.2286157806979645
 20
216.9307224829526888
 30
0.0
 11
3450.2286157924581858
 21
216.9228484723529107
 31
0.0
  0
ARC
  5
1AF62
  8
0
 10
3450.2483008664589761
 20
216.9228485017532932
 30
0.0
 40
0.0196850740003993
 50
180.0000855732371008
 51
269.9998650622321179
  0
LINE
  5
1AF63
  8
0
 10
3450.2483008200979384
 20
216.9031634277529008
 30
0.0
 11
3450.3223165681970386
 21
216.9031632534378105
 31
0.0
  0
ARC
  5
1AF64
  8
0
 10
3450.3223165218369104
 20
216.8834781344363023
 30
0.0
 40
0.0196851190015557
 50
7.6126469291524099
 51
89.9998650622320753
  0
ARC
  5
1AF65
  8
0
 10
3450.2074190071489284
 20
216.8378474704032044
 30
0.0
 40
0.0324369042017446
 50
173.367011513001188
 51
179.7425585104826098
  0
ARC
  5
1AF66
  8
0
 10
3448.9458508980837905
 20
216.8435159884257928
 30
0.0
 40
1.2291439397818611
 50
358.620574290944603
 51
359.7425585104825814
  0
ARC
  5
1AF67
  8
0
 10
3451.0359438116202
 20
216.7931861892201084
 30
0.0
 40
0.8615548610753934
 50
178.6205742909463083
 51
180.7743663114324022
  0
ARC
  5
1AF68
  8
0
 10
3448.1099962255789251
 20
216.753638892288393
 30
0.0
 40
2.0646599746737881
 50
359.2186771231062039
 51
0.7743663114324353
  0
ARC
  5
1AF69
  8
0
 10
3451.2259336952438389
 20
216.7111452885974074
 30
0.0
 40
1.051567234824486
 50
179.2186771231060902
 51
181.4682494331354974
  0
ARC
  5
1AF6A
  8
0
 10
3440.7714151216900973
 20
216.4431813658557076
 30
0.0
 40
9.4063849198132878
 50
1.347395843507295
 51
1.468249433137172
  0
ARC
  5
1AF6B
  8
0
 10
3449.6864425827379819
 20
216.6882043029663976
 30
0.0
 40
0.4893375768509239
 50
357.2077247835732123
 51
0.4826319946040398
  0
ARC
  5
1AF6C
  8
0
 10
3451.757810342961875
 20
216.7056529179922109
 30
0.0
 40
1.5821036731629561
 50
178.9878676424220032
 51
180.4826319946039916
  0
ARC
  5
1AF6D
  8
0
 10
3449.0953329325529921
 20
216.7526905864141042
 30
0.0
 40
1.0807892092468401
 50
358.9878676424203263
 51
1.0090748066864661
  0
ARC
  5
1AF6E
  8
0
 10
3451.7947769658007928
 20
216.8002372408701035
 30
0.0
 40
1.6190735230027731
 50
179.5183854535439991
 51
181.0090748066864137
  0
ARC
  5
1AF6F
  8
0
 10
3449.6383577458741456
 20
216.8183640092744042
 30
0.0
 40
0.5374218820013191
 50
359.5183854535439991
 51
2.1726567835814379
  0
ARC
  5
1AF70
  8
0
 10
3450.1275894420969053
 20
216.8369245793390121
 30
0.0
 40
0.0478382350625922
 50
2.172656783576556
 51
5.6017499482132962
  0
LINE
  5
1AF71
  8
0
 10
3451.2936410591978529
 20
216.8847110360528916
 30
0.0
 11
3451.2926835791940903
 21
216.8799231693311924
 31
0.0
  0
LINE
  5
1AF72
  8
0
 10
3451.2926835791940903
 20
216.8799231693311924
 30
0.0
 11
3451.2924984895430498
 21
216.8729424453528907
 31
0.0
  0
LINE
  5
1AF73
  8
0
 10
3451.2924984895430498
 20
216.8729424453528907
 30
0.0
 11
3451.2916213631988285
 21
216.8102920089528993
 31
0.0
  0
LINE
  5
1AF74
  8
0
 10
3451.2916213631988285
 20
216.8102920089528993
 30
0.0
 11
3451.2904829737799446
 21
216.5656753506528958
 31
0.0
  0
LINE
  5
1AF75
  8
0
 10
3451.3034189303980384
 20
216.5656753494033069
 30
0.0
 11
3451.3034189303980384
 21
216.8836802251528866
 31
0.0
  0
LINE
  5
1AF76
  8
0
 10
3451.2936410591978529
 20
216.8847110360528916
 30
0.0
 11
3451.2916745099978471
 21
216.7491675807528964
 31
0.0
  0
LINE
  5
1AF77
  8
0
 10
3451.2916745099978471
 20
216.7491675807528964
 30
0.0
 11
3451.2907642366230903
 21
216.5656753494197915
 31
0.0
  0
LINE
  5
1AF78
  8
0
 10
3451.3034189303980384
 20
216.8836802251528866
 30
0.0
 11
3457.6506764747950911
 21
216.8836802251528866
 31
0.0
  0
LINE
  5
1AF79
  8
0
 10
3451.3034189303980384
 20
216.7491675807528964
 30
0.0
 11
3451.2916745099978471
 21
216.7491675807528964
 31
0.0
  0
LINE
  5
1AF7A
  8
0
 10
3458.2456852886830347
 20
216.8568366362028996
 30
0.0
 11
3458.4699078936941987
 21
216.8569943836529887
 31
0.0
  0
ARC
  5
1AF7B
  8
0
 10
3458.4699959651447898
 20
216.7318094110717084
 30
0.0
 40
0.1251850035616548
 50
55.0821197504895395
 51
90.0403093239567767
  0
ARC
  5
1AF7C
  8
0
 10
3458.3899648407182212
 20
216.6171637455256871
 30
0.0
 40
0.2650013456164353
 50
41.6667062543184272
 51
55.0821197504895395
  0
ARC
  5
1AF7D
  8
0
 10
3457.4134944609318154
 20
215.7481776839860004
 30
0.0
 40
1.572147541629165
 50
33.8193803135245119
 51
41.6667062543184272
  0
ARC
  5
1AF7E
  8
0
 10
3453.7845163707711436
 20
213.317010584418
 30
0.0
 40
5.9402198218106577
 50
29.5340166089927507
 51
33.8193803135231619
  0
ARC
  5
1AF7F
  8
0
 10
3315.6152758027528762
 20
135.036289624657087
 30
0.0
 40
164.7439046440549077
 50
29.3858502649409701
 51
29.5340166089927507
  0
ARC
  5
1AF80
  8
0
 10
3452.911338139333111
 20
212.3539792101124135
 30
0.0
 40
7.174130080648542
 50
25.3970323902250215
 51
29.3858502649409701
  0
ARC
  5
1AF81
  8
0
 10
3467.8240740392270709
 20
219.4341203074664861
 30
0.0
 40
9.3339918591248558
 50
205.3970323902250072
 51
206.5765282086098864
  0
ARC
  5
1AF82
  8
0
 10
3452.633020932216823
 20
211.8347896853385919
 30
0.0
 40
7.6518234114000316
 50
22.4324041834676891
 51
26.5765282086113217
  0
ARC
  5
1AF83
  8
0
 10
3442.660658288094055
 20
207.7178787633449986
 30
0.0
 40
18.4405662596429387
 50
8.5452601226842155
 51
22.4324041834676891
  0
ARC
  5
1AF84
  8
0
 10
3417.9059777743268569
 20
204.576437031138795
 30
0.0
 40
43.390995765537312
 50
5.1078606360368237
 51
7.7902750433134234
  0
ARC
  5
1AF85
  8
0
 10
3453.6485795054431946
 20
207.8264428990374029
 30
0.0
 40
7.501182719690723
 50
355.6401376256681033
 51
4.6885029058554384
  0
ARC
  5
1AF86
  8
0
 10
3446.8863856020211642
 20
208.1860486316361118
 30
0.0
 40
14.2719931121112502
 50
344.4870264508252262
 51
356.2644161791205875
  0
ARC
  5
1AF87
  8
0
 10
3446.6206871761642105
 20
208.2417721874163021
 30
0.0
 40
14.5429261256250406
 50
323.2005926443948169
 51
344.5554572971998937
  0
ARC
  5
1AF88
  8
0
 10
3453.0625600956359449
 20
203.4532165341153984
 30
0.0
 40
6.5163039973499632
 50
303.6684811016855861
 51
322.9860143382683759
  0
ARC
  5
1AF89
  8
0
 10
3453.9781426651911715
 20
202.1467322635112112
 30
0.0
 40
4.9215280688614493
 50
283.2073478244803937
 51
303.2295252927081037
  0
ARC
  5
1AF8A
  8
0
 10
3454.0219176411869739
 20
201.7813480397329045
 30
0.0
 40
4.5559901479255984
 50
273.640305020957328
 51
283.7212611670237266
  0
ARC
  5
1AF8B
  8
0
 10
3458.2570119606461958
 20
216.7705810673921007
 30
0.0
 40
0.0869960726046793
 50
97.4810057619825869
 51
122.9549376113160974
  0
LINE
  5
1AF8C
  8
0
 10
3458.2096879011778583
 20
216.8435793553454971
 30
0.0
 11
3458.2023765892340634
 21
216.6190933004768056
 31
0.0
  0
ARC
  5
1AF8D
  8
0
 10
3458.1313292547151832
 20
216.6176120190575034
 30
0.0
 40
0.0710627746217547
 50
351.7821934122914058
 51
1.1943991963906819
  0
ARC
  5
1AF8E
  8
0
 10
3458.1882412663580908
 20
216.6116390747287994
 30
0.0
 40
0.0140582936633562
 50
315.5694157504016744
 51
342.6831848533698803
  0
ARC
  5
1AF8F
  8
0
 10
3458.172452344652811
 20
216.628890347734
 30
0.0
 40
0.0374312305435074
 50
293.3318508403493752
 51
313.6309283244041808
  0
ARC
  5
1AF90
  8
0
 10
3458.1276995624061783
 20
216.7297611781768865
 30
0.0
 40
0.1477825115736374
 50
283.2016617223234221
 51
293.7748783741561738
  0
ARC
  5
1AF91
  8
0
 10
3458.0907887167968511
 20
216.9061827702622054
 30
0.0
 40
0.3280002703343638
 50
269.3146802153918884
 51
282.4407888186831883
  0
ARC
  5
1AF92
  8
0
 10
3457.2531384583321596
 20
240.6574942349191133
 30
0.0
 40
24.0937175336632095
 50
270.8505766235234091
 51
271.9830307633928896
  0
ARC
  5
1AF93
  8
0
 10
3457.4983291074709086
 20
224.8565194635746138
 30
0.0
 40
8.2908508446906346
 50
269.9269865768947056
 51
270.7773156957665037
  0
LINE
  5
1AF94
  8
0
 10
3458.2023765892340634
 20
216.6190933004768056
 30
0.0
 11
3458.1872772083829659
 21
216.619087223052901
 31
0.0
  0
LINE
  5
1AF95
  8
0
 10
3458.1872772083829659
 20
216.619087223052901
 30
0.0
 11
3458.1872772083829659
 21
216.5945200053529049
 31
0.0
  0
LINE
  5
1AF96
  8
0
 10
3458.1747417465508079
 20
216.5896642163604895
 30
0.0
 11
3458.1730330505370148
 21
216.7491897902737037
 31
0.0
  0
ARC
  5
1AF97
  8
0
 10
3457.9774327142808943
 20
216.7470946935034988
 30
0.0
 40
0.1956115563416346
 50
0.6136779443421075
 51
4.737049271046164
  0
ARC
  5
1AF98
  8
0
 10
3458.0796007943649784
 20
216.7555609539344914
 30
0.0
 40
0.0930932938037643
 50
4.7370492710477876
 51
20.6408935078922902
  0
ARC
  5
1AF99
  8
0
 10
3458.0974422502940797
 20
216.762281653231895
 30
0.0
 40
0.0740280020743564
 50
20.6408935078922902
 51
56.8423021024570474
  0
ARC
  5
1AF9A
  8
0
 10
3458.0918698468781258
 20
216.7537523908600008
 30
0.0
 40
0.0842162304010069
 50
56.8423021024570474
 51
88.8473640870687262
  0
LINE
  5
1AF9B
  8
0
 10
3458.0935639350827842
 20
216.8379515804529092
 30
0.0
 11
3457.7509320849849246
 21
216.8379438049441887
 31
0.0
  0
ARC
  5
1AF9C
  8
0
 10
3457.7510182286168856
 20
216.7785444971017057
 30
0.0
 40
0.0593993703072239
 50
90.0830929390118342
 51
122.6135715600361067
  0
ARC
  5
1AF9D
  8
0
 10
3457.750697281191151
 20
216.7790460868035893
 30
0.0
 40
0.0588038877471332
 50
122.613571560037002
 51
159.3603257390392116
  0
ARC
  5
1AF9E
  8
0
 10
3457.7465030825428585
 20
216.7806258978735059
 30
0.0
 40
0.0543220237025761
 50
159.3603257390361989
 51
169.8299018095615054
  0
LINE
  5
1AF9F
  8
0
 10
3457.6930345723540086
 20
216.7902175962271087
 30
0.0
 11
3457.6880477020831677
 21
216.7404422895529024
 31
0.0
  0
ARC
  5
1AFA0
  8
0
 10
3458.1789403711018167
 20
216.7054888639706007
 30
0.0
 40
0.4921355041622523
 50
175.9271962554570905
 51
179.7456386597002904
  0
ARC
  5
1AFA1
  8
0
 10
3447.9997089826952106
 20
216.7506792771426092
 30
0.0
 40
9.687196194538906
 50
358.917396042664393
 51
359.7456386597003188
  0
LINE
  5
1AFA2
  8
0
 10
3457.6868097165970539
 20
216.7076736642528942
 30
0.0
 11
3457.6774346886832063
 21
216.7076736642528942
 31
0.0
  0
LINE
  5
1AFA3
  8
0
 10
3457.6774346886832063
 20
216.7076736642528942
 30
0.0
 11
3457.6774346886832063
 21
216.5675129708986049
 31
0.0
  0
LINE
  5
1AFA4
  8
0
 10
3457.6774346886832063
 20
216.6584610658528902
 30
0.0
 11
3457.6528529811830595
 21
216.6584610658528902
 31
0.0
  0
LINE
  5
1AFA5
  8
0
 10
3457.6528529811830595
 20
216.6584610658528902
 30
0.0
 11
3457.6510711981832173
 21
216.5670630613907974
 31
0.0
  0
LINE
  5
1AFA6
  8
0
 10
3457.6627479044827851
 20
216.6584610658528902
 30
0.0
 11
3457.6627479044877873
 21
216.8553114593632074
 31
0.0
  0
ARC
  5
1AFA7
  8
0
 10
3457.6233778252421871
 20
216.8553114593642022
 30
0.0
 40
0.0393700792456364
 50
359.999999998537703
 51
89.9934545928153256
  0
LINE
  5
1AFA8
  8
0
 10
3457.6233823228949404
 20
216.8946815383764033
 30
0.0
 11
3457.5120803579247877
 21
216.8943379346519009
 31
0.0
  0
ARC
  5
1AFA9
  8
0
 10
3457.5124855469098293
 20
216.8742649570504
 30
0.0
 40
0.0200770667155988
 50
91.1564037379430943
 51
143.9338497111124866
  0
LINE
  5
1AFAA
  8
0
 10
3457.5120803579247877
 20
216.8943379346519009
 30
0.0
 11
3457.5120803579247877
 21
216.8860867231308873
 31
0.0
  0
LINE
  5
1AFAB
  8
0
 10
3457.4254661847830903
 20
216.8860864108528972
 30
0.0
 11
3457.4254661847830903
 21
216.930722478752898
 31
0.0
  0
ARC
  5
1AFAC
  8
0
 10
3457.4451512283831107
 20
216.930722478752898
 30
0.0
 40
0.0196850436000138
 50
90.0000122246639336
 51
179.9999999999984084
  0
LINE
  5
1AFAD
  8
0
 10
3457.4451512241830642
 20
216.9504075223528901
 30
0.0
 11
3457.5829464955832009
 21
216.9504075517529884
 31
0.0
  0
ARC
  5
1AFAE
  8
0
 10
3457.5829464997827927
 20
216.9307225123529861
 30
0.0
 40
0.0196850394000099
 50
359.9999144267629276
 51
90.0000122246639336
  0
LINE
  5
1AFAF
  8
0
 10
3457.6026315391832213
 20
216.9307224829526888
 30
0.0
 11
3457.6026315274239096
 21
216.9228484723529107
 31
0.0
  0
ARC
  5
1AFB0
  8
0
 10
3457.5829464534231192
 20
216.9228485017532932
 30
0.0
 40
0.0196850740003993
 50
270.0001349377678821
 51
359.9999144267612223
  0
LINE
  5
1AFB1
  8
0
 10
3457.5829464997827927
 20
216.9031634277529008
 30
0.0
 11
3457.508930751682783
 21
216.9031632534378105
 31
0.0
  0
ARC
  5
1AFB2
  8
0
 10
3457.5089307980438207
 20
216.8834781344363023
 30
0.0
 40
0.0196851190015557
 50
90.0001349377679389
 51
172.3873530708476096
  0
ARC
  5
1AFB3
  8
0
 10
3457.6238283127318027
 20
216.8378474704032044
 30
0.0
 40
0.0324369042017446
 50
0.2574414895173688
 51
6.6329884869988023
  0
ARC
  5
1AFB4
  8
0
 10
3458.8853964217969406
 20
216.8435159884257928
 30
0.0
 40
1.2291439397818611
 50
180.2574414895173049
 51
181.3794257090536064
  0
ARC
  5
1AFB5
  8
0
 10
3456.7953035082600763
 20
216.7931861892201084
 30
0.0
 40
0.8615548610753934
 50
359.2256336885675978
 51
1.379425709055301
  0
ARC
  5
1AFB6
  8
0
 10
3459.721251094301806
 20
216.753638892288393
 30
0.0
 40
2.0646599746737881
 50
179.2256336885675125
 51
180.7813228768939098
  0
ARC
  5
1AFB7
  8
0
 10
3456.6053136246368922
 20
216.7111452885974074
 30
0.0
 40
1.051567234824486
 50
358.5317505668645026
 51
0.7813228768938716
  0
ARC
  5
1AFB8
  8
0
 10
3467.059832198191998
 20
216.4431813658557076
 30
0.0
 40
9.4063849198132878
 50
178.5317505668627973
 51
178.6526041564927141
  0
ARC
  5
1AFB9
  8
0
 10
3458.144804737143204
 20
216.6882043029663976
 30
0.0
 40
0.4893375768509239
 50
179.5173680053958947
 51
182.7922752164267877
  0
ARC
  5
1AFBA
  8
0
 10
3456.0734369769188561
 20
216.7056529179922109
 30
0.0
 40
1.5821036731629561
 50
359.5173680053960084
 51
1.012132357578007
  0
ARC
  5
1AFBB
  8
0
 10
3458.7359143873281937
 20
216.7526905864141042
 30
0.0
 40
1.0807892092468401
 50
178.990925193313501
 51
181.0121323575779968
  0
ARC
  5
1AFBC
  8
0
 10
3456.0364703540799383
 20
216.8002372408701035
 30
0.0
 40
1.6190735230027731
 50
358.9909251933136147
 51
0.4816145464560112
  0
ARC
  5
1AFBD
  8
0
 10
3458.1928895740070402
 20
216.8183640092744042
 30
0.0
 40
0.5374218820013191
 50
177.8273432164185124
 51
180.4816145464560009
  0
ARC
  5
1AFBE
  8
0
 10
3457.7036578777851901
 20
216.8369245793390121
 30
0.0
 40
0.0478382350625922
 50
174.3982500517867038
 51
177.8273432164218093
  0
LINE
  5
1AFBF
  8
0
 10
3456.5376062606828782
 20
216.8847110360528916
 30
0.0
 11
3456.5385637406870956
 21
216.8799231693311924
 31
0.0
  0
LINE
  5
1AFC0
  8
0
 10
3456.5385637406870956
 20
216.8799231693311924
 30
0.0
 11
3456.5387488303372265
 21
216.8729424453528907
 31
0.0
  0
LINE
  5
1AFC1
  8
0
 10
3456.5387488303372265
 20
216.8729424453528907
 30
0.0
 11
3456.5396259566828121
 21
216.8102920089528993
 31
0.0
  0
LINE
  5
1AFC2
  8
0
 10
3456.5396259566828121
 20
216.8102920089528993
 30
0.0
 11
3456.5407643461007865
 21
216.5656753506528958
 31
0.0
  0
LINE
  5
1AFC3
  8
0
 10
3456.527828389484057
 20
216.5656753494033069
 30
0.0
 11
3456.527828389484057
 21
216.8836802251528866
 31
0.0
  0
LINE
  5
1AFC4
  8
0
 10
3456.5376062606828782
 20
216.8847110360528916
 30
0.0
 11
3456.539572809882884
 21
216.7491675807528964
 31
0.0
  0
LINE
  5
1AFC5
  8
0
 10
3456.539572809882884
 20
216.7491675807528964
 30
0.0
 11
3456.5404830832590051
 21
216.5656753494197915
 31
0.0
  0
LINE
  5
1AFC6
  8
0
 10
3456.527828389484057
 20
216.7491675807528964
 30
0.0
 11
3456.539572809882884
 21
216.7491675807528964
 31
0.0
  0
ARC
  5
1AFC7
  8
0
 10
3453.8443451845300842
 20
204.2096855163395901
 30
0.0
 40
6.9907404650141478
 50
270.5842051492101064
 51
273.8290802438210108
  0
ARC
  5
1AFC8
  8
0
 10
3452.6308001468501061
 20
223.1347742414025959
 30
0.0
 40
1.2926984045014871
 50
19.2811234098969599
 51
26.7041249676128594
  0
ARC
  5
1AFC9
  8
0
 10
3452.6371741122297863
 20
223.1370040151157923
 30
0.0
 40
1.285945677239658
 50
12.5599109856247395
 51
19.2811234098954287
  0
ARC
  5
1AFCA
  8
0
 10
3452.6148540352219243
 20
223.1320312815630871
 30
0.0
 40
1.308812988332307
 50
4.6262479589886949
 51
12.5599109856247395
  0
ARC
  5
1AFCB
  8
0
 10
3452.6494597557880297
 20
223.1348315482865985
 30
0.0
 40
1.274094154976356
 50
355.7256814132176146
 51
4.6262479589886949
  0
ARC
  5
1AFCC
  8
0
 10
3452.6214760552488769
 20
223.136923039810398
 30
0.0
 40
1.3021559053242879
 50
347.9332579851991909
 51
355.7256814132176146
  0
ARC
  5
1AFCD
  8
0
 10
3452.6263541854768846
 20
223.1358802206397058
 30
0.0
 40
1.2971675562655161
 50
333.3404350918995078
 51
347.9332579851991909
  0
ARC
  5
1AFCE
  8
0
 10
3453.8029426882790176
 20
222.5448746791869894
 30
0.0
 40
0.0195147565399975
 50
152.5973410934057881
 51
259.8646253866111238
  0
ARC
  5
1AFCF
  8
0
 10
3453.9156245355511601
 20
223.1347742414023969
 30
0.0
 40
0.6200787401991033
 50
259.2070758371968964
 51
264.1893332315719931
  0
ARC
  5
1AFD0
  8
0
 10
3453.9156245355511601
 20
223.1347742414033917
 30
0.0
 40
0.6200787402001675
 50
264.1893332315719931
 51
283.0294111998375115
  0
ARC
  5
1AFD1
  8
0
 10
3453.9156245355520696
 20
223.1347742414031075
 30
0.0
 40
0.620078740199868
 50
283.0294111998375115
 51
304.8418727863526101
  0
ARC
  5
1AFD2
  8
0
 10
3453.9156245355511601
 20
223.1347742414033064
 30
0.0
 40
0.6200787402000499
 50
304.8418727863526101
 51
338.8559602978093039
  0
ARC
  5
1AFD3
  8
0
 10
3453.9156245355511601
 20
223.1347742414031927
 30
0.0
 40
0.6200787401999678
 50
338.855960297807826
 51
17.0530102811097102
  0
ARC
  5
1AFD4
  8
0
 10
3453.9156245355511601
 20
223.1347742414031927
 30
0.0
 40
0.6200787402000437
 50
17.0530102811097102
 51
48.5488151962504872
  0
ARC
  5
1AFD5
  8
0
 10
3453.9156245355511601
 20
223.1347742414033064
 30
0.0
 40
0.6200787401999394
 50
48.5488151962504872
 51
82.5201692949682979
  0
ARC
  5
1AFD6
  8
0
 10
3453.9156245355511601
 20
223.1347742414031075
 30
0.0
 40
0.6200787402001114
 50
82.5201692949682979
 51
99.2204222206048456
  0
ARC
  5
1AFD7
  8
0
 10
3453.9111052877688053
 20
223.1626140421275011
 30
0.0
 40
0.5918745187982721
 50
99.2204222206048456
 51
100.8678928920236046
  0
ARC
  5
1AFD8
  8
0
 10
3453.8032165900149266
 20
223.7245310678906947
 30
0.0
 40
0.0196938537098794
 50
100.8477212983474942
 51
206.6703999032231991
  0
ARC
  5
1AFD9
  8
0
 10
3453.9157684373199118
 20
223.132771343501787
 30
0.0
 40
0.6475415004898517
 50
90.0127322641935734
 51
111.727172596438507
  0
ARC
  5
1AFDA
  8
0
 10
3453.9143651830258932
 20
223.1362927037853012
 30
0.0
 40
0.6437508408030093
 50
111.727172596438507
 51
154.7192150119408893
  0
ARC
  5
1AFDB
  8
0
 10
3453.9186247267398358
 20
223.1342809741107089
 30
0.0
 40
0.6484615487055323
 50
154.7192150119408893
 51
186.6076202774335968
  0
ARC
  5
1AFDC
  8
0
 10
3453.91981316349802
 20
223.1344186411143937
 30
0.0
 40
0.6496579324775621
 50
186.6076202774335968
 51
224.1018294888075957
  0
ARC
  5
1AFDD
  8
0
 10
3453.9019521612808603
 20
223.1171090199055982
 30
0.0
 40
0.6247854901656851
 50
224.1018294888075957
 51
241.1689920444848099
  0
ARC
  5
1AFDE
  8
0
 10
3453.9139733072129275
 20
223.1389473992479964
 30
0.0
 40
0.6497138427349962
 50
241.1689920444848099
 51
270.1456161236237108
  0
ARC
  5
1AFDF
  8
0
 10
3453.748081062150959
 20
222.5582294601032913
 30
0.0
 40
0.0196834757000088
 50
253.8548052992900921
 51
332.7023687536773764
  0
ARC
  5
1AFE0
  8
0
 10
3452.63122823443382
 20
223.1346217165504981
 30
0.0
 40
1.2765001974511549
 50
332.7023687536773764
 51
348.253320216000418
  0
ARC
  5
1AFE1
  8
0
 10
3452.6305391472142219
 20
223.1347650052393874
 30
0.0
 40
1.2772040247338829
 50
348.253320216000418
 51
15.80011432117022
  0
ARC
  5
1AFE2
  8
0
 10
3452.631368537761773
 20
223.1349997008954062
 30
0.0
 40
1.2763420672335399
 50
15.80011432117022
 51
27.2976103043824594
  0
ARC
  5
1AFE3
  8
0
 10
3453.7480812618910022
 20
223.7113191349455121
 30
0.0
 40
0.019683243887908
 50
27.2976103043853513
 51
106.2013924293937066
  0
ARC
  5
1AFE4
  8
0
 10
3453.9155813237939583
 20
223.1348324338709972
 30
0.0
 40
0.6200108105160075
 50
106.2013924293937066
 51
147.0116728305413858
  0
ARC
  5
1AFE5
  8
0
 10
3453.9156729107771753
 20
223.1347729831136064
 30
0.0
 40
0.620120001027973
 50
147.0116728305413858
 51
210.0083542370007024
  0
ARC
  5
1AFE6
  8
0
 10
3453.9155832422911772
 20
223.1347211813304909
 30
0.0
 40
0.6200164449463338
 50
210.0083530987355971
 51
253.8003331284583055
  0
ARC
  5
1AFE7
  8
0
 10
3453.7378779032260354
 20
223.7109203758379863
 30
0.0
 40
0.0196800886529037
 50
77.2974254286188796
 51
107.1487174495988057
  0
ARC
  5
1AFE8
  8
0
 10
3453.9164736426919262
 20
223.1321373941499075
 30
0.0
 40
0.6253913879096518
 50
107.1487174495988057
 51
108.5500662261859048
  0
ARC
  5
1AFE9
  8
0
 10
3453.6937531745511478
 20
223.6839251300033027
 30
0.0
 40
0.0474854671999993
 50
59.9721711103631065
 51
164.0278288810042113
  0
ARC
  5
1AFEA
  8
0
 10
3453.9157985323658977
 20
223.1344874594844043
 30
0.0
 40
0.6229551294167401
 50
115.4499337651949986
 51
127.0422190562494933
  0
LINE
  5
1AFEB
  8
0
 10
3453.5405282795509265
 20
223.6317251598032101
 30
0.0
 11
3453.5395327742180598
 21
223.6327206650366008
 31
0.0
  0
ARC
  5
1AFEC
  8
0
 10
3453.915624532295169
 20
223.1347742444199014
 30
0.0
 40
0.6240157435840088
 50
127.0632254469391
 51
142.9367745258624893
  0
LINE
  5
1AFED
  8
0
 10
3453.4176781118899271
 20
223.510866002700709
 30
0.0
 11
3453.4186736171550365
 21
223.5098704974288069
 31
0.0
  0
ARC
  5
1AFEE
  8
0
 10
3453.9156245355511601
 20
223.1347742414035054
 30
0.0
 40
0.6226214070994831
 50
142.9546635963004917
 51
151.5531836108746973
  0
ARC
  5
1AFEF
  8
0
 10
3453.3788380888868232
 20
223.3850818722742986
 30
0.0
 40
0.0474854671165073
 50
102.9721710418209
 51
207.0278289585531013
  0
ARC
  5
1AFF0
  8
0
 10
3453.9156245355511601
 20
223.1347742414033064
 30
0.0
 40
0.6226214070999622
 50
158.4468163895037094
 51
170.8768518734061956
  0
ARC
  5
1AFF1
  8
0
 10
3453.9156245355511601
 20
223.1347742414031927
 30
0.0
 40
0.6226214070999773
 50
170.8768518733996871
 51
173.8635862512967947
  0
ARC
  5
1AFF2
  8
0
 10
3453.5342793238269223
 20
223.175773432618314
 30
0.0
 40
0.2390785748305053
 50
173.8635862512967947
 51
176.6764421271647052
  0
ARC
  5
1AFF3
  8
0
 10
3453.9253208542882021
 20
223.2124323468086118
 30
0.0
 40
0.6301305554683179
 50
182.0734437706038022
 51
182.5476332074350125
  0
LINE
  5
1AFF4
  8
0
 10
3453.295813111651114
 20
223.1844230831032974
 30
0.0
 11
3453.297543730713187
 21
223.1844230831032974
 31
0.0
  0
ARC
  5
1AFF5
  8
0
 10
3453.6413652678829749
 20
223.1372772325626954
 30
0.0
 40
0.3535464173151057
 50
164.6046516341475012
 51
175.0634970575900127
  0
ARC
  5
1AFF6
  8
0
 10
3453.3233462231519297
 20
223.1347742414031927
 30
0.0
 40
0.0474854671999992
 50
136.1004313701106128
 51
223.8995686298893872
  0
ARC
  5
1AFF7
  8
0
 10
3453.6561256100981154
 20
223.1338050435907121
 30
0.0
 40
0.3683840844233565
 50
184.9766228998095983
 51
195.2916329173935139
  0
LINE
  5
1AFF8
  8
0
 10
3453.2975366481468882
 20
223.0851253996032995
 30
0.0
 11
3453.295813111651114
 21
223.0851253996032995
 31
0.0
  0
LINE
  5
1AFF9
  8
0
 10
3453.295813111651114
 20
223.0851253996032995
 30
0.0
 11
3453.295602863836848
 21
223.0799145884035113
 31
0.0
  0
ARC
  5
1AFFA
  8
0
 10
3453.7992252248382101
 20
223.1182816496456951
 30
0.0
 40
0.5050816903124165
 50
184.3565037564951012
 51
189.3009444504735939
  0
ARC
  5
1AFFB
  8
0
 10
3453.9156245355438841
 20
223.1347742414019137
 30
0.0
 40
0.6226214070925634
 50
189.0675076643632053
 51
190.4904260423544997
  0
ARC
  5
1AFFC
  8
0
 10
3453.9156245384428985
 20
223.1347742419386861
 30
0.0
 40
0.6226214100410173
 50
190.4904260423544997
 51
201.5531835613367946
  0
ARC
  5
1AFFD
  8
0
 10
3453.3788380889509426
 20
222.8844666105032104
 30
0.0
 40
0.0474854671999935
 50
152.972171118683093
 51
257.0278288813083236
  0
ARC
  5
1AFFE
  8
0
 10
3453.9156245359768036
 20
223.1347742421588123
 30
0.0
 40
0.6226214078942514
 50
208.4468164386653939
 51
217.0453364356457939
  0
LINE
  5
1AFFF
  8
0
 10
3453.4186736171550365
 20
222.7596779853776923
 30
0.0
 11
3453.4176781119181214
 21
222.7586824800698935
 31
0.0
  0
ARC
  5
1B000
  8
0
 10
3453.9156245404451511
 20
223.1347742466062982
 30
0.0
 40
0.6240157551348707
 50
217.063225630703613
 51
232.9367744163187126
  0
LINE
  5
1B001
  8
0
 10
3453.5395327742508016
 20
222.6368278177031925
 30
0.0
 11
3453.5405282795431958
 21
222.6378233229945067
 31
0.0
  0
ARC
  5
1B002
  8
0
 10
3453.9156245346648575
 20
223.134774239824111
 30
0.0
 40
0.6226214052931186
 50
232.9546635759664071
 51
244.5531836096081975
  0
ARC
  5
1B003
  8
0
 10
3453.6937531745511478
 20
222.5856233527032089
 30
0.0
 40
0.0474854671999917
 50
195.9721709534144907
 51
300.027828881003984
  0
LINE
  5
1B004
  8
0
 10
3453.7175158793220362
 20
222.544511268626394
 30
0.0
 11
3453.7320751720508269
 21
222.5398229433031929
 31
0.0
  0
ARC
  5
1B005
  8
0
 10
3453.7378759472740057
 20
222.5586032740459075
 30
0.0
 40
0.0196557837743627
 50
252.8353872772362934
 51
282.7780825519478185
  0
LINE
  5
1B006
  8
0
 10
3453.6879983272337995
 20
223.738932025011195
 30
0.0
 11
3453.6913642935987809
 21
223.731350469675192
 31
0.0
  0
LINE
  5
1B007
  8
0
 10
3453.6642263955859562
 20
223.7294585592192107
 30
0.0
 11
3453.6670245847672049
 21
223.7231737233965987
 31
0.0
  0
LINE
  5
1B008
  8
0
 10
3453.6418979244940601
 20
223.7195394252188123
 30
0.0
 11
3453.6497774440031208
 21
223.7018417345352077
 31
0.0
  0
LINE
  5
1B009
  8
0
 10
3453.618901384380024
 20
223.7082335125448083
 30
0.0
 11
3453.6283367222949892
 21
223.6871537567128883
 31
0.0
  0
LINE
  5
1B00A
  8
0
 10
3453.6006639056508902
 20
223.6984373947751976
 30
0.0
 11
3453.6006639056508902
 21
223.6718310654032109
 31
0.0
  0
LINE
  5
1B00B
  8
0
 10
3453.6006639056508902
 20
223.6858041981033125
 30
0.0
 11
3453.5792739606499708
 21
223.6859553437033128
 31
0.0
  0
LINE
  5
1B00C
  8
0
 10
3453.5181147260000216
 20
223.6436394494546107
 30
0.0
 11
3453.5335833516592174
 21
223.6281708237949033
 31
0.0
  0
LINE
  5
1B00D
  8
0
 10
3453.4067912601572061
 20
223.5322521181927868
 30
0.0
 11
3453.4222279530508786
 21
223.5168154252033048
 31
0.0
  0
LINE
  5
1B00E
  8
0
 10
3453.3322690511308792
 20
223.4112094880462109
 30
0.0
 11
3453.3378012729867805
 21
223.4089743256440954
 31
0.0
  0
LINE
  5
1B00F
  8
0
 10
3453.3622269961401798
 20
223.4672890294708054
 30
0.0
 11
3453.3819338246457846
 21
223.4554479722771134
 31
0.0
  0
LINE
  5
1B010
  8
0
 10
3453.3218036283601577
 20
223.3878691376303891
 30
0.0
 11
3453.3313648074240518
 21
223.3840061704840139
 31
0.0
  0
LINE
  5
1B011
  8
0
 10
3453.3040377888810326
 20
223.3411269940434067
 30
0.0
 11
3453.3252519233460589
 21
223.3325559274543934
 31
0.0
  0
LINE
  5
1B012
  8
0
 10
3453.3037369178309746
 20
222.9282500480751992
 30
0.0
 11
3453.3252519233460589
 21
222.9369925553519067
 31
0.0
  0
LINE
  5
1B013
  8
0
 10
3453.3338606970041837
 20
222.9129449089471962
 30
0.0
 11
3453.3123194606091602
 21
222.9041865187209908
 31
0.0
  0
LINE
  5
1B014
  8
0
 10
3453.331364807402224
 20
222.8855423122138006
 30
0.0
 11
3453.3214693517229534
 21
222.8813571621377889
 31
0.0
  0
LINE
  5
1B015
  8
0
 10
3453.3378012729472175
 20
222.8605741571454928
 30
0.0
 11
3453.3318397419898247
 21
222.8581168408470035
 31
0.0
  0
LINE
  5
1B016
  8
0
 10
3453.3819338246548796
 20
222.8141005104347983
 30
0.0
 11
3453.3616835449479368
 21
222.8019329149126975
 31
0.0
  0
LINE
  5
1B017
  8
0
 10
3453.4222279530331434
 20
222.7527330574845053
 30
0.0
 11
3453.406155621661128
 21
222.7366607261137119
 31
0.0
  0
LINE
  5
1B018
  8
0
 10
3453.5335833516519415
 20
222.6413776589033091
 30
0.0
 11
3453.5172257607000574
 21
222.6248260673093
 31
0.0
  0
LINE
  5
1B019
  8
0
 10
3453.5198521843831259
 20
222.6227847170686118
 30
0.0
 11
3453.5610728572319204
 21
222.6229632177031874
 31
0.0
  0
LINE
  5
1B01A
  8
0
 10
3453.6913642935151074
 20
222.5381980130354975
 30
0.0
 11
3453.6876739620861372
 21
222.5299181028784119
 31
0.0
  0
LINE
  5
1B01B
  8
0
 10
3453.6497774440272224
 20
222.5677067481105951
 30
0.0
 11
3453.6415872098828004
 21
222.5490881860264096
 31
0.0
  0
LINE
  5
1B01C
  8
0
 10
3453.6006639056508902
 20
222.5976921078361954
 30
0.0
 11
3453.6005605294981251
 21
222.5698248222421114
 31
0.0
  0
ARC
  5
1B01D
  8
0
 10
3453.8141514658232154
 20
223.7291067146111914
 30
0.0
 40
0.0196886988808072
 50
99.701685506708273
 51
129.638515792211706
  0
ARC
  5
1B01E
  8
0
 10
3453.915149102137093
 20
223.1383508464971897
 30
0.0
 40
0.6190158368047177
 50
95.4344329432573062
 51
99.701685506708273
  0
ARC
  5
1B01F
  8
0
 10
3453.894954320540819
 20
223.7266917538559881
 30
0.0
 40
0.0474854671469486
 50
39.9721710869361004
 51
144.0278289130552025
  0
ARC
  5
1B020
  8
0
 10
3453.9157936317360509
 20
223.1361514193116875
 30
0.0
 40
0.6212404132421663
 50
77.4344329432707923
 51
88.5655670567307283
  0
ARC
  5
1B021
  8
0
 10
3454.0788785634908891
 20
223.7041086964503904
 30
0.0
 40
0.0474854671453163
 50
21.9721710808878399
 51
126.0278289187901066
  0
ARC
  5
1B022
  8
0
 10
3453.9163958898798228
 20
223.1365559867520858
 30
0.0
 40
0.6206845148257473
 50
62.6168398932108019
 51
70.5655670564089945
  0
LINE
  5
1B023
  8
0
 10
3454.201872796751104
 20
223.6876931771031991
 30
0.0
 11
3454.2026796844302226
 21
223.6888455321723086
 31
0.0
  0
ARC
  5
1B024
  8
0
 10
3453.9156245355520696
 20
223.1347742414043012
 30
0.0
 40
0.6240157479986419
 50
47.3879249230798933
 51
62.6120750756487112
  0
LINE
  5
1B025
  8
0
 10
3454.338102595725104
 20
223.5940213888349035
 30
0.0
 11
3454.3372957080518972
 21
223.592869033803197
 31
0.0
  0
ARC
  5
1B026
  8
0
 10
3453.9156245395661244
 20
223.1347742455521939
 30
0.0
 40
0.6226214013284945
 50
38.4468163233886031
 51
47.3707765817330824
  0
ARC
  5
1B027
  8
0
 10
3454.4007905258508799
 20
223.4744911251032136
 30
0.0
 40
0.0474854672000137
 50
342.9721711189149005
 51
87.0278288810813763
  0
ARC
  5
1B028
  8
0
 10
3453.9156245385570401
 20
223.1347742423822922
 30
0.0
 40
0.6226214039780461
 50
9.0279551995055591
 51
31.553183676607901
  0
ARC
  5
1B029
  8
0
 10
3453.989049716431964
 20
223.1464403745158052
 30
0.0
 40
0.5482752178951062
 50
4.8085557176857341
 51
9.0279551995055591
  0
LINE
  5
1B02A
  8
0
 10
3454.5353951990518908
 20
223.1924004460954052
 30
0.0
 11
3454.5352097297159162
 21
223.1872295211225889
 31
0.0
  0
LINE
  5
1B02B
  8
0
 10
3454.5352097297159162
 20
223.18722952112239
 30
0.0
 11
3454.5334839617648868
 21
223.1871896350031932
 31
0.0
  0
ARC
  5
1B02C
  8
0
 10
3454.2159791236958881
 20
223.1407663805221944
 30
0.0
 40
0.3272499597886928
 50
4.7210353312921933
 51
15.6936131320195607
  0
ARC
  5
1B02D
  8
0
 10
3454.5079028478508008
 20
223.1347742414031927
 30
0.0
 40
0.0474854672000109
 50
316.1004313700071862
 51
43.8995685736715302
  0
ARC
  5
1B02E
  8
0
 10
3454.194887837611077
 20
223.1305239178963973
 30
0.0
 40
0.3484130472086045
 50
344.3902766188026021
 51
355.2789646123944181
  0
LINE
  5
1B02F
  8
0
 10
3454.533455969651186
 20
223.0823588477032899
 30
0.0
 11
3454.53520813374098
 21
223.0823588477032899
 31
0.0
  0
LINE
  5
1B030
  8
0
 10
3454.53520813374098
 20
223.0823588477032899
 30
0.0
 11
3454.535395199055074
 21
223.0771480366032904
 31
0.0
  0
LINE
  5
1B031
  8
0
 10
3454.5353951990541646
 20
223.0771480366377943
 30
0.0
 11
3454.5343747577558133
 21
223.0654519570979062
 31
0.0
  0
LINE
  5
1B032
  8
0
 10
3454.5343747577558133
 20
223.0654519570979062
 30
0.0
 11
3454.5304503370921339
 21
223.0367717957518039
 31
0.0
  0
ARC
  5
1B033
  8
0
 10
3454.1907396865499322
 20
223.0832557565738057
 30
0.0
 40
0.3428761944289076
 50
346.8479126025084724
 51
352.208378832022504
  0
ARC
  5
1B034
  8
0
 10
3453.7512687996841123
 20
223.1859450813689989
 30
0.0
 40
0.7941851327731362
 50
338.5649714455930166
 51
346.8479126025101209
  0
ARC
  5
1B035
  8
0
 10
3453.9156245355520696
 20
223.1347742414031927
 30
0.0
 40
0.6226214070999303
 50
328.4468163893924952
 51
337.4208918821412908
  0
ARC
  5
1B036
  8
0
 10
3454.4007905258190476
 20
222.7950573576607951
 30
0.0
 40
0.0474854672591077
 50
272.9721711301634741
 51
17.0278288581522084
  0
ARC
  5
1B037
  8
0
 10
3453.9156245355520696
 20
223.1347742414027948
 30
0.0
 40
0.6226214070992646
 50
312.6292234261961198
 51
321.5531835989170872
  0
LINE
  5
1B038
  8
0
 10
3454.3372957080259766
 20
222.6766794489390975
 30
0.0
 11
3454.3381025957510246
 21
222.675527093903213
 31
0.0
  0
ARC
  5
1B039
  8
0
 10
3453.915624529732213
 20
223.1347742499166031
 30
0.0
 40
0.6240157582734246
 50
297.3879250396470866
 51
312.6120749384336932
  0
LINE
  5
1B03A
  8
0
 10
3454.2026796844511409
 20
222.5807029506032961
 30
0.0
 11
3454.2018727967520135
 21
222.5818553056284941
 31
0.0
  0
ARC
  5
1B03B
  8
0
 10
3453.9156245353610757
 20
223.1347742418047915
 30
0.0
 40
0.6226214075441937
 50
289.446816393769609
 51
297.3707765670816912
  0
ARC
  5
1B03C
  8
0
 10
3454.0788785634508713
 20
222.5654397864032887
 30
0.0
 40
0.0474854672000002
 50
233.9721711190977942
 51
338.0278288810105778
  0
ARC
  5
1B03D
  8
0
 10
3453.9156245336530446
 20
223.1347742527289881
 30
0.0
 40
0.6226214185726537
 50
271.4468165406212279
 51
282.5531835500913758
  0
ARC
  5
1B03E
  8
0
 10
3453.8949543205508235
 20
222.5428567289033026
 30
0.0
 40
0.0474854671999989
 50
215.9721711191085092
 51
320.0278288809000173
  0
ARC
  5
1B03F
  8
0
 10
3453.9156245466260771
 20
223.1347743143849982
 30
0.0
 40
0.6226214809046289
 50
260.3106588476313732
 51
264.553183232894412
  0
ARC
  5
1B040
  8
0
 10
3453.8141563981939726
 20
222.5404526182877021
 30
0.0
 40
0.0197002074798602
 50
230.4216987559254903
 51
260.2896449397953802
  0
ARC
  5
1B041
  8
0
 10
3453.9154806440669745
 20
223.132771343501787
 30
0.0
 40
0.6475415004898517
 50
68.2728274035614788
 51
89.9872677358063982
  0
ARC
  5
1B042
  8
0
 10
3453.9168838983619025
 20
223.1362927037853012
 30
0.0
 40
0.6437508408030093
 50
25.2807849880590716
 51
68.2728274035614788
  0
ARC
  5
1B043
  8
0
 10
3453.9126243546470505
 20
223.1342809741107089
 30
0.0
 40
0.6484615487055323
 50
353.3923797225663748
 51
25.2807849880590716
  0
ARC
  5
1B044
  8
0
 10
3453.9114359178897757
 20
223.1344186411143937
 30
0.0
 40
0.6496579324775621
 50
315.8981705111922906
 51
353.3923797225663748
  0
ARC
  5
1B045
  8
0
 10
3453.9292969201051164
 20
223.1171090199055982
 30
0.0
 40
0.6247854901656851
 50
298.8310079555151901
 51
315.8981705111922906
  0
ARC
  5
1B046
  8
0
 10
3453.9172757741739588
 20
223.1389473992479964
 30
0.0
 40
0.6497138427349962
 50
269.8543838763764029
 51
298.8310079555151901
  0
ARC
  5
1B047
  8
0
 10
3453.9156245386398041
 20
223.1347742388028905
 30
0.0
 40
0.9448818897999942
 50
270.0
 51
90.0000532826354487
  0
ARC
  5
1B048
  8
0
 10
3453.9156245386398041
 20
223.1347742388028905
 30
0.0
 40
0.9448818898000048
 50
90.0000532826354487
 51
270.0
  0
ARC
  5
1B049
  8
0
 10
3413.3925286467469959
 20
220.6068852895533041
 30
0.0
 40
34.9551134530739702
 50
347.642222993895075
 51
352.0496678222785931
  0
ARC
  5
1B04A
  8
0
 10
3408.1045323358830501
 20
220.8414558565455081
 30
0.0
 40
40.2278240224120083
 50
352.7605328941701828
 51
359.1128482005622118
  0
ARC
  5
1B04B
  8
0
 10
3436.4176463364710798
 20
220.2075841930991942
 30
0.0
 40
11.9098929951258707
 50
0.0530156473196815
 51
7.0773316917087881
  0
LINE
  5
1B04C
  8
0
 10
3447.5240106204910262
 20
225.9820509446028893
 30
0.0
 11
3460.3072337950911788
 21
225.9820509446028893
 31
0.0
  0
ARC
  5
1B04D
  8
0
 10
3447.5350072467581413
 20
225.7181971144937052
 30
0.0
 40
0.2640828836797522
 50
92.3865329340478638
 51
173.2381118278306928
  0
ARC
  5
1B04E
  8
0
 10
3332.7485100409949155
 20
196.5001404740505109
 30
0.0
 40
118.200325480884004
 50
12.2973145573778808
 51
14.3269076788060907
  0
ARC
  5
1B04F
  8
0
 10
3453.92065110343583
 20
231.9082222120551933
 30
0.0
 40
12.5916127430040703
 50
264.0854087399723085
 51
269.9771235577538846
  0
ARC
  5
1B050
  8
0
 10
3457.4294095557711444
 20
265.7773470230824273
 30
0.0
 40
46.6420018941101375
 50
261.8154897550112992
 51
264.0853998969287204
  0
ARC
  5
1B051
  8
0
 10
3451.4245209079499546
 20
224.0263550652067011
 30
0.0
 40
4.4613900310830896
 50
243.0810764924945886
 51
261.8154897550112992
  0
ARC
  5
1B052
  8
0
 10
3450.2797558360562107
 20
221.7717457109517909
 30
0.0
 40
1.93280338828775
 50
220.8545027600007131
 51
243.0810764924945886
  0
ARC
  5
1B053
  8
0
 10
3451.3114245757351455
 20
222.6639722636251122
 30
0.0
 40
3.2967713533543499
 50
215.2573925563918067
 51
220.8545027600007131
  0
ARC
  5
1B054
  8
0
 10
3450.1969068922221595
 20
221.8760933964192077
 30
0.0
 40
1.931889389134483
 50
197.7191552694035011
 51
215.2573925563918067
  0
ARC
  5
1B055
  8
0
 10
3478.7120607175279474
 20
230.9869451655335979
 30
0.0
 40
31.8671798944828808
 50
197.0010606121711021
 51
197.7191552694035011
  0
ARC
  5
1B056
  8
0
 10
3453.9157438678939798
 20
231.7256818300205907
 30
0.0
 40
12.0302754795136302
 50
269.6510880959260135
 51
269.9994274808569799
  0
ARC
  5
1B057
  8
0
 10
3453.9216168018838289
 20
232.6900804862470977
 30
0.0
 40
12.9946920178853897
 50
265.7171164251228106
 51
269.6510880959260135
  0
ARC
  5
1B058
  8
0
 10
3454.9544186780708515
 20
246.4810066713646108
 30
0.0
 40
26.8242373740717603
 50
262.2549631544109161
 51
265.7171164251228106
  0
ARC
  5
1B059
  8
0
 10
3452.0224139774518335
 20
226.0048857643687086
 30
0.0
 40
6.1415071365323239
 50
254.8360920368438087
 51
263.6152171254674954
  0
ARC
  5
1B05A
  8
0
 10
3451.2050457841160096
 20
222.8946569598888914
 30
0.0
 40
2.9258677630387679
 50
237.9458300386197038
 51
254.353008281756388
  0
ARC
  5
1B05B
  8
0
 10
3451.0940472297320412
 20
222.6793536486121923
 30
0.0
 40
2.684554827391723
 50
224.0126316286211079
 51
237.5149267989405928
  0
ARC
  5
1B05C
  8
0
 10
3451.7598733446370716
 20
223.2692505973494121
 30
0.0
 40
3.57348458929863
 50
205.6999016341667925
 51
223.3972304438869116
  0
ARC
  5
1B05D
  8
0
 10
3456.654353545478898
 20
225.4835148281514989
 30
0.0
 40
8.944930186421681
 50
194.2820534284080907
 51
204.8844423680095019
  0
ARC
  5
1B05E
  8
0
 10
3469.0732473837288126
 20
228.8891854392001903
 30
0.0
 40
21.8214415292029003
 50
191.347954820120691
 51
194.9036306134597965
  0
ARC
  5
1B05F
  8
0
 10
3468.2432260481541562
 20
228.7887430996277089
 30
0.0
 40
20.9879832943694318
 50
188.4437619621444071
 51
191.5249692141422031
  0
ARC
  5
1B060
  8
0
 10
3447.7106862927757902
 20
225.7438628609289992
 30
0.0
 40
0.2309214972025771
 50
149.0715779384422888
 51
189.2114303583419996
  0
ARC
  5
1B061
  8
0
 10
3447.7269982516381788
 20
225.7340893616515132
 30
0.0
 40
0.2499373140418919
 50
111.9908929006111009
 51
149.0715779384422888
  0
ARC
  5
1B062
  8
0
 10
3447.7168999602658914
 20
225.7590949524889936
 30
0.0
 40
0.2229696470722196
 50
90.634106437072532
 51
111.9908929006111009
  0
ARC
  5
1B063
  8
0
 10
3494.4387186731350994
 20
220.6068852895533041
 30
0.0
 40
34.9551134530739702
 50
187.9503321777214069
 51
192.4186919249636958
  0
ARC
  5
1B064
  8
0
 10
3499.7267149839990452
 20
220.8414558565455081
 30
0.0
 40
40.2278240224120083
 50
180.8871517994377029
 51
187.2394671058281972
  0
ARC
  5
1B065
  8
0
 10
3471.4136009834091965
 20
220.2075841930991942
 30
0.0
 40
11.9098929951258707
 50
172.9226683082912075
 51
179.946984352680289
  0
ARC
  5
1B066
  8
0
 10
3460.299224609364046
 20
225.7221811595155998
 30
0.0
 40
0.2599931773284409
 50
4.3083510771013014
 51
88.2347031007673905
  0
ARC
  5
1B067
  8
0
 10
3569.5755981326719848
 20
197.7512105122482069
 30
0.0
 40
112.5530967810403951
 50
165.6001653148640003
 51
167.7278476268110126
  0
ARC
  5
1B068
  8
0
 10
3453.910596212890141
 20
231.9082222806125912
 30
0.0
 40
12.5916128115628592
 50
270.0228764582960252
 51
275.914591243970392
  0
ARC
  5
1B069
  8
0
 10
3450.4018377641100415
 20
265.7773470230824273
 30
0.0
 40
46.6420018941101375
 50
275.9146001030712796
 51
278.1845102449885871
  0
ARC
  5
1B06A
  8
0
 10
3456.4067264119321408
 20
224.0263550652067011
 30
0.0
 40
4.4613900310830896
 50
278.1845102449885871
 51
296.918923507505383
  0
ARC
  5
1B06B
  8
0
 10
3457.5514914838258846
 20
221.7717457109517909
 30
0.0
 40
1.93280338828775
 50
296.918923507505383
 51
319.1454972399993153
  0
ARC
  5
1B06C
  8
0
 10
3456.5198227441460403
 20
222.6639722636251122
 30
0.0
 40
3.2967713533543499
 50
319.1454972399993153
 51
324.7426074436082217
  0
ARC
  5
1B06D
  8
0
 10
3457.6343404276590263
 20
221.8760933964192077
 30
0.0
 40
1.931889389134483
 50
324.7426074436082217
 51
342.2808447305964137
  0
ARC
  5
1B06E
  8
0
 10
3429.1191866023527837
 20
230.9869451655335979
 30
0.0
 40
31.8671798944828808
 50
342.2808447305964137
 51
342.9989393878288979
  0
ARC
  5
1B06F
  8
0
 10
3453.9102699923078035
 20
232.6789879316704912
 30
0.0
 40
12.9835826843310507
 50
270.0236254061456975
 51
274.2837251781418217
  0
ARC
  5
1B070
  8
0
 10
3452.8768286418107891
 20
246.4810066713646108
 30
0.0
 40
26.8242373740717603
 50
274.2828835748771894
 51
277.7450368455890839
  0
ARC
  5
1B071
  8
0
 10
3455.8088333424288976
 20
226.0048857643687086
 30
0.0
 40
6.1415071365323239
 50
276.3847828745325046
 51
285.163907963156305
  0
ARC
  5
1B072
  8
0
 10
3456.6262015357651762
 20
222.8946569598888914
 30
0.0
 40
2.9258677630387679
 50
285.6469917182434983
 51
302.0541699613802962
  0
ARC
  5
1B073
  8
0
 10
3456.7372000901500542
 20
222.6793536486121923
 30
0.0
 40
2.684554827391723
 50
302.4850732010593788
 51
315.9873683713788068
  0
ARC
  5
1B074
  8
0
 10
3456.0713739752441143
 20
223.2692505973494121
 30
0.0
 40
3.57348458929863
 50
316.6027695561131168
 51
334.3000983658332075
  0
ARC
  5
1B075
  8
0
 10
3451.1768937744018331
 20
225.4835148281514989
 30
0.0
 40
8.944930186421681
 50
335.1155576319904981
 51
345.7179465715902893
  0
ARC
  5
1B076
  8
0
 10
3438.757999936152828
 20
228.8891854392001903
 30
0.0
 40
21.8214415292029003
 50
345.0963693865401751
 51
348.6520451798792806
  0
ARC
  5
1B077
  8
0
 10
3439.5880290423679071
 20
228.7886874828886903
 30
0.0
 40
20.9879645685251113
 50
348.475175316383627
 51
351.5563839430182043
  0
ARC
  5
1B078
  8
0
 10
3460.12055812280596
 20
225.7438628609289992
 30
0.0
 40
0.2309214972025771
 50
350.7885696416581141
 51
30.9284220615576508
  0
ARC
  5
1B079
  8
0
 10
3460.1042461639431167
 20
225.7340893616515132
 30
0.0
 40
0.2499373140418919
 50
30.9284220615576508
 51
68.0091070993889133
  0
ARC
  5
1B07A
  8
0
 10
3460.1143444553158588
 20
225.7590949524889936
 30
0.0
 40
0.2229696470722196
 50
68.0091070993889133
 51
89.365893562927468
  0
ENDSEC
  0
EOF
