  0
SECTION
  2
HEADER
  9
$ACADVER
  1
AC1009
  9
$INSBASE
 10
409.3449706155154217
 20
36.0365710892819493
 30
0.0
  9
$EXTMIN
 10
400.7361135915812724
 20
36.0296750949480469
 30
0.0
  9
$EXTMAX
 10
417.6114097270154275
 20
67.0968710892819473
 30
0.0
  9
$LIMMIN
 10
0.0
 20
0.0
  9
$LIMMAX
 10
11.6929133858000007
 20
8.2677165353999982
  9
$ORTHOMODE
 70
     1
  9
$REGENMODE
 70
     1
  9
$FILLMODE
 70
     1
  9
$QTEXTMODE
 70
     0
  9
$MIRRTEXT
 70
     0
  9
$DRAGMODE
 70
     2
  9
$LTSCALE
 40
0.6431102362
  9
$OSMODE
 70
  4095
  9
$ATTMODE
 70
     1
  9
$TEXTSIZE
 40
0.2
  9
$TRACEWID
 40
0.05
  9
$TEXTSTYLE
  7
STANDARD
  9
$CLAYER
  8
0
  9
$CELTYPE
  6
BYLAYER
  9
$CECOLOR
 62
   256
  9
$DIMSCALE
 40
1.0
  9
$DIMASZ
 40
0.1875
  9
$DIMEXO
 40
0.0625
  9
$DIMDLI
 40
0.4443307087
  9
$DIMRND
 40
0.0
  9
$DIMDLE
 40
0.0
  9
$DIMEXE
 40
0.125
  9
$DIMTP
 40
0.01
  9
$DIMTM
 40
0.01
  9
$DIMTXT
 40
1.0
  9
$DIMCEN
 40
0.1052362205
  9
$DIMTSZ
 40
0.0
  9
$DIMTOL
 70
     1
  9
$DIMLIM
 70
     0
  9
$DIMTIH
 70
     0
  9
$DIMTOH
 70
     1
  9
$DIMSE1
 70
     0
  9
$DIMSE2
 70
     0
  9
$DIMTAD
 70
     0
  9
$DIMZIN
 70
     0
  9
$DIMBLK
  1

  9
$DIMASO
 70
     1
  9
$DIMSHO
 70
     1
  9
$DIMPOST
  1
\X
  9
$DIMAPOST
  1

  9
$DIMALT
 70
     1
  9
$DIMALTD
 70
     2
  9
$DIMALTF
 40
25.3999999999999986
  9
$DIMLFAC
 40
1.0
  9
$DIMTOFL
 70
     0
  9
$DIMTVP
 40
0.0
  9
$DIMTIX
 70
     0
  9
$DIMSOXD
 70
     0
  9
$DIMSAH
 70
     0
  9
$DIMBLK1
  1

  9
$DIMBLK2
  1

  9
$DIMSTYLE
  2
STANDARD
  9
$DIMCLRD
 70
     0
  9
$DIMCLRE
 70
     0
  9
$DIMCLRT
 70
     0
  9
$DIMTFAC
 40
1.0
  9
$DIMGAP
 40
0.09
  9
$LUNITS
 70
     2
  9
$LUPREC
 70
     4
  9
$SKETCHINC
 40
0.1
  9
$FILLETRAD
 40
0.0
  9
$AUNITS
 70
     0
  9
$AUPREC
 70
     0
  9
$MENU
  1
.
  9
$ELEVATION
 40
0.0
  9
$PELEVATION
 40
0.0
  9
$THICKNESS
 40
0.0
  9
$LIMCHECK
 70
     0
  9
$BLIPMODE
 70
     0
  9
$CHAMFERA
 40
0.0
  9
$CHAMFERB
 40
0.0
  9
$SKPOLY
 70
     0
  9
$TDCREATE
 40
2458172.5207638889551163
  9
$TDUPDATE
 40
2459831.7058217590674758
  9
$TDINDWG
 40
0.1701130556
  9
$TDUSRTIMER
 40
0.1701130556
  9
$USRTIMER
 70
     1
  9
$ANGBASE
 50
0.0
  9
$ANGDIR
 70
     0
  9
$PDMODE
 70
     0
  9
$PDSIZE
 40
0.3125
  9
$PLINEWID
 40
0.0
  9
$COORDS
 70
     1
  9
$SPLFRAME
 70
     0
  9
$SPLINETYPE
 70
     6
  9
$SPLINESEGS
 70
     8
  9
$ATTDIA
 70
     1
  9
$ATTREQ
 70
     1
  9
$HANDLING
 70
     1
  9
$HANDSEED
  5
29B2
  9
$SURFTAB1
 70
     6
  9
$SURFTAB2
 70
     6
  9
$SURFTYPE
 70
     6
  9
$SURFU
 70
     6
  9
$SURFV
 70
     6
  9
$UCSNAME
  2

  9
$UCSORG
 10
0.0
 20
0.0
 30
0.0
  9
$UCSXDIR
 10
1.0
 20
0.0
 30
0.0
  9
$UCSYDIR
 10
0.0
 20
1.0
 30
0.0
  9
$PUCSNAME
  2

  9
$PUCSORG
 10
0.0
 20
0.0
 30
0.0
  9
$PUCSXDIR
 10
1.0
 20
0.0
 30
0.0
  9
$PUCSYDIR
 10
0.0
 20
1.0
 30
0.0
  9
$USERI1
 70
     0
  9
$USERI2
 70
     0
  9
$USERI3
 70
     0
  9
$USERI4
 70
     0
  9
$USERI5
 70
     0
  9
$USERR1
 40
0.0
  9
$USERR2
 40
0.0
  9
$USERR3
 40
0.0
  9
$USERR4
 40
0.0
  9
$USERR5
 40
0.0
  9
$WORLDVIEW
 70
     1
  9
$SHADEDGE
 70
     3
  9
$SHADEDIF
 70
    70
  9
$TILEMODE
 70
     1
  9
$MAXACTVP
 70
    64
  9
$PLIMCHECK
 70
     0
  9
$PEXTMIN
 10
1.0000000000000000E+20
 20
1.0000000000000000E+20
 30
1.0000000000000000E+20
  9
$PEXTMAX
 10
-1.0000000000000000E+20
 20
-1.0000000000000000E+20
 30
-1.0000000000000000E+20
  9
$PLIMMIN
 10
0.0
 20
0.0
  9
$PLIMMAX
 10
12.0
 20
9.0
  9
$UNITMODE
 70
     0
  9
$VISRETAIN
 70
     1
  9
$PLINEGEN
 70
     0
  9
$PSLTSCALE
 70
     1
  0
ENDSEC
  0
SECTION
  2
TABLES
  0
TABLE
  2
VPORT
 70
     1
  0
VPORT
  2
*ACTIVE
 70
     0
 10
0.0
 20
0.0
 11
1.0
 21
1.0
 12
26.4300149671560689
 22
-14.3294863185350891
 13
0.0
 23
0.0
 14
1.0
 24
1.0
 15
0.0
 25
0.0
 16
0.0
 26
0.0
 36
102.6796544818360957
 17
409.1737525212050173
 27
51.5667210892819412
 37
0.0
 40
121.5784916133639939
 41
2.5251322751322749
 42
50.0
 43
0.0
 44
0.0
 50
0.0
 51
0.0
 71
     0
 72
   100
 73
     1
 74
     1
 75
     0
 76
     0
 77
     0
 78
     0
  0
ENDTAB
  0
TABLE
  2
LTYPE
 70
     2
  0
LTYPE
  2
CONTINUOUS
 70
     0
  3
Solid line
 72
    65
 73
     0
 40
0.0
  0
LTYPE
  2
PHANTOM2
 70
     0
  3
___ _ _ ___ _ _ ___ _ _ ___ _ _
 72
    65
 73
     6
 40
1.25
 49
0.625
 49
-0.125
 49
0.125
 49
-0.125
 49
0.125
 49
-0.125
  0
ENDTAB
  0
TABLE
  2
LAYER
 70
     2
  0
LAYER
  2
0
 70
     0
 62
   255
  6
CONTINUOUS
  0
LAYER
  2
DEFPOINTS
 70
     0
 62
     7
  6
CONTINUOUS
  0
ENDTAB
  0
TABLE
  2
STYLE
 70
     1
  0
STYLE
  2
STANDARD
 70
     0
 40
0.0
 41
0.8
 50
0.0
 71
     0
 42
0.2
  3
txt
  4

  0
ENDTAB
  0
TABLE
  2
VIEW
 70
     0
  0
ENDTAB
  0
TABLE
  2
UCS
 70
     0
  0
ENDTAB
  0
TABLE
  2
APPID
 70
    10
  0
APPID
  2
ACAD
 70
     0
  0
APPID
  2
ACAD_MLEADERVER
 70
     0
  0
APPID
  2
ACAD_EXEMPT_FROM_CAD_STANDARDS
 70
     0
  0
APPID
  2
ACAD_DSTYLE_DIMJAG
 70
     0
  0
APPID
  2
ACAD_DSTYLE_DIMTALN
 70
     0
  0
APPID
  2
ACAD_NAV_VCDISPLAY
 70
     0
  0
APPID
  2
ACAECLAYERSTANDARD
 70
     0
  0
APPID
  2
ACCMTRANSPARENCY
 70
     0
  0
APPID
  2
DCO15
 70
     0
  0
APPID
  2
ACDBATTR
 70
     0
  0
ENDTAB
  0
TABLE
  2
DIMSTYLE
 70
     1
  0
DIMSTYLE
  2
STANDARD
 70
     0
  3

  4

  5

  6

  7

 40
1.0
 41
0.1875
 42
0.0625
 43
0.38
 44
0.125
 45
0.0
 46
0.0
 47
0.01
 48
0.01
140
0.15625
141
0.09
142
0.0
143
25.3999999999999986
144
1.0
145
0.0
146
1.0
147
0.09
 71
     1
 72
     0
 73
     1
 74
     1
 75
     0
 76
     0
 77
     0
 78
     4
170
     0
171
     2
172
     0
173
     0
174
     0
175
     0
176
     0
177
     0
178
     0
  0
ENDTAB
  0
ENDSEC
  0
SECTION
  2
BLOCKS
  0
BLOCK
  8
0
  2
$MODEL_SPACE
 70
     0
 10
0.0
 20
0.0
 30
0.0
  3
$MODEL_SPACE
  1

  0
ENDBLK
  5
21
  8
0
  0
BLOCK
 67
     1
  8
0
  2
$PAPER_SPACE
 70
     0
 10
0.0
 20
0.0
 30
0.0
  3
$PAPER_SPACE
  1

  0
ENDBLK
  5
1D
 67
     1
  8
0
  0
ENDSEC
  0
SECTION
  2
ENTITIES
  0
ATTDEF
  5
829
  8
DEFPOINTS
 10
409.3397789136503775
 20
36.0346750949480494
 30
0.0
 40
0.001
  1
K-3950M
  3

  2
MODELNUMBER
 70
     0
1001
ACDBATTR
1070
     0
1070
     1
  0
ATTDEF
  5
82A
  8
DEFPOINTS
 10
409.3397789136503775
 20
36.0330084282813914
 30
0.0
 40
0.001
  1
TRESHAM
  3

  2
TRADENAME
 70
     0
1001
ACDBATTR
1070
     0
1070
     1
  0
ATTDEF
  5
82B
  8
DEFPOINTS
 10
409.3397789136503775
 20
36.0313417616147191
 30
0.0
 40
0.001
  1
TOILET
  3

  2
PRODUCT
 70
     0
1001
ACDBATTR
1070
     0
1070
     1
  0
LINE
  5
25E1
  8
0
 10
403.5287528328653934
 20
52.6365715222136075
 30
0.0
 11
403.5287528328653934
 21
52.5365710658113585
 31
0.0
  0
LINE
  5
25E2
  8
0
 10
404.7861858178887928
 20
52.6769817859633491
 30
0.0
 11
404.7734686992653792
 21
52.8223391168819418
 31
0.0
  0
LINE
  5
25E3
  8
0
 10
404.9066885854654743
 20
52.5365710892819422
 30
0.0
 11
404.9059903828654114
 21
52.5765710892819413
 31
0.0
  0
LINE
  5
25E4
  8
0
 10
406.0763418235653717
 20
52.5365710892819422
 30
0.0
 11
406.0770400261653776
 21
52.5765710892819413
 31
0.0
  0
LINE
  5
25E5
  8
0
 10
404.895765974892015
 20
52.5765710892871425
 30
0.0
 11
406.0770400261653776
 21
52.5765710892819413
 31
0.0
  0
LINE
  5
25E6
  8
0
 10
402.9848018896108783
 20
52.6365716075870296
 30
0.0
 11
404.3632146378881203
 21
52.6365713912443383
 31
0.0
  0
LINE
  5
25E7
  8
0
 10
402.796802173550418
 20
52.8465710892819374
 30
0.0
 11
402.5003930369654199
 21
52.8465710892819374
 31
0.0
  0
ARC
  5
25E8
  8
0
 10
402.5003914860653822
 20
53.0965710892819374
 30
0.0
 40
0.25
 50
233.1299870131782086
 51
270.0003554430962822
  0
ARC
  5
25E9
  8
0
 10
402.5003914860653822
 20
53.0965710892819374
 30
0.0
 40
0.25
 50
181.0591311814999926
 51
200.2687364012624016
  0
ARC
  5
25EA
  8
0
 10
404.8957670446653765
 20
52.6865710892819408
 30
0.0
 40
0.11
 50
185.0011354530998915
 51
269.9994427864002091
  0
LINE
  5
25EB
  8
0
 10
402.241028674315487
 20
50.5639540128819291
 30
0.0
 11
416.4489125595076757
 21
50.5639540144819435
 31
0.0
  0
LINE
  5
25EC
  8
0
 10
404.5249011491154079
 20
36.0365710892819493
 30
0.0
 11
414.1650400819154925
 21
36.0365710892819493
 31
0.0
  0
LINE
  5
25ED
  8
0
 10
404.7454891399419807
 20
37.7848349571819426
 30
0.0
 11
413.9444520910889196
 21
37.7848349571819497
 31
0.0
  0
LINE
  5
25EE
  8
0
 10
413.4781552412438828
 20
38.6165710892819405
 30
0.0
 11
405.2117859897870744
 21
38.6165710892819476
 31
0.0
  0
LINE
  5
25EF
  8
0
 10
404.5249011491154079
 20
36.0365710892819493
 30
0.0
 11
404.5249011491154079
 21
37.5365710892819493
 31
0.0
  0
LINE
  5
25F0
  8
0
 10
404.9759276529155159
 20
38.0430293797819417
 30
0.0
 11
404.9759276529155159
 21
38.3665710892819476
 31
0.0
  0
ARC
  5
25F1
  8
0
 10
404.7749006700233849
 20
37.5365715439438077
 30
0.0
 40
0.2499995209083083
 50
96.7562858904686749
 51
180.0001042010225945
  0
LINE
  5
25F2
  8
0
 10
405.423848483115421
 20
38.8571435388819424
 30
0.0
 11
405.6661944818484926
 21
47.8072111985741373
 31
0.0
  0
ARC
  5
25F3
  8
0
 10
404.7161593511419255
 20
38.0429421862515369
 30
0.0
 40
0.259768316407216
 50
276.4829469909900013
 51
0.0192318349506249
  0
ARC
  5
25F4
  8
0
 10
405.2266666249407194
 20
38.3662738917025834
 30
0.0
 40
0.2507391481573302
 50
93.4023361626810953
 51
179.9320881039444942
  0
ARC
  5
25F5
  8
0
 10
405.1739203616040186
 20
38.8637011406007389
 30
0.0
 40
0.2500141357254064
 50
278.711194437325787
 51
358.4970209999042936
  0
ARC
  5
25F6
  8
0
 10
405.448443056244173
 20
46.4380625819117228
 30
0.0
 40
0.1901179403941179
 50
16.6438426584637611
 51
70.3752971097939053
  0
ARC
  5
25F7
  8
0
 10
407.407961432876391
 20
51.4713863547822683
 30
0.0
 40
5.2112651768249743
 50
195.4106279186212873
 51
248.6685204779176956
  0
LINE
  5
25F8
  8
0
 10
401.0983083291121147
 20
66.850622212081106
 30
0.0
 11
401.0785497802020814
 21
65.7187009141819374
 31
0.0
  0
LINE
  5
25F9
  8
0
 10
401.7730391360021258
 20
65.596606628981931
 30
0.0
 11
401.7837052138020795
 21
64.9921955536819382
 31
0.0
  0
LINE
  5
25FA
  8
0
 10
402.2549646807653971
 20
52.9715713912443391
 30
0.0
 11
402.2549647148654799
 21
52.9565710944819301
 31
0.0
  0
LINE
  5
25FB
  8
0
 10
402.5362219385384037
 20
53.9974766022443404
 30
0.0
 11
402.5244126124385957
 21
53.9503184333443286
 31
0.0
  0
LINE
  5
25FC
  8
0
 10
402.0383181105020185
 20
64.5655383212819345
 30
0.0
 11
402.2504341982602796
 21
53.0919500208859603
 31
0.0
  0
LINE
  5
25FD
  8
0
 10
402.5654902278384952
 20
53.7529189385443402
 30
0.0
 11
402.5628808419385223
 21
53.8940631902443386
 31
0.0
  0
LINE
  5
25FE
  8
0
 10
402.5244126124385957
 20
53.9503184333443286
 30
0.0
 11
402.5243801867385969
 21
53.9388935110443413
 31
0.0
  0
LINE
  5
25FF
  8
0
 10
404.6291666993583931
 20
54.7090747751344608
 30
0.0
 11
404.6291661451019763
 21
64.3817970316819412
 31
0.0
  0
LINE
  5
2600
  8
0
 10
406.2080415592384952
 20
52.6769842595443407
 30
0.0
 11
406.2293644867388025
 21
52.8965713912443292
 31
0.0
  0
LINE
  5
2601
  8
0
 10
416.2576466902140737
 20
52.5365710658113585
 30
0.0
 11
402.4322945407020029
 21
52.5365710658113585
 31
0.0
  0
LINE
  5
2602
  8
0
 10
402.3263086988384885
 20
52.8965713912443292
 30
0.0
 11
409.3449706155154217
 21
52.8965713912443292
 31
0.0
  0
LINE
  5
2603
  8
0
 10
404.2516421096456725
 20
53.7165713912195883
 30
0.0
 11
404.9128098222385006
 21
53.7165713912443366
 31
0.0
  0
LINE
  5
2604
  8
0
 10
405.2943243460020994
 20
64.7466439222819474
 30
0.0
 11
409.3449706155154217
 21
64.7466439222819474
 31
0.0
  0
LINE
  5
2605
  8
0
 10
402.2882815630019877
 20
64.7788052529819254
 30
0.0
 11
404.4069770827304069
 21
64.7787867477101713
 31
0.0
  0
LINE
  5
2606
  8
0
 10
401.1985315037020996
 20
65.596606628981931
 30
0.0
 11
417.4914097081447721
 21
65.5966066289819452
 31
0.0
  0
LINE
  5
2607
  8
0
 10
401.3482147527021198
 20
67.0968710892819331
 30
0.0
 11
417.3417264783362839
 21
67.0968710892819331
 31
0.0
  0
ARC
  5
2608
  8
0
 10
409.3551507831385834
 20
-119.579964417155594
 30
0.0
 40
174.3544287617999942
 50
90.003345373239199
 51
91.0874797875965214
  0
ARC
  5
2609
  8
0
 10
406.0835863447686052
 20
52.7036911215177923
 30
0.0
 40
0.1272884789872868
 50
267.0520351099904133
 51
347.8885673791800741
  0
ARC
  5
260A
  8
0
 10
404.3630196551479798
 20
52.7365482610354235
 30
0.0
 40
0.0999770599262244
 50
270.1117425855417764
 51
325.3872502747449857
  0
ARC
  5
260B
  8
0
 10
402.9848024406398963
 20
52.7365810762420679
 30
0.0
 40
0.1000094686565616
 50
194.8507712966641066
 51
269.9996843135725726
  0
ARC
  5
260C
  8
0
 10
404.2480250155422254
 20
53.7766941659396025
 30
0.0
 40
0.0602314818827109
 50
203.0275903514801996
 51
273.4428672438663739
  0
ARC
  5
260D
  8
0
 10
402.0336661531824802
 20
64.996606582311955
 30
0.0
 40
0.2499998567791508
 50
181.010986319898592
 51
249.5568355746999885
  0
ARC
  5
260E
  8
0
 10
401.7883608226019874
 20
64.5609172614819329
 30
0.0
 40
0.25
 50
1.0591291969997521
 51
60.619254801697231
  0
ARC
  5
260F
  8
0
 10
401.3482526405190924
 20
66.8468990522694355
 30
0.0
 40
0.2499720398838063
 50
90.0086842193193633
 51
179.146587627315597
  0
ARC
  5
2610
  8
0
 10
401.1985315228860145
 20
65.7166066478525295
 30
0.0
 40
0.1200000188705835
 50
179.0000108746708065
 51
269.9999908461514906
  0
ARC
  5
2611
  8
0
 10
402.3503527229751739
 20
50.7547543794984222
 30
0.0
 40
0.2199011767051744
 50
178.8378756030944885
 51
240.1883223835658896
  0
LINE
  5
2612
  8
0
 10
402.1304967779419144
 20
50.7592143066113621
 30
0.0
 11
402.1826117152020856
 21
52.2989565748113634
 31
0.0
  0
ARC
  5
2613
  8
0
 10
402.4323047435449894
 20
52.2865710465949434
 30
0.0
 40
0.2500000194246112
 50
90.002338319193413
 51
177.1602837933614012
  0
ARC
  5
2614
  8
0
 10
402.3164002726198873
 20
52.9572059847710719
 30
0.0
 40
0.0614388382237842
 50
180.5920877170908909
 51
279.2807938463913047
  0
LINE
  5
2615
  8
0
 10
402.2549646807653971
 20
52.9715713912443391
 30
0.0
 11
402.4460027988386059
 21
53.6440275462443523
 31
0.0
  0
ARC
  5
2616
  8
0
 10
405.4819732583708856
 20
82.191249516447769
 30
0.0
 40
17.4456148200719703
 50
266.4672045527785258
 51
269.3837019704620275
  0
ARC
  5
2617
  8
0
 10
401.9899385763467876
 20
64.9238435843815296
 30
0.0
 40
0.1672716511533018
 50
254.8940151382246881
 51
285.1542037062853865
  0
ARC
  5
2618
  8
0
 10
402.3021675725145769
 20
62.5807344106703596
 30
0.0
 40
2.198114703349324
 50
90.3619533730531259
 51
97.0162409963761689
  0
ARC
  5
2619
  8
0
 10
406.4755973617541827
 20
64.3792663963741063
 30
0.0
 40
1.8464329508385731
 50
167.9559534133996976
 51
179.9214730391628905
  0
ARC
  5
261A
  8
0
 10
407.4208893063632217
 20
-32.1292260892877692
 30
0.0
 40
86.8831641466537405
 50
90.9066635919074457
 51
92.5335740785477157
  0
ARC
  5
261B
  8
0
 10
403.6490467877742958
 20
52.5005041103339778
 30
0.0
 40
2.1695962515226341
 50
91.8174842682471848
 51
101.5693108516793046
  0
ARC
  5
261C
  8
0
 10
403.2406992141324054
 20
54.4999642314487076
 30
0.0
 40
0.128867603007109
 50
101.9903767849520051
 51
142.7442064376878079
  0
ARC
  5
261D
  8
0
 10
403.0354881620002061
 20
54.648137581960448
 30
0.0
 40
0.1243279400026995
 50
282.6042791715544809
 51
325.6452228020158941
  0
ARC
  5
261E
  8
0
 10
403.0758411873866862
 20
54.0084760295050899
 30
0.0
 40
0.5184984862664452
 50
91.4613060362412256
 51
144.4081040218131875
  0
ARC
  5
261F
  8
0
 10
403.4149854019923964
 20
53.8446220137193805
 30
0.0
 40
0.8919583790371221
 50
148.5318407154904037
 51
170.1325374890128899
  0
ARC
  5
2620
  8
0
 10
402.5723308345818054
 20
53.9411264261471075
 30
0.0
 40
0.0480026097044852
 50
182.6661632590939917
 51
258.6463577182428253
  0
ARC
  5
2621
  8
0
 10
402.5924883284770885
 20
53.6032907283426709
 30
0.0
 40
0.1520443972208294
 50
100.2280890905442021
 51
164.4590442565157957
  0
ARC
  5
2622
  8
0
 10
404.4002178956952775
 20
27.6412755940970598
 30
0.0
 40
26.176022305973401
 50
90.5835394526094433
 51
94.019266828226705
  0
ARC
  5
2623
  8
0
 10
403.3308665642135793
 20
60.5743441191407967
 30
0.0
 40
6.7242810291616131
 50
263.4418909226109236
 51
269.0805563408284797
  0
ARC
  5
2624
  8
0
 10
405.9715303834894939
 20
142.2401539889874016
 30
0.0
 40
88.4319497132714076
 50
268.2188949677366736
 51
268.7831229537441118
  0
ARC
  5
2625
  8
0
 10
404.0777777010223986
 20
53.7044240910689012
 30
0.0
 40
0.1247201748141764
 50
22.9885267738932697
 51
82.7539922320178221
  0
ARC
  5
2626
  8
0
 10
404.3570961807178037
 20
53.9426140840960429
 30
0.0
 40
0.6112232792781181
 50
340.4460605065282834
 51
348.2147302753422196
  0
ARC
  5
2627
  8
0
 10
404.9020222680696861
 20
53.7470428997720191
 30
0.0
 40
0.0323246679317565
 50
289.4950327003662096
 51
343.8306984339091059
  0
ARC
  5
2628
  8
0
 10
404.9152690553842149
 20
86.2953972712077757
 30
0.0
 40
32.4776469476128185
 50
268.5501280591630007
 51
270.0708588897389859
  0
ARC
  5
2629
  8
0
 10
405.0031955381567741
 20
137.0482165842522875
 30
0.0
 40
83.2304551271560769
 50
269.9671215650711815
 51
271.2816146862127766
  0
ARC
  5
262A
  8
0
 10
408.5880543740516941
 20
-31.1993080362395716
 30
0.0
 40
85.0553498607789038
 50
89.4901122787942143
 51
91.1609329623599365
  0
ARC
  5
262B
  8
0
 10
403.5250266228696887
 20
56.5812372421860275
 30
0.0
 40
2.0402794918532559
 50
259.0688023263439277
 51
269.7840425442698233
  0
ARC
  5
262C
  8
0
 10
407.2788295555432114
 20
164.4653283257173086
 30
0.0
 40
109.9886943749943953
 50
268.0401648426641259
 51
268.9462584638006888
  0
ARC
  5
262D
  8
0
 10
409.7451814940069994
 20
277.8682668025542171
 30
0.0
 40
223.4181354302828026
 50
268.8486969151161929
 51
269.897365509420581
  0
ARC
  5
262E
  8
0
 10
403.4310783863043071
 20
83.9816599928099379
 30
0.0
 40
30.2738841133187186
 50
272.8485169140935795
 51
275.0410028467371149
  0
ARC
  5
262F
  8
0
 10
402.646950093807618
 20
52.6470935368326494
 30
0.0
 40
0.2494933661130319
 50
14.8291828782659802
 51
89.3655605496112315
  0
ARC
  5
2630
  8
0
 10
402.5328340686659772
 20
48.9825037311070872
 30
0.0
 40
4.2174388935454674
 50
57.4271383622157288
 51
68.135538532864885
  0
ARC
  5
2631
  8
0
 10
404.6366023830516951
 20
52.5485156035502072
 30
0.0
 40
0.2319927747526402
 50
131.5539771878592035
 51
145.5476819944667
  0
ARC
  5
2632
  8
0
 10
403.6333268405742842
 20
64.1613256965310654
 30
0.0
 40
10.4630400109284505
 50
264.1423101599106076
 51
273.3878784380124216
  0
ARC
  5
2633
  8
0
 10
406.1521720405293081
 20
-156.9759368454415096
 30
0.0
 40
210.6983154429046863
 50
89.1317401632671249
 51
90.3357015204541938
  0
ARC
  5
2634
  8
0
 10
402.1172344386479267
 20
50.3467744803697315
 30
0.0
 40
0.2499839237365894
 50
1.2619784786641219
 51
60.3164810640419518
  0
ARC
  5
2635
  8
0
 10
406.9897669262305158
 20
50.5129657287828806
 30
0.0
 40
4.6254011367610799
 50
181.9908459561648044
 51
185.2893463833173087
  0
ARC
  5
2636
  8
0
 10
405.6946231264151947
 20
47.021164244432903
 30
0.0
 40
0.7865608698293264
 50
56.7085927475916023
 51
92.0712906677875935
  0
ARC
  5
2637
  8
0
 10
407.3954609549634256
 20
50.4915165284056116
 30
0.0
 40
3.085914311265316
 50
245.7163266382094093
 51
275.9932815117886094
  0
ARC
  5
2638
  8
0
 10
410.1564344394661248
 20
20.5414527733283983
 30
0.0
 40
26.9914179024845104
 50
91.7227868153124462
 51
95.1839405953224116
  0
ARC
  5
2639
  8
0
 10
406.8061118982262201
 20
48.510517828456031
 30
0.0
 40
1.339422238055187
 50
211.6737697630425998
 51
233.3374260476701068
  0
ARC
  5
263A
  8
0
 10
399.9043727964235018
 20
39.9399395732851517
 30
0.0
 40
9.6657190568297544
 50
38.2087596104097216
 51
50.8539012510850981
  0
ARC
  5
263B
  8
0
 10
410.2369023124559817
 20
48.49787526884068
 30
0.0
 40
3.761338514028953
 50
223.2961840579729937
 51
240.4811857813232905
  0
ARC
  5
263C
  8
0
 10
409.3964633833422795
 20
47.0287627495820928
 30
0.0
 40
2.0688471740429741
 50
240.6888793819665011
 51
268.5737839844838959
  0
LINE
  5
263D
  8
0
 10
414.1650400819154925
 20
36.0365710892819493
 30
0.0
 11
414.1650400819154925
 21
37.5365710892819493
 31
0.0
  0
LINE
  5
263E
  8
0
 10
413.7140135781153845
 20
38.0430293797819417
 30
0.0
 11
413.7140135781153845
 21
38.3665710892819476
 31
0.0
  0
ARC
  5
263F
  8
0
 10
413.9150405610075154
 20
37.5365715439438077
 30
0.0
 40
0.2499995209083083
 50
359.9998957989773203
 51
83.2437141095313251
  0
LINE
  5
2640
  8
0
 10
413.2660927479154793
 20
38.8571435388819424
 30
0.0
 11
413.0237467491824077
 21
47.8072111985741373
 31
0.0
  0
ARC
  5
2641
  8
0
 10
413.9737818798889748
 20
38.0429421862515369
 30
0.0
 40
0.259768316407216
 50
179.9807681650493123
 51
263.517053009009885
  0
ARC
  5
2642
  8
0
 10
413.4632746060901809
 20
38.3662738917025834
 30
0.0
 40
0.2507391481573302
 50
0.0679118960554913
 51
86.5976638373189047
  0
ARC
  5
2643
  8
0
 10
413.5160208694268249
 20
38.8637011406007389
 30
0.0
 40
0.2500141357254064
 50
181.5029790000957064
 51
261.288805562674213
  0
ARC
  5
2644
  8
0
 10
411.2819797981543957
 20
51.4713863547822683
 30
0.0
 40
5.2112651768249743
 50
305.6681979683872896
 51
344.5893720813787127
  0
ARC
  5
2645
  8
0
 10
416.3395885080557264
 20
50.7547543794984222
 30
0.0
 40
0.2199011767051744
 50
299.8116776164341104
 51
1.1621243969054951
  0
LINE
  5
2646
  8
0
 10
416.5594444530889859
 20
50.7592143066113621
 30
0.0
 11
416.5073295158288147
 21
52.2989565748113634
 31
0.0
  0
ARC
  5
2647
  8
0
 10
416.2576364874857973
 20
52.2865710465949434
 30
0.0
 40
0.2500000194246112
 50
2.8397162066386028
 51
89.997661680806587
  0
ARC
  5
2648
  8
0
 10
416.5727067923829736
 20
50.3467744803697315
 30
0.0
 40
0.2499839237365894
 50
119.6835189359580056
 51
178.7380215213358099
  0
ARC
  5
2649
  8
0
 10
411.7001743048003846
 20
50.5129657287828806
 30
0.0
 40
4.6254011367610799
 50
354.7106536166821229
 51
358.0091540438351103
  0
ARC
  5
264A
  8
0
 10
412.9953181046157056
 20
47.021164244432903
 30
0.0
 40
0.7865608698293264
 50
87.9287093322058837
 51
123.2914072524083053
  0
ARC
  5
264B
  8
0
 10
411.2944802760674747
 20
50.4915165284056116
 30
0.0
 40
3.085914311265316
 50
264.0067184882113906
 51
294.2836733617907043
  0
ARC
  5
264C
  8
0
 10
408.5335067915647187
 20
20.5414527733283983
 30
0.0
 40
26.9914179024845104
 50
84.8160594046775742
 51
88.2772131846875538
  0
ARC
  5
264D
  8
0
 10
411.8838293687584837
 20
48.5105178012746521
 30
0.0
 40
1.3394221931842201
 50
306.6625733997889256
 51
328.3262304189308907
  0
ARC
  5
264E
  8
0
 10
418.7855684346073986
 20
39.9399395732851517
 30
0.0
 40
9.6657190568297544
 50
129.1460987489147954
 51
141.7912403895902003
  0
ARC
  5
264F
  8
0
 10
408.4530389185749186
 20
48.49787526884068
 30
0.0
 40
3.761338514028953
 50
299.5188142186767095
 51
316.7038159420270063
  0
ARC
  5
2650
  8
0
 10
409.2934778476886208
 20
47.0287627495820928
 30
0.0
 40
2.0688471740429741
 50
271.4262160155096808
 51
299.3111206180334989
  0
ARC
  5
2651
  8
0
 10
412.4088109896853211
 20
46.2143272975458217
 30
0.0
 40
1.8551246085413251
 50
295.687822381925514
 51
357.6716138202659181
  0
LINE
  5
2652
  8
0
 10
414.2624039886155174
 20
46.1389594825819387
 30
0.0
 11
414.2978960733154281
 21
47.1509815365319369
 31
0.0
  0
ARC
  5
2653
  8
0
 10
414.447889293821504
 20
47.1580310479112867
 30
0.0
 40
0.1501587886487219
 50
147.9489544998124018
 51
182.6908565987475868
  0
ARC
  5
2654
  8
0
 10
413.3464039376440837
 20
44.3338036274226397
 30
0.0
 40
0.2477581990898528
 50
122.5922402115388934
 51
158.8244879690132052
  0
ARC
  5
2655
  8
0
 10
412.9602171189231967
 20
49.6140504379131499
 30
0.0
 40
2.7381845294304288
 50
274.4079249412300214
 51
299.7902304865365863
  0
ARC
  5
2656
  8
0
 10
413.2741293301315864
 20
46.6383619280654997
 30
0.0
 40
0.2665064026940648
 50
112.8439330213740988
 51
146.6800418474425101
  0
ARC
  5
2657
  8
0
 10
404.681021902126588
 20
52.8021125864962286
 30
0.0
 40
0.0946336242180544
 50
12.3413309985195703
 51
86.516813945481573
  0
ARC
  5
2658
  8
0
 10
409.4411984636070088
 20
-41.7083955249467309
 30
0.0
 40
94.3050157091546311
 50
90.0584640221119486
 51
92.0447800525936231
  0
LINE
  5
2659
  8
0
 10
415.1611883981653932
 20
52.6365715222136075
 30
0.0
 11
415.1611883981653932
 21
52.5365710658113585
 31
0.0
  0
LINE
  5
265A
  8
0
 10
413.9037554131421075
 20
52.6769817859633491
 30
0.0
 11
413.9164725317655211
 21
52.8223391168819418
 31
0.0
  0
LINE
  5
265B
  8
0
 10
413.7832526455654261
 20
52.5365710892819422
 30
0.0
 11
413.7839508481653752
 21
52.5765710892819413
 31
0.0
  0
LINE
  5
265C
  8
0
 10
412.6135994074654718
 20
52.5365710892819422
 30
0.0
 11
412.6129012048655227
 21
52.5765710892819413
 31
0.0
  0
LINE
  5
265D
  8
0
 10
413.7941752561387716
 20
52.5765710892871425
 30
0.0
 11
412.6129012048655227
 21
52.5765710892819413
 31
0.0
  0
LINE
  5
265E
  8
0
 10
415.7051393414199083
 20
52.6365716075870296
 30
0.0
 11
414.3267265931427801
 21
52.6365713912443383
 31
0.0
  0
LINE
  5
265F
  8
0
 10
415.8931390574804823
 20
52.8465710892819374
 30
0.0
 11
416.1895481940654236
 21
52.8465710892819374
 31
0.0
  0
ARC
  5
2660
  8
0
 10
416.1895497449655181
 20
53.0965710892819374
 30
0.0
 40
0.25
 50
269.9996445569103116
 51
306.8700129868215072
  0
ARC
  5
2661
  8
0
 10
416.1895497449655181
 20
53.0965710892819374
 30
0.0
 40
0.25
 50
339.7312635987368026
 51
358.9408688184998937
  0
ARC
  5
2662
  8
0
 10
413.7941741863655238
 20
52.6865710892819408
 30
0.0
 40
0.11
 50
270.0005572136063279
 51
354.9988645468995969
  0
LINE
  5
2663
  8
0
 10
400.7660486014020762
 20
60.6722910937819435
 30
0.0
 11
400.7361135915813861
 21
62.2808733174021327
 31
0.0
  0
LINE
  5
2664
  8
0
 10
400.8460559621020138
 20
63.9194987996819393
 30
0.0
 11
400.8517924969020214
 21
63.609204416881937
 31
0.0
  0
LINE
  5
2665
  8
0
 10
400.9681912318019954
 20
63.2971680519819273
 30
0.0
 11
400.9717652988020973
 21
63.5156346333819428
 31
0.0
  0
LINE
  5
2666
  8
0
 10
417.5916329019186719
 20
66.850622212081106
 30
0.0
 11
417.611391450828819
 21
65.7187009141819374
 31
0.0
  0
LINE
  5
2667
  8
0
 10
400.9150273686021251
 20
63.9757833578819373
 30
0.0
 11
400.9227971716019852
 21
63.555507651881932
 31
0.0
  0
LINE
  5
2668
  8
0
 10
401.4936373520856137
 20
63.5153299812782919
 30
0.0
 11
401.5165111621021197
 21
62.276456628881931
 31
0.0
  0
LINE
  5
2669
  8
0
 10
401.483992421242192
 20
64.0370330579287099
 30
0.0
 11
401.4936373520856137
 21
63.5153299812782919
 31
0.0
  0
LINE
  5
266A
  8
0
 10
401.5165111621021197
 20
62.276456628881931
 30
0.0
 11
401.5459502154021152
 21
60.6867091239819274
 31
0.0
  0
LINE
  5
266B
  8
0
 10
401.7381768667020765
 20
64.3437973767819358
 30
0.0
 11
401.7589867755020805
 21
63.2181704902819419
 31
0.0
  0
LINE
  5
266C
  8
0
 10
402.0102341913021178
 20
63.1632148330819376
 30
0.0
 11
401.9872213170020814
 21
64.4080021272819465
 31
0.0
  0
LINE
  5
266D
  8
0
 10
416.9169020950287745
 20
65.596606628981931
 30
0.0
 11
416.9062360172288209
 21
64.9921955536819382
 31
0.0
  0
LINE
  5
266E
  8
0
 10
416.4349765502653895
 20
52.9715713912443391
 30
0.0
 11
416.4349765161654204
 21
52.9565710944819301
 31
0.0
  0
LINE
  5
266F
  8
0
 10
416.1537192924923829
 20
53.9974766022443404
 30
0.0
 11
416.1655286185923046
 21
53.9503184333443286
 31
0.0
  0
LINE
  5
2670
  8
0
 10
416.6516231205288818
 20
64.5655383212819345
 30
0.0
 11
416.4395070327705071
 21
53.0919500208859603
 31
0.0
  0
LINE
  5
2671
  8
0
 10
416.1244510031924051
 20
53.7529189385443402
 30
0.0
 11
416.1270603890923212
 21
53.8940631902443386
 31
0.0
  0
LINE
  5
2672
  8
0
 10
416.1655286185923046
 20
53.9503184333443286
 30
0.0
 11
416.1655610442923034
 21
53.9388935110443413
 31
0.0
  0
LINE
  5
2673
  8
0
 10
414.0607745316723936
 20
54.7090747751344608
 30
0.0
 11
414.060775085928924
 21
64.3817970316819412
 31
0.0
  0
LINE
  5
2674
  8
0
 10
412.4818996717924051
 20
52.6769842595443407
 30
0.0
 11
412.4605767442920978
 21
52.8965713912443292
 31
0.0
  0
LINE
  5
2675
  8
0
 10
416.3636325321924119
 20
52.8965713912443292
 30
0.0
 11
409.3449706155154217
 21
52.8965713912443292
 31
0.0
  0
LINE
  5
2676
  8
0
 10
414.4382991213852279
 20
53.7165713912195883
 30
0.0
 11
413.7771314087923997
 21
53.7165713912443366
 31
0.0
  0
LINE
  5
2677
  8
0
 10
402.0069532393434883
 20
63.3406845075621803
 30
0.0
 11
402.0609439420304057
 21
63.3416826550047674
 31
0.0
  0
LINE
  5
2678
  8
0
 10
401.8619229632873839
 20
63.1617674708498313
 30
0.0
 11
402.0102341913021178
 21
63.1632148330819376
 31
0.0
  0
LINE
  5
2679
  8
0
 10
400.8655083714019725
 20
63.939861153181937
 30
0.0
 11
400.8958473529020807
 21
63.9406869394819424
 31
0.0
  0
LINE
  5
267A
  8
0
 10
400.9344797797020874
 20
63.9961456531819266
 30
0.0
 11
401.283334522402015
 21
64.0056410096819235
 31
0.0
  0
LINE
  5
267B
  8
0
 10
401.8389579429020841
 20
64.4039665977819311
 30
0.0
 11
401.9872213170020814
 21
64.4080021272819465
 31
0.0
  0
LINE
  5
267C
  8
0
 10
401.990510626769094
 20
64.2300803713435471
 30
0.0
 11
402.0445013813983905
 21
64.2310785197464611
 31
0.0
  0
LINE
  5
267D
  8
0
 10
400.9429889245021172
 20
63.5358782738819414
 30
0.0
 11
400.9515746927557984
 21
63.5359626534201496
 31
0.0
  0
LINE
  5
267E
  8
0
 10
400.8719842502019901
 20
63.589574980681931
 30
0.0
 11
400.9023330229020985
 21
63.5898711528819405
 31
0.0
  0
LINE
  5
267F
  8
0
 10
413.3956168850286872
 20
64.7466439222819474
 30
0.0
 11
409.3449706155154217
 21
64.7466439222819474
 31
0.0
  0
LINE
  5
2680
  8
0
 10
416.4016596680289126
 20
64.7788052529819254
 30
0.0
 11
414.2829641483004934
 21
64.7787867477101713
 31
0.0
  0
ARC
  5
2681
  8
0
 10
409.3347904478923169
 20
-119.579964417155594
 30
0.0
 40
174.3544287617999942
 50
88.9125202124099872
 51
89.996654626760801
  0
ARC
  5
2682
  8
0
 10
402.6874263907286036
 20
60.7080598036248418
 30
0.0
 40
1.9217106988100301
 50
181.0665052055761919
 51
192.1117821638758869
  0
ARC
  5
2683
  8
0
 10
399.6242195434764994
 20
60.6514786005987716
 30
0.0
 40
1.9220535802098151
 50
350.0069688719100895
 51
1.050269029333964
  0
ARC
  5
2684
  8
0
 10
401.7642520008055271
 20
62.2782289040205299
 30
0.0
 40
1.028141809987454
 50
154.9064141453619072
 51
179.8526332733140123
  0
ARC
  5
2685
  8
0
 10
412.6063548862622952
 20
52.7036911215177923
 30
0.0
 40
0.1272884789872868
 50
192.1114326208194996
 51
272.9479648900031066
  0
ARC
  5
2686
  8
0
 10
414.3269215758829205
 20
52.7365482610354235
 30
0.0
 40
0.0999770599262244
 50
214.6127497252549858
 51
269.8882574144647037
  0
ARC
  5
2687
  8
0
 10
415.7051387903908903
 20
52.7365810762420679
 30
0.0
 40
0.1000094686565616
 50
270.0003156864274274
 51
345.1492287033370872
  0
ARC
  5
2688
  8
0
 10
414.441916215488618
 20
53.7766941659396025
 30
0.0
 40
0.0602314818827109
 50
266.5571327561401063
 51
336.972409648521591
  0
ARC
  5
2689
  8
0
 10
399.5410485616952769
 20
63.32069698026217
 30
0.0
 40
1.427336614574694
 50
334.8574478752561276
 51
359.055465027551918
  0
ARC
  5
268A
  8
0
 10
401.2686418907020993
 20
64.5454410898819333
 30
0.0
 40
0.5400000000000001
 50
271.5591290518883056
 51
290.448929712294273
  0
ARC
  5
268B
  8
0
 10
416.6562750778484201
 20
64.996606582311955
 30
0.0
 40
0.2499998567791508
 50
290.4431644252999263
 51
358.9890136801013227
  0
ARC
  5
268C
  8
0
 10
416.9015804084287993
 20
64.5609172614819329
 30
0.0
 40
0.25
 50
119.380745198302705
 51
178.9408708030001947
  0
ARC
  5
268D
  8
0
 10
417.3416885905118079
 20
66.8468990522694355
 30
0.0
 40
0.2499720398838063
 50
0.8534123726843661
 51
89.9913157806806367
  0
ARC
  5
268E
  8
0
 10
401.3339433993384091
 20
63.3872375733983517
 30
0.0
 40
0.1789826856851333
 50
49.6679293424041788
 51
53.0096278853957585
  0
ARC
  5
268F
  8
0
 10
401.8422229722888801
 20
64.2840110242616447
 30
0.0
 40
0.1200000001478363
 50
91.559129109530403
 51
150.1177203308699006
  0
ARC
  5
2690
  8
0
 10
401.8607519501813954
 20
63.28176175699938
 30
0.0
 40
0.1199999999176518
 50
212.0005377119553032
 51
270.5591264473629849
  0
ARC
  5
2691
  8
0
 10
417.4914097081447721
 20
65.7166066478525295
 30
0.0
 40
0.1200000188705835
 50
270.0000091538483957
 51
0.9999891253291595
  0
ARC
  5
2692
  8
0
 10
400.9517634638708046
 20
63.5159590779801704
 30
0.0
 40
0.0200044661242511
 50
359.0707014568075124
 51
90.5406766989070206
  0
ARC
  5
2693
  8
0
 10
401.5136339351021206
 20
63.5156996671819414
 30
0.0
 40
0.02
 50
181.0591324191998126
 51
246.9666418629905991
  0
ARC
  5
2694
  8
0
 10
401.5039890043021273
 20
64.0374027414819409
 30
0.0
 40
0.02
 50
115.1516162407968977
 51
181.0591256845999055
  0
ARC
  5
2695
  8
0
 10
401.4642917139428846
 20
64.0207319883439538
 30
0.0
 40
0.0199986560087958
 50
1.035412920873219
 51
110.4543721250171018
  0
ARC
  5
2696
  8
0
 10
400.9025281926836897
 20
63.5698721051307629
 30
0.0
 40
0.0200000000509991
 50
1.0591402697576959
 51
90.5591292955820677
  0
ARC
  5
2697
  8
0
 10
400.8717890813020972
 20
63.6095740283819282
 30
0.0
 40
0.02
 50
181.0589191324997955
 51
270.5591267112096148
  0
ARC
  5
2698
  8
0
 10
400.8660525438020841
 20
63.9198685576819514
 30
0.0
 40
0.02
 50
91.5591313926073838
 51
181.0593389712998942
  0
ARC
  5
2699
  8
0
 10
400.8953081184125722
 20
63.9606748185979086
 30
0.0
 40
0.0199951516108728
 50
271.5453547848981088
 51
1.0450408179548401
  0
ARC
  5
269A
  8
0
 10
400.9350239514021155
 20
63.9761530575819322
 30
0.0
 40
0.02
 50
91.5591295017919151
 51
181.0591719879001005
  0
ARC
  5
269B
  8
0
 10
400.9427937549020839
 20
63.5558773215819386
 30
0.0
 40
0.02
 50
181.0590861158999019
 51
270.5591286019882205
  0
ARC
  5
269C
  8
0
 10
416.373540958411013
 20
52.9572059847710719
 30
0.0
 40
0.0614388382237842
 50
260.7192061536085816
 51
359.4079122829090807
  0
LINE
  5
269D
  8
0
 10
416.4349765502653895
 20
52.9715713912443391
 30
0.0
 11
416.2439384321922944
 21
53.6440275462443523
 31
0.0
  0
ARC
  5
269E
  8
0
 10
413.2079679726600148
 20
82.191249516447769
 30
0.0
 40
17.4456148200719703
 50
270.6162980295313787
 51
273.5327954472214742
  0
ARC
  5
269F
  8
0
 10
416.700002654683999
 20
64.9238435843815296
 30
0.0
 40
0.1672716511533018
 50
254.8457962937146135
 51
285.1059848617753119
  0
ARC
  5
26A0
  8
0
 10
416.3877736585162097
 20
62.5807344106703596
 30
0.0
 40
2.198114703349324
 50
82.9837590036238169
 51
89.6380466269533542
  0
ARC
  5
26A1
  8
0
 10
412.214343869276604
 20
64.3792663963741063
 30
0.0
 40
1.8464329508385731
 50
0.0785269608370363
 51
12.0440465865993307
  0
ARC
  5
26A2
  8
0
 10
411.2690519246676786
 20
-32.1292260892877692
 30
0.0
 40
86.8831641466537405
 50
87.4664259214522843
 51
89.0933364080925401
  0
ARC
  5
26A3
  8
0
 10
415.0408944432566045
 20
52.5005041103339778
 30
0.0
 40
2.1695962515226341
 50
78.4306891483206812
 51
88.1825157317528294
  0
ARC
  5
26A4
  8
0
 10
415.449242016898495
 20
54.4999642314487076
 30
0.0
 40
0.128867603007109
 50
37.2557935623120571
 51
78.0096232150545745
  0
ARC
  5
26A5
  8
0
 10
415.6544530690306942
 20
54.648137581960448
 30
0.0
 40
0.1243279400026995
 50
214.3547771979824859
 51
257.395720828452113
  0
ARC
  5
26A6
  8
0
 10
415.6141000436441004
 20
54.0084760295050899
 30
0.0
 40
0.5184984862664452
 50
35.5918959781880773
 51
88.5386939637587744
  0
ARC
  5
26A7
  8
0
 10
415.2749558290385039
 20
53.8446220137193805
 30
0.0
 40
0.8919583790371221
 50
9.8674625109874743
 51
31.4681592845113194
  0
ARC
  5
26A8
  8
0
 10
416.1176103964490949
 20
53.9411264261471075
 30
0.0
 40
0.0480026097044852
 50
281.3536422817571747
 51
357.3338367409060083
  0
ARC
  5
26A9
  8
0
 10
416.0974529025538118
 20
53.6032907283426709
 30
0.0
 40
0.1520443972208294
 50
15.5409557434829608
 51
79.7719109094558263
  0
ARC
  5
26AA
  8
0
 10
414.2897233353356228
 20
27.6412755940970598
 30
0.0
 40
26.176022305973401
 50
85.980733171773295
 51
89.4164605473905567
  0
ARC
  5
26AB
  8
0
 10
415.3590746668172073
 20
60.5743441191407967
 30
0.0
 40
6.7242810291616131
 50
270.9194436591649833
 51
276.5581090773824826
  0
ARC
  5
26AC
  8
0
 10
412.7184108475414064
 20
142.2401539889874016
 30
0.0
 40
88.4319497132714076
 50
271.2168770462624252
 51
271.7811050322633264
  0
ARC
  5
26AD
  8
0
 10
414.6121635300085018
 20
53.7044240910689012
 30
0.0
 40
0.1247201748141764
 50
97.2460077679887434
 51
157.0114732261043002
  0
ARC
  5
26AE
  8
0
 10
414.3328450503130966
 20
53.9426140840960429
 30
0.0
 40
0.6112232792781181
 50
191.7852697246578089
 51
199.5539394934716029
  0
ARC
  5
26AF
  8
0
 10
413.7879189629612142
 20
53.7470428997720191
 30
0.0
 40
0.0323246679317565
 50
196.1693015660920878
 51
250.5049672996406116
  0
ARC
  5
26B0
  8
0
 10
413.7746721756465718
 20
86.2953972712077757
 30
0.0
 40
32.4776469476128185
 50
269.9291411102610141
 51
271.4498719408369993
  0
ARC
  5
26B1
  8
0
 10
413.6867456928741262
 20
137.0482165842522875
 30
0.0
 40
83.2304551271560769
 50
268.7183853137872234
 51
270.0328784349288185
  0
ARC
  5
26B2
  8
0
 10
410.1018868569790925
 20
-31.1993080362395716
 30
0.0
 40
85.0553498607789038
 50
88.8390670376400635
 51
90.5098877212057715
  0
ARC
  5
26B3
  8
0
 10
415.1649146081612116
 20
56.5812372421860275
 30
0.0
 40
2.0402794918532559
 50
270.2159574557302903
 51
280.9311976736494216
  0
ARC
  5
26B4
  8
0
 10
411.4111116754876889
 20
164.4653283257173086
 30
0.0
 40
109.9886943749943953
 50
271.0537415362057914
 51
271.959835157329394
  0
ARC
  5
26B5
  8
0
 10
408.9447597370239009
 20
277.8682668025542171
 30
0.0
 40
223.4181354302828026
 50
270.102634490572882
 51
271.1513030848838071
  0
ARC
  5
26B6
  8
0
 10
415.2588628447265933
 20
83.9816599928099379
 30
0.0
 40
30.2738841133187186
 50
264.9589971532694221
 51
267.1514830859129006
  0
ARC
  5
26B7
  8
0
 10
416.0429911372232255
 20
52.6470935368326494
 30
0.0
 40
0.2494933661130319
 50
90.6344394503952628
 51
165.1708171217337906
  0
ARC
  5
26B8
  8
0
 10
416.1571071623649232
 20
48.9825037311070872
 30
0.0
 40
4.2174388935454674
 50
111.8644614671351007
 51
122.5728616377915046
  0
ARC
  5
26B9
  8
0
 10
414.0533388479790915
 20
52.5485156035502072
 30
0.0
 40
0.2319927747526402
 50
34.4523180055347922
 51
48.446022812140491
  0
ARC
  5
26BA
  8
0
 10
415.0566143904566161
 20
64.1613256965310654
 30
0.0
 40
10.4630400109284505
 50
266.6121215619875784
 51
275.8576898400892787
  0
ARC
  5
26BB
  8
0
 10
412.5377691905015922
 20
-156.9759368454415096
 30
0.0
 40
210.6983154429046863
 50
89.6642984795523148
 51
90.8682598367263665
  0
ARC
  5
26BC
  8
0
 10
401.3770925279051198
 20
64.3419418771534595
 30
0.0
 40
0.3099401530803668
 50
292.4574297557206251
 51
328.0866062165609947
  0
ARC
  5
26BD
  8
0
 10
398.3200788328683188
 20
66.2533622685508305
 30
0.0
 40
3.915332967293391
 50
327.9921346334265877
 51
330.8095234563051008
  0
ARC
  5
26BE
  8
0
 10
401.3920338824149212
 20
63.1974664547576523
 30
0.0
 40
0.3206888147867046
 50
31.7811095132425905
 51
69.2198978111788534
  0
ARC
  5
26BF
  8
0
 10
397.2795080765774856
 20
60.4705059729388879
 30
0.0
 40
5.2550347015016321
 50
31.5245092920440584
 51
33.4400253955139704
  0
ARC
  5
26C0
  8
0
 10
401.1615192471576847
 20
60.3808409243673978
 30
0.0
 40
0.3611132095039511
 50
192.1483138530095118
 51
349.9699440039451019
  0
ARC
  5
26C1
  8
0
 10
401.4711076800837191
 20
63.5319459376127398
 30
0.0
 40
0.0222572394537225
 50
311.8195902391910863
 51
357.6864412828647914
  0
ARC
  5
26C2
  8
0
 10
401.4745747169419019
 20
63.5486833034563929
 30
0.0
 40
0.0352120410624525
 50
225.247796404508108
 51
288.8449978791089734
  0
ARC
  5
26C3
  8
0
 10
401.2251222166796083
 20
63.2101701845133519
 30
0.0
 40
0.3863868952634252
 50
55.9200416307472281
 51
80.2280189532811363
  0
ARC
  5
26C4
  8
0
 10
401.2390501671433753
 20
62.9647889737830013
 30
0.0
 40
0.6282888422790225
 50
85.2843059263814354
 51
109.9792945532662998
  0
ARC
  5
26C5
  8
0
 10
401.0619393227543128
 20
63.4506617665647568
 30
0.0
 40
0.1111432769814318
 50
109.7533154414559959
 51
144.2262117140874977
  0
ARC
  5
26C6
  8
0
 10
414.0089193289041987
 20
52.8021125864962286
 30
0.0
 40
0.0946336242180544
 50
93.483186054518427
 51
167.6586690014812007
  0
ARC
  5
26C7
  8
0
 10
409.2487427674238916
 20
-41.7083955249467309
 30
0.0
 40
94.3050157091546311
 50
87.9552199473998542
 51
89.9415359778815287
  0
ENDSEC
  0
EOF
