  0
SECTION
  2
HEADER
  9
$ACADVER
  1
AC1009
  9
$INSBASE
 10
321.6910344334398246
 20
-58.7233768085905368
 30
0.0
  9
$EXTMIN
 10
292.594699869708279
 20
-58.7250441840776318
 30
-0.0000000349181948
  9
$EXTMAX
 10
321.7102941602449846
 20
-30.2214981348868683
 30
0.0000000814935746
  9
$LIMMIN
 10
0.0
 20
0.0
  9
$LIMMAX
 10
11.6929133858000007
 20
8.2677165353999982
  9
$ORTHOMODE
 70
     0
  9
$REGENMODE
 70
     1
  9
$FILLMODE
 70
     1
  9
$QTEXTMODE
 70
     0
  9
$MIRRTEXT
 70
     0
  9
$DRAGMODE
 70
     2
  9
$LTSCALE
 40
0.6431102362
  9
$OSMODE
 70
  4095
  9
$ATTMODE
 70
     1
  9
$TEXTSIZE
 40
0.2
  9
$TRACEWID
 40
0.05
  9
$TEXTSTYLE
  7
STANDARD
  9
$CLAYER
  8
0
  9
$CELTYPE
  6
BYLAYER
  9
$CECOLOR
 62
   256
  9
$DIMSCALE
 40
1.0
  9
$DIMASZ
 40
0.1875
  9
$DIMEXO
 40
0.0625
  9
$DIMDLI
 40
0.4443307087
  9
$DIMRND
 40
0.0
  9
$DIMDLE
 40
0.0
  9
$DIMEXE
 40
0.125
  9
$DIMTP
 40
0.01
  9
$DIMTM
 40
0.01
  9
$DIMTXT
 40
1.0
  9
$DIMCEN
 40
0.1052362205
  9
$DIMTSZ
 40
0.0
  9
$DIMTOL
 70
     1
  9
$DIMLIM
 70
     0
  9
$DIMTIH
 70
     1
  9
$DIMTOH
 70
     1
  9
$DIMSE1
 70
     0
  9
$DIMSE2
 70
     0
  9
$DIMTAD
 70
     0
  9
$DIMZIN
 70
     0
  9
$DIMBLK
  1

  9
$DIMASO
 70
     1
  9
$DIMSHO
 70
     1
  9
$DIMPOST
  1
\X
  9
$DIMAPOST
  1

  9
$DIMALT
 70
     1
  9
$DIMALTD
 70
     2
  9
$DIMALTF
 40
25.3999999999999986
  9
$DIMLFAC
 40
1.0
  9
$DIMTOFL
 70
     0
  9
$DIMTVP
 40
0.0
  9
$DIMTIX
 70
     0
  9
$DIMSOXD
 70
     0
  9
$DIMSAH
 70
     0
  9
$DIMBLK1
  1

  9
$DIMBLK2
  1

  9
$DIMSTYLE
  2
STANDARD
  9
$DIMCLRD
 70
     0
  9
$DIMCLRE
 70
     0
  9
$DIMCLRT
 70
     0
  9
$DIMTFAC
 40
1.0
  9
$DIMGAP
 40
0.09
  9
$LUNITS
 70
     2
  9
$LUPREC
 70
     4
  9
$SKETCHINC
 40
0.1
  9
$FILLETRAD
 40
0.0
  9
$AUNITS
 70
     0
  9
$AUPREC
 70
     0
  9
$MENU
  1
.
  9
$ELEVATION
 40
0.0
  9
$PELEVATION
 40
0.0
  9
$THICKNESS
 40
0.0
  9
$LIMCHECK
 70
     0
  9
$BLIPMODE
 70
     0
  9
$CHAMFERA
 40
0.0
  9
$CHAMFERB
 40
0.0
  9
$SKPOLY
 70
     0
  9
$TDCREATE
 40
2458172.4620254631154239
  9
$TDUPDATE
 40
2460153.4387962957844138
  9
$TDINDWG
 40
0.1604689005
  9
$TDUSRTIMER
 40
0.1604689005
  9
$USRTIMER
 70
     1
  9
$ANGBASE
 50
0.0
  9
$ANGDIR
 70
     0
  9
$PDMODE
 70
     0
  9
$PDSIZE
 40
0.3125
  9
$PLINEWID
 40
0.0
  9
$COORDS
 70
     1
  9
$SPLFRAME
 70
     0
  9
$SPLINETYPE
 70
     6
  9
$SPLINESEGS
 70
     8
  9
$ATTDIA
 70
     1
  9
$ATTREQ
 70
     1
  9
$HANDLING
 70
     1
  9
$HANDSEED
  5
78B5
  9
$SURFTAB1
 70
     6
  9
$SURFTAB2
 70
     6
  9
$SURFTYPE
 70
     6
  9
$SURFU
 70
     6
  9
$SURFV
 70
     6
  9
$UCSNAME
  2

  9
$UCSORG
 10
0.0
 20
0.0
 30
0.0
  9
$UCSXDIR
 10
1.0
 20
0.0
 30
0.0
  9
$UCSYDIR
 10
0.0
 20
1.0
 30
0.0
  9
$PUCSNAME
  2

  9
$PUCSORG
 10
0.0
 20
0.0
 30
0.0
  9
$PUCSXDIR
 10
1.0
 20
0.0
 30
0.0
  9
$PUCSYDIR
 10
0.0
 20
1.0
 30
0.0
  9
$USERI1
 70
     0
  9
$USERI2
 70
     0
  9
$USERI3
 70
     0
  9
$USERI4
 70
     0
  9
$USERI5
 70
     0
  9
$USERR1
 40
0.0
  9
$USERR2
 40
0.0
  9
$USERR3
 40
0.0
  9
$USERR4
 40
0.0
  9
$USERR5
 40
0.0
  9
$WORLDVIEW
 70
     1
  9
$SHADEDGE
 70
     3
  9
$SHADEDIF
 70
    70
  9
$TILEMODE
 70
     1
  9
$MAXACTVP
 70
    64
  9
$PLIMCHECK
 70
     0
  9
$PEXTMIN
 10
1.0000000000000000E+20
 20
1.0000000000000000E+20
 30
1.0000000000000000E+20
  9
$PEXTMAX
 10
-1.0000000000000000E+20
 20
-1.0000000000000000E+20
 30
-1.0000000000000000E+20
  9
$PLIMMIN
 10
0.0
 20
0.0
  9
$PLIMMAX
 10
12.0
 20
9.0
  9
$UNITMODE
 70
     0
  9
$VISRETAIN
 70
     1
  9
$PLINEGEN
 70
     0
  9
$PSLTSCALE
 70
     1
  0
ENDSEC
  0
SECTION
  2
TABLES
  0
TABLE
  2
VPORT
 70
     1
  0
VPORT
  2
*ACTIVE
 70
     0
 10
0.0
 20
0.0
 11
1.0
 21
1.0
 12
182.5413384149040041
 22
-49.7855453298600708
 13
0.0
 23
0.0
 14
1.0
 24
1.0
 15
0.0
 25
0.0
 16
0.0
 26
0.0
 36
30.6214257250603907
 17
124.6111586000725993
 27
5.3122741703778242
 37
0.0
 40
28.7282783439281317
 41
2.498684210526315
 42
50.0
 43
0.0
 44
0.0
 50
0.0
 51
0.0
 71
     0
 72
   100
 73
     1
 74
     1
 75
     0
 76
     0
 77
     0
 78
     0
  0
ENDTAB
  0
TABLE
  2
LTYPE
 70
     2
  0
LTYPE
  2
CONTINUOUS
 70
     0
  3
Solid line
 72
    65
 73
     0
 40
0.0
  0
LTYPE
  2
PHANTOM2
 70
     0
  3
___ _ _ ___ _ _ ___ _ _ ___ _ _
 72
    65
 73
     6
 40
1.25
 49
0.625
 49
-0.125
 49
0.125
 49
-0.125
 49
0.125
 49
-0.125
  0
ENDTAB
  0
TABLE
  2
LAYER
 70
     2
  0
LAYER
  2
0
 70
     0
 62
   255
  6
CONTINUOUS
  0
LAYER
  2
DEFPOINTS
 70
     0
 62
     7
  6
CONTINUOUS
  0
ENDTAB
  0
TABLE
  2
STYLE
 70
     1
  0
STYLE
  2
STANDARD
 70
     0
 40
0.0
 41
0.8
 50
0.0
 71
     0
 42
0.2
  3
txt
  4

  0
ENDTAB
  0
TABLE
  2
VIEW
 70
     0
  0
ENDTAB
  0
TABLE
  2
UCS
 70
     0
  0
ENDTAB
  0
TABLE
  2
APPID
 70
     9
  0
APPID
  2
ACAD
 70
     0
  0
APPID
  2
ACAD_MLEADERVER
 70
     0
  0
APPID
  2
ACAD_EXEMPT_FROM_CAD_STANDARDS
 70
     0
  0
APPID
  2
ACAD_DSTYLE_DIMJAG
 70
     0
  0
APPID
  2
ACAD_DSTYLE_DIMTALN
 70
     0
  0
APPID
  2
ACAD_NAV_VCDISPLAY
 70
     0
  0
APPID
  2
ACAECLAYERSTANDARD
 70
     0
  0
APPID
  2
ACCMTRANSPARENCY
 70
     0
  0
APPID
  2
ACDBATTR
 70
     0
  0
ENDTAB
  0
TABLE
  2
DIMSTYLE
 70
     1
  0
DIMSTYLE
  2
STANDARD
 70
     0
  3

  4

  5

  6

  7

 40
1.0
 41
0.1875
 42
0.0625
 43
0.38
 44
0.125
 45
0.0
 46
0.0
 47
0.01
 48
0.01
140
0.15625
141
0.09
142
0.0
143
25.3999999999999986
144
1.0
145
0.0
146
1.0
147
0.09
 71
     1
 72
     0
 73
     1
 74
     1
 75
     0
 76
     0
 77
     0
 78
     4
170
     0
171
     2
172
     0
173
     0
174
     0
175
     0
176
     0
177
     0
178
     0
  0
ENDTAB
  0
ENDSEC
  0
SECTION
  2
BLOCKS
  0
BLOCK
  8
0
  2
$MODEL_SPACE
 70
     0
 10
0.0
 20
0.0
 30
0.0
  3
$MODEL_SPACE
  1

  0
ENDBLK
  5
21
  8
0
  0
BLOCK
 67
     1
  8
0
  2
$PAPER_SPACE
 70
     0
 10
0.0
 20
0.0
 30
0.0
  3
$PAPER_SPACE
  1

  0
ENDBLK
  5
1D
 67
     1
  8
0
  0
BLOCK
  8
0
  2
_FILLED
 70
     0
 10
0.0
 20
0.0
 30
0.0
  3
_FILLED
  1

  0
SOLID
  5
69C2
  8
0
  6
BYBLOCK
 62
     0
 10
0.0
 20
0.0
 30
0.0
 11
-1.0
 21
0.1666666667
 31
0.0
 12
-1.0
 22
-0.1666666667
 32
0.0
 13
-1.0
 23
-0.1666666667
 33
0.0
  0
ENDBLK
  5
69C3
  8
0
  6
BYBLOCK
 62
     0
  0
ENDSEC
  0
SECTION
  2
ENTITIES
  0
ATTDEF
  5
6869
  8
DEFPOINTS
 10
321.6904927959423048
 20
-58.7190519334124872
 30
0.0
 40
0.001
  1
K-3983K-HC
  3

  2
MODELNUMBER
 70
     0
1001
ACDBATTR
1070
     0
1070
     1
  0
ATTDEF
  5
686A
  8
DEFPOINTS
 10
321.6904927959423048
 20
-58.7207186000791594
 30
0.0
 40
0.001
  1
REACH
  3

  2
TRADENAME
 70
     0
1001
ACDBATTR
1070
     0
1070
     1
  0
ATTDEF
  5
686B
  8
DEFPOINTS
 10
321.6904927959423048
 20
-58.7223852667458175
 30
0.0
 40
0.001
  1
TOILET
  3

  2
PRODUCT
 70
     0
1001
ACDBATTR
1070
     0
1070
     1
  0
LINE
  5
76CE
  8
0
 10
296.2946706144630866
 20
-58.7233768084905634
 30
0.0
 11
320.5482120893631759
 21
-58.7233768084905634
 31
0.0
  0
LINE
  5
76CF
  8
0
 10
296.6790932643630754
 20
-50.6941259438905618
 30
0.0
 11
296.2946706144630866
 21
-58.7233768084905634
 31
0.0
  0
LINE
  5
76D0
  8
0
 10
319.9898172318632987
 20
-51.5046534407905909
 30
0.0
 11
316.5679126474631175
 21
-51.2299841193906076
 31
0.0
  0
LINE
  5
76D1
  8
0
 10
292.8139806106642027
 20
-45.529078925090559
 30
0.0
 11
320.9450915556632822
 21
-45.529078925090559
 31
0.0
  0
LINE
  5
76D2
  8
0
 10
321.0505529841631756
 20
-44.7690289250905806
 30
0.0
 11
321.171021227963422
 21
-44.7690289250905806
 31
0.0
  0
LINE
  5
76D3
  8
0
 10
292.8108756101216272
 20
-43.3289540477972821
 30
0.0
 11
313.6163217097620759
 21
-43.3376418046927299
 31
0.0
  0
LINE
  5
76D4
  8
0
 10
314.0159503770631204
 20
-42.953898779892711
 30
0.0
 11
314.446366502462979
 21
-32.37233631589271
 31
0.0
  0
LINE
  5
76D5
  8
0
 10
314.6069731611805196
 20
-30.6235331024902884
 30
0.0
 11
314.4322878084632862
 21
-32.0906658520927408
 31
0.0
  0
LINE
  5
76D6
  8
0
 10
319.5642991625002196
 20
-46.6145227373528286
 30
0.0
 11
319.6870792863630868
 21
-51.3906279710906091
 31
0.0
  0
LINE
  5
76D7
  8
0
 10
320.1735316499631949
 20
-51.6933678918905883
 30
0.0
 11
320.5482120893631759
 21
-58.7233768084905634
 31
0.0
  0
LINE
  5
76D8
  8
0
 10
320.9450915556632822
 20
-45.529078925090559
 30
0.0
 11
320.961192325062882
 21
-44.9518729705905997
 31
0.0
  0
LINE
  5
76D9
  8
0
 10
321.271034433439695
 20
-32.3726139388126626
 30
0.0
 11
321.2710344334398087
 21
-44.6690289291082507
 31
0.0
  0
LINE
  5
76DA
  8
0
 10
321.0532539978224804
 20
-30.6235297481521798
 30
0.0
 11
321.233047506912726
 21
-32.1334265346857819
 31
0.0
  0
LINE
  5
76DB
  8
0
 10
321.1241648860629994
 20
-32.2351089093927499
 30
0.0
 11
321.1031818577002923
 21
-32.1567991813636809
 31
0.0
  0
ARC
  5
76DC
  8
0
 10
319.7870462003631928
 20
-51.3880557923906025
 30
0.0
 40
0.1
 50
181.4739123685990876
 51
265.410823372601385
  0
ARC
  5
76DD
  8
0
 10
314.4918799225649764
 20
-32.0974362166829223
 30
0.0
 40
0.0599754774871644
 50
173.5183183799551045
 51
261.8044394272794193
  0
ARC
  5
76DE
  8
0
 10
321.1709808903249268
 20
-44.6689753757745933
 30
0.0
 40
0.100053557447267
 50
270.0230993935476818
 51
359.9693326232086861
  0
ARC
  5
76DF
  8
0
 10
321.0289947743829089
 20
-32.0381143112702489
 30
0.0
 40
0.2368274487786212
 50
295.7882856711404997
 51
324.489197813208591
  0
ARC
  5
76E0
  8
0
 10
321.1710097462820954
 20
-32.3726379262859609
 30
0.0
 40
0.1000246900338865
 50
0.013740016365936
 51
76.1566037394010635
  0
ARC
  5
76E1
  8
0
 10
321.1797779313263845
 20
-32.2170672098276327
 30
0.0
 40
0.0584663469638396
 50
197.973834374173407
 51
271.2951581091430739
  0
ARC
  5
76E2
  8
0
 10
321.1744065920631783
 20
-32.1404086603927226
 30
0.0
 40
0.0590551181
 50
323.3295509742927152
 51
6.7900000381969337
  0
ARC
  5
76E3
  8
0
 10
296.4680345350294033
 20
-50.7244254037959621
 30
0.0
 40
0.2132225343450411
 50
8.1695271828094551
 51
59.0255595438486367
  0
ARC
  5
76E4
  8
0
 10
300.3950262157092084
 20
-43.7537716327298227
 30
0.0
 40
7.787565494663947
 50
178.3020257739487135
 51
240.6480372210560859
  0
ARC
  5
76E5
  8
0
 10
292.8107920958715908
 20
-43.5289540303607083
 30
0.0
 40
0.2
 50
89.976074929024918
 51
178.2994989645461033
  0
ARC
  5
76E6
  8
0
 10
319.9738148416038257
 20
-51.7040125006362601
 30
0.0
 40
0.2000002780912266
 50
3.0508930656586331
 51
85.4107536980658892
  0
ARC
  5
76E7
  8
0
 10
316.827226652624006
 20
-48.5248007100633316
 30
0.0
 40
2.7175836751371421
 50
245.4734322552297101
 51
264.5244601631619048
  0
ARC
  5
76E8
  8
0
 10
306.7484528451993242
 20
-53.5203246446744316
 30
0.0
 40
9.2994984018079876
 50
15.7428998418198098
 51
27.3814078093253883
  0
ARC
  5
76E9
  8
0
 10
312.5794584220145111
 20
-50.3490884588332932
 30
0.0
 40
2.6666617901222569
 50
24.4968128949445401
 51
54.2989333100855234
  0
ARC
  5
76EA
  8
0
 10
318.8229561902841738
 20
-46.4379782092791871
 30
0.0
 40
0.7620743880007499
 50
288.7058848426623854
 51
353.1314324359794909
  0
ARC
  5
76EB
  8
0
 10
667.7215335922297754
 20
-79.838083225511923
 30
0.0
 40
349.73178320354981
 50
174.3701774187574927
 51
174.5347823311606987
  0
ARC
  5
76EC
  8
0
 10
314.2782368659703138
 20
-32.2828528628995031
 30
0.0
 40
15.6287940477172107
 50
274.7787601948912197
 51
287.8441900729142731
  0
ARC
  5
76ED
  8
0
 10
315.312603648621689
 20
-50.0337793154312607
 30
0.0
 40
2.1928556258794241
 50
82.9894256403299408
 51
122.4621313391493942
  0
ARC
  5
76EE
  8
0
 10
317.3727731913670027
 20
-51.0949462892462876
 30
0.0
 40
0.1990024927535836
 50
196.2369311891054906
 51
265.331012198920007
  0
ARC
  5
76EF
  8
0
 10
307.5060008504867142
 20
-54.0854371732192618
 30
0.0
 40
10.1110159675083295
 50
16.8736663600743917
 51
29.8054814466296705
  0
ARC
  5
76F0
  8
0
 10
313.7009148826903129
 20
-50.6790883690129519
 30
0.0
 40
3.044933268089522
 50
32.1295256480053695
 51
53.947915904453339
  0
ARC
  5
76F1
  8
0
 10
315.6113901556648216
 20
-48.0554622933019431
 30
0.0
 40
0.2005765201062469
 50
98.9322905642949024
 51
233.797102565246206
  0
ARC
  5
76F2
  8
0
 10
318.6755401622028785
 20
-51.1986016146127909
 30
0.0
 40
0.1999145146123027
 50
186.2523594414180934
 51
265.4129386773715282
  0
ARC
  5
76F3
  8
0
 10
313.472685481257713
 20
-51.7837284264786391
 30
0.0
 40
5.0357400926985241
 50
6.4231964371329786
 51
43.8533113908648673
  0
ARC
  5
76F4
  8
0
 10
314.3166000636559261
 20
-50.9740266024912003
 30
0.0
 40
3.8662068273698922
 50
43.8649795979850765
 51
49.5081677628782302
  0
ARC
  5
76F5
  8
0
 10
316.9586011022341268
 20
-47.883063230711322
 30
0.0
 40
0.2000338981935413
 50
100.6899162747722016
 51
228.891505603243786
  0
ARC
  5
76F6
  8
0
 10
321.2267358418324079
 20
-44.968392554179708
 30
0.0
 40
0.2660568659892161
 50
131.467874194741313
 51
176.4401909510091002
  0
ARC
  5
76F7
  8
0
 10
314.5506186506793256
 20
-32.3781429087425181
 30
0.0
 40
0.1044137295961693
 50
100.6228170116063012
 51
176.8120573155505895
  0
ARC
  5
76F8
  8
0
 10
313.6162100756762925
 20
-42.9375680765339709
 30
0.0
 40
0.4000737437335961
 50
270.0159874578225185
 51
357.660580259056303
  0
ARC
  5
76F9
  8
0
 10
321.1693121110408811
 20
-32.0977470106178089
 30
0.0
 40
0.0590535841885543
 50
270.3964190019083844
 51
6.7916687818479948
  0
ARC
  5
76FA
  8
0
 10
298.4617015314897799
 20
-43.4871634392764435
 30
0.0
 40
12.27395221348152
 50
343.2724592222240858
 51
350.4236528057966211
  0
ARC
  5
76FB
  8
0
 10
317.6820251497243817
 20
-61.4811048392787001
 30
0.0
 40
16.2746727238061908
 50
117.3054730986414
 51
119.6179142980314936
  0
ARC
  5
76FC
  8
0
 10
311.9251905974020929
 20
-49.8233627066083926
 30
0.0
 40
3.380805958840658
 50
132.5527140101611963
 51
148.8977505739727007
  0
ARC
  5
76FD
  8
0
 10
303.8038811867186837
 20
-44.9115691503771899
 30
0.0
 40
6.110318504127191
 50
295.8979596751034933
 51
328.7992224520219224
  0
ARC
  5
76FE
  8
0
 10
302.4105395728033727
 20
-40.3737897782788622
 30
0.0
 40
10.8254967461426403
 50
268.5867851483818072
 51
292.0390587308933732
  0
ARC
  5
76FF
  8
0
 10
307.1822198253918259
 20
12.6588927579995794
 30
0.0
 40
64.0533737529370342
 50
260.4005114807733889
 51
265.4882484016948183
  0
ARC
  5
7700
  8
0
 10
319.2661097690076986
 20
-46.1009650251052534
 30
0.0
 40
0.5390483669804678
 50
43.5235811068950369
 51
94.7307435725913223
  0
ARC
  5
7701
  8
0
 10
319.3601286138439264
 20
-108.2982907185344033
 30
0.0
 40
62.7346905028974078
 50
90.1264705778025075
 51
91.7664925384198824
  0
ARC
  5
7702
  8
0
 10
317.2525428637164282
 20
-60.1296000857975201
 30
0.0
 40
14.5372236888495703
 50
89.3153301301624936
 51
117.9349332562358939
  0
ARC
  5
7703
  8
0
 10
310.4272984300524172
 20
-47.069895385006852
 30
0.0
 40
0.2168760581968626
 50
166.6620419729119078
 51
273.9691965416067774
  0
LINE
  5
7704
  8
0
 10
314.6026335461630765
 20
-32.2381933232927622
 30
0.0
 11
314.6263049621805976
 21
-32.1567991813636809
 31
0.0
  0
ARC
  5
7705
  8
0
 10
314.5498013835846791
 20
-32.220927910242608
 30
0.0
 40
0.0555817586128626
 50
280.8359364693661746
 51
341.9027429794057866
  0
CIRCLE
  5
7707
  8
0
 10
314.5820695190442962
 20
-57.1348018451295019
 30
0.0
 40
0.5297209003803413
  0
LINE
  5
7708
  8
0
 10
314.483330283734972
 20
-32.1567991813636809
 30
0.0
 11
321.169720688711493
 21
-32.1567991813636809
 31
0.0
  0
LINE
  5
7709
  8
0
 10
321.1949425472004123
 20
-32.275518619983977
 30
0.0
 11
314.5313707342988891
 21
-32.275518619983977
 31
0.0
  0
LINE
  5
770A
  8
0
 10
311.4106629124106007
 20
-38.2277777571926904
 30
0.0
 11
312.7279344238457952
 21
-38.2277777571926904
 31
0.0
  0
LINE
  5
770B
  8
0
 10
293.1605015991981986
 20
-41.681028963223433
 30
0.0
 11
294.7656959105045757
 21
-41.681028963223433
 31
0.0
  0
LINE
  5
770C
  8
0
 10
292.6293019817248933
 20
-42.1594456934860631
 30
0.0
 11
295.776160047793212
 21
-42.1594456934860631
 31
0.0
  0
LINE
  5
770D
  8
0
 10
292.6443564562852089
 20
-42.8396788951580874
 30
0.0
 11
294.2958756847203858
 21
-42.8396788951580874
 31
0.0
  0
LINE
  5
770E
  8
0
 10
293.0222217302322747
 20
-43.0732354733581104
 30
0.0
 11
297.8040767038189074
 21
-43.0732354733581104
 31
0.0
  0
LINE
  5
770F
  8
0
 10
292.6981293989767892
 20
-42.0193644542350881
 30
0.0
 11
293.0740819346760873
 21
-41.7118696447329071
 31
0.0
  0
ARC
  5
7710
  8
0
 10
292.8170276626930217
 20
-42.1647330990154714
 30
0.0
 40
0.1878
 50
129.2800283159338903
 51
178.4561722770384904
  0
ARC
  5
7711
  8
0
 10
293.1605015991981986
 20
-41.8175289632234382
 30
0.0
 40
0.1365
 50
90.0000000000032543
 51
129.2800283159338903
  0
LINE
  5
7712
  8
0
 10
292.6118682535002904
 20
-42.806303292621223
 30
0.0
 11
292.6292958324463029
 21
-42.1596734634331796
 31
0.0
  0
ARC
  5
7713
  8
0
 10
292.6443564562852089
 20
-42.8071788951580885
 30
0.0
 40
0.0325
 50
178.4561722770368988
 51
270.0000000000032969
  0
ARC
  5
7714
  8
0
 10
296.575666621526409
 20
-65.0058729663090844
 30
0.0
 40
23.3949640252563107
 50
91.9037371174808158
 51
94.437169250547413
  0
ARC
  5
7715
  8
0
 10
294.7519771247755784
 20
-24.4265598424547115
 30
0.0
 40
17.2290736889503009
 50
273.4823099729071032
 51
286.1882621317658959
  0
ARC
  5
7716
  8
0
 10
286.7348045926767099
 20
6.4498490630516301
 30
0.0
 40
49.1248092393236533
 50
285.1281576706199985
 51
289.1199078301859231
  0
ARC
  5
7717
  8
0
 10
313.3748114709861738
 20
-68.6075823402747744
 30
0.0
 40
30.5235429579491893
 50
102.4899348142440942
 51
110.2192772918673001
  0
ARC
  5
7718
  8
0
 10
312.8860154733741865
 20
-68.9536443344623251
 30
0.0
 40
30.7606585511859087
 50
93.9217610280659727
 51
101.4615758736602942
  0
ARC
  5
7719
  8
0
 10
313.6014324794811046
 20
-80.5258277885222924
 30
0.0
 40
42.354745988482378
 50
92.9649071172314621
 51
93.8166129410505931
  0
LINE
  5
771A
  8
0
 10
311.7961572243162891
 20
-38.2484908648334923
 30
0.0
 11
312.063417429147421
 21
-38.8263116665293992
 31
0.0
  0
ARC
  5
771B
  8
0
 10
311.7637553253377973
 20
-38.2634777571927103
 30
0.0
 40
0.0357
 50
24.8220185200301202
 51
90.0
  0
ARC
  5
771C
  8
0
 10
311.7965443726732246
 20
-38.7451334353351982
 30
0.0
 40
0.4777883843136124
 50
88.0825414601330863
 51
88.9965413574931432
  0
ARC
  5
771D
  8
0
 10
311.8119803371121179
 20
-38.2840619707864533
 30
0.0
 40
0.0164586059345094
 50
34.1266803892053616
 51
88.0825414601347347
  0
ARC
  5
771E
  8
0
 10
483.8015524053978993
 20
54.0775327403810877
 30
0.0
 40
195.2042139839668948
 50
208.2361287262934013
 51
208.4197621676790959
  0
ARC
  5
771F
  8
0
 10
311.7864656848677214
 20
-38.9649187678882711
 30
0.0
 40
0.3637735394220661
 50
353.7123364959346077
 51
22.5292105047679989
  0
ARC
  5
7720
  8
0
 10
311.8535421985860125
 20
-38.2654119767245788
 30
0.0
 40
0.0433768432978882
 50
119.8178202113197983
 51
182.812979630839493
  0
LINE
  5
7721
  8
0
 10
312.7501838496265236
 20
-38.2405162468500421
 30
0.0
 11
313.0140532952977992
 21
-38.6900005326055307
 31
0.0
  0
ARC
  5
7722
  8
0
 10
312.7279344238457952
 20
-38.2535777571927014
 30
0.0
 40
0.0258
 50
30.4150357755860092
 51
90.0
  0
LINE
  5
7723
  8
0
 10
292.9472835197416885
 20
-42.8396788951580874
 30
0.0
 11
292.9426010126853157
 21
-42.9741098919844191
 31
0.0
  0
LINE
  5
7724
  8
0
 10
293.000968939520817
 20
-42.9944956674580894
 30
0.0
 11
293.002528481155025
 21
-43.0540511678223012
 31
0.0
  0
ARC
  5
7725
  8
0
 10
293.0222217302322747
 20
-43.0535354733581102
 30
0.0
 40
0.0197
 50
181.5000249701242012
 51
270.0000000000048885
  0
LINE
  5
7726
  8
0
 10
292.9622890728234097
 20
-42.9944956674580894
 30
0.0
 11
297.9916145453976242
 21
-42.9944956674580894
 31
0.0
  0
ARC
  5
7727
  8
0
 10
292.9622890728234097
 20
-42.9747956674581175
 30
0.0
 40
0.0197
 50
178.0050771392612887
 51
270.0
  0
LINE
  5
7728
  8
0
 10
294.7014569756105971
 20
-43.0732350730580933
 30
0.0
 11
294.9453246800375723
 21
-43.3290891068056823
 31
0.0
  0
LINE
  5
7729
  8
0
 10
296.5287914413106023
 20
-43.0732342830580919
 30
0.0
 11
296.3064235552781724
 21
-43.3290891068056823
 31
0.0
  0
ARC
  5
772A
  8
0
 10
290.4358946745347794
 20
28.8764655586948713
 30
0.0
 40
71.2363609520064784
 50
274.2992367582710926
 51
275.6989719649836843
  0
ARC
  5
772B
  8
0
 10
292.922322941675418
 20
-4.849356053148056
 30
0.0
 40
37.4405507539315181
 50
277.037964032343325
 51
282.6845513318619965
  0
ARC
  5
772C
  8
0
 10
280.9255477242127768
 20
51.6120638860553171
 30
0.0
 40
95.1607816827662134
 50
282.2666953846181741
 51
284.0839575288950982
  0
ARC
  5
772D
  8
0
 10
338.7253223841249792
 20
-176.6796888469677924
 30
0.0
 40
140.3346832748422912
 50
102.6833262370667939
 51
104.2917816445196024
  0
ARC
  5
772E
  8
0
 10
368.1260365699694717
 20
-313.5663865599552196
 30
0.0
 40
280.3397827699849927
 50
101.7335248931713068
 51
102.4029433670393985
  0
ARC
  5
772F
  8
0
 10
308.2177115820726954
 20
-21.2920769728446295
 30
0.0
 40
18.0270334663406899
 50
279.2521014218443156
 51
282.3523305411590059
  0
ARC
  5
7730
  8
0
 10
311.9910568910863731
 20
-38.875053039324861
 30
0.0
 40
0.0872454519758024
 50
342.1504526343877046
 51
33.9638344678836503
  0
ARC
  5
7731
  8
0
 10
276.0275010000074758
 20
388.0406334711958038
 30
0.0
 40
431.2674078788560905
 50
272.4277606562351934
 51
272.6600761255842826
  0
ARC
  5
7732
  8
0
 10
294.8475998025722902
 20
-22.3847959319458596
 30
0.0
 40
20.4122902258518018
 50
273.3567527120379737
 51
276.3097565459412976
  0
ARC
  5
7733
  8
0
 10
291.0505154133268775
 20
6.4766060133975989
 30
0.0
 40
49.5198309439847222
 50
277.0064331323953866
 51
281.7943318753253834
  0
ARC
  5
7734
  8
0
 10
279.5932261009152739
 20
61.3466731791087625
 30
0.0
 40
105.5733210151475987
 50
281.7943318753253834
 51
283.604355638200218
  0
ARC
  5
7735
  8
0
 10
425.877748833216117
 20
-549.537241351325747
 30
0.0
 40
522.581738593190039
 50
103.1252505676807942
 51
103.4388611081867992
  0
ARC
  5
7736
  8
0
 10
276.0729456558756283
 20
91.2028296723448761
 30
0.0
 40
135.4379493362953895
 50
283.2909603781939722
 51
284.4817732458615751
  0
ARC
  5
7737
  8
0
 10
472.0621042707093125
 20
-667.6267749007234897
 30
0.0
 40
648.2929477649163346
 50
104.3480332712544936
 51
104.4817732458616035
  0
ARC
  5
7738
  8
0
 10
311.1203417475488777
 20
-38.4313925102016327
 30
0.0
 40
1.159960570720183
 50
284.3480332712545078
 51
310.1156965578603035
  0
ARC
  5
7739
  8
0
 10
311.2785169085155985
 20
-38.767210925221157
 30
0.0
 40
0.8068889749910026
 50
316.9068603393894819
 51
350.3985163666499716
  0
ARC
  5
773A
  8
0
 10
299.2890248047875161
 20
-72.3775275466603603
 30
0.0
 40
29.4116615612818784
 50
90.8824830434125346
 51
92.5282577561887081
  0
ARC
  5
773B
  8
0
 10
298.3913162173408864
 20
-14.0978287678435397
 30
0.0
 40
28.8749507133871504
 50
270.882483043412492
 51
275.5241750511301007
  0
ARC
  5
773C
  8
0
 10
299.1757049551515024
 20
-22.2081472650370984
 30
0.0
 40
20.7267894595873692
 50
275.5241750511301007
 51
284.6237624919472182
  0
ARC
  5
773D
  8
0
 10
299.0989277571953266
 20
-21.9138954086392097
 30
0.0
 40
21.0308928846249685
 50
284.6237624919472182
 51
289.9601871297585944
  0
ARC
  5
773E
  8
0
 10
572.989969074162218
 20
-785.7498543018419923
 30
0.0
 40
790.425801049675897
 50
109.5819499077334029
 51
109.720250353460699
  0
ARC
  5
773F
  8
0
 10
295.832225327400522
 20
-7.0753608785320523
 30
0.0
 40
36.1036194455037887
 50
289.822094798219382
 51
291.5926773375805965
  0
ARC
  5
7740
  8
0
 10
308.7859487867555117
 20
-39.8049522168860008
 30
0.0
 40
0.9038310848175676
 50
291.5926773375805965
 51
328.3546504964486985
  0
ARC
  5
7741
  8
0
 10
308.5650571687756951
 20
-39.6688176630583271
 30
0.0
 40
1.1633030941742699
 50
328.3546504964486985
 51
343.5005782299620023
  0
ARC
  5
7742
  8
0
 10
296.954904191446019
 20
11.6828968533696909
 30
0.0
 40
54.7627165262817712
 50
270.8884868050931232
 51
272.706377628963196
  0
ARC
  5
7743
  8
0
 10
297.6427929930260916
 20
-2.869325252794567
 30
0.0
 40
40.1942451160591077
 50
272.706377628963196
 51
275.0572768858987729
  0
ARC
  5
7744
  8
0
 10
298.4025264332705092
 20
-11.4542647454016997
 30
0.0
 40
31.5757544714072793
 50
275.0572768858987729
 51
277.7749843992165211
  0
ARC
  5
7745
  8
0
 10
301.0954404818800185
 20
-31.1770547444577915
 30
0.0
 40
11.6699706028914605
 50
277.7749843992165211
 51
286.3801233424334214
  0
ARC
  5
7746
  8
0
 10
296.3204131669551771
 20
-13.5352189931181801
 30
0.0
 40
29.944947348331219
 50
285.6263632096453193
 51
289.5463373905454887
  0
ARC
  5
7747
  8
0
 10
83.0381090099869823
 20
575.4892567402312125
 30
0.0
 40
656.3940455506592571
 50
289.8886608376895992
 51
290.0520454872221876
  0
ARC
  5
7748
  8
0
 10
645.19923901640243
 20
-931.1752491681041874
 30
0.0
 40
951.7583402494138909
 50
110.677368298216507
 51
110.7436590958337064
  0
ARC
  5
7749
  8
0
 10
308.9434908044246981
 20
-40.1070780994375582
 30
0.0
 40
0.64571064099116
 50
286.6319316769796046
 51
308.1520491436465932
  0
ARC
  5
774A
  8
0
 10
308.5999439590578959
 20
-39.6697553201804283
 30
0.0
 40
1.2018362097421891
 50
308.1520491436465932
 51
345.1178196279494159
  0
LINE
  5
774B
  8
0
 10
300.1021166485423919
 20
-42.9882617741837905
 30
0.0
 11
300.4088262164106027
 21
-43.2328033768580866
 31
0.0
  0
ARC
  5
774C
  8
0
 10
300.5179646929647106
 20
-43.0959194494787567
 30
0.0
 40
0.1750668918994402
 50
231.4344087310701923
 51
262.426973134402715
  0
LINE
  5
774D
  8
0
 10
300.4948926726106038
 20
-43.2694593541580872
 30
0.0
 11
302.7581007832611135
 21
-43.2700912199311887
 31
0.0
  0
LINE
  5
774E
  8
0
 10
302.8513012042200216
 20
-42.71417600567775
 30
0.0
 11
302.7973015092819082
 21
-43.2347563637864525
 31
0.0
  0
ARC
  5
774F
  8
0
 10
302.7581117833589133
 20
-43.2306912214667634
 30
0.0
 40
0.0394
 50
269.9840035739940731
 51
354.0779001538383
  0
ARC
  5
7750
  8
0
 10
303.620375280758708
 20
-43.1940394452802678
 30
0.0
 40
0.4185599309820695
 50
175.7651067553399002
 51
198.8234495661382084
  0
ARC
  5
7751
  8
0
 10
307.5647931899289915
 20
-43.4861146110392411
 30
0.0
 40
4.3737768080491302
 50
172.7646311475459129
 51
175.7651067553399002
  0
ARC
  5
7752
  8
0
 10
303.2755668211087254
 20
-42.9328831180658028
 30
0.0
 40
0.0497792930258679
 50
99.4727949762468597
 51
182.7327552306419989
  0
ARC
  5
7753
  8
0
 10
277.3416771085878736
 20
41.4158080584638526
 30
0.0
 40
88.196160674195454
 50
287.0948815520985136
 51
291.2764029795011993
  0
ARC
  5
7754
  8
0
 10
308.9245448428279133
 20
-39.8694572031295777
 30
0.0
 40
0.9930097810924893
 50
295.0628749414823915
 51
355.9917684995402851
  0
LINE
  5
7755
  8
0
 10
313.0317338515220058
 20
-38.751810339109781
 30
0.0
 11
313.1446124242391988
 21
-43.0223423106877121
 31
0.0
  0
ARC
  5
7756
  8
0
 10
312.902978642563312
 20
-38.7552068323005727
 30
0.0
 40
0.1288
 50
1.5110814166891799
 51
30.4150357755860092
  0
ARC
  5
7757
  8
0
 10
311.2227634359114745
 20
-38.4028436838305893
 30
0.0
 40
1.3156894785185711
 50
256.4179964201903772
 51
271.8868340049634753
  0
ARC
  5
7758
  8
0
 10
311.2322529520544094
 20
-38.6908990514188886
 30
0.0
 40
1.0274778449694559
 50
271.8868340049634753
 51
306.6120583223959102
  0
ARC
  5
7759
  8
0
 10
311.2706772972234148
 20
-38.8296798397518401
 30
0.0
 40
0.8946716667554913
 50
309.9392692308481969
 51
348.7148863391648774
  0
LINE
  5
775A
  8
0
 10
312.188327876860626
 20
-38.8827043053927213
 30
0.0
 11
313.0317338515220058
 21
-38.751810339109781
 31
0.0
  0
ARC
  5
775B
  8
0
 10
312.6137104131615274
 20
-39.0985819030637529
 30
0.0
 40
0.4770256170962071
 50
153.0926391317310049
 51
166.7199208916022997
  0
ARC
  5
775C
  8
0
 10
303.7613583725949979
 20
-43.173842882008941
 30
0.0
 40
0.438957002681843
 50
175.932914637154596
 51
200.7119958500570078
  0
ARC
  5
775D
  8
0
 10
62.7741865013488507
 20
77.7225295613367564
 30
0.0
 40
269.2069494930066185
 50
333.3225245679005866
 51
333.3441873560963131
  0
ARC
  5
775E
  8
0
 10
303.4161019852775212
 20
-43.0740245889041802
 30
0.0
 40
0.0519329100100902
 50
92.0558393955260783
 51
154.6050846661269134
  0
LINE
  5
775F
  8
0
 10
303.4142389717134165
 20
-43.0221251060303018
 30
0.0
 11
308.3692665838105995
 21
-43.0220547980580932
 31
0.0
  0
ARC
  5
7760
  8
0
 10
303.2182042675595994
 20
-43.160065987166881
 30
0.0
 40
0.0153595461399676
 50
99.2249621535643911
 51
162.8595284523827047
  0
ARC
  5
7761
  8
0
 10
303.2960437887978742
 20
-44.4408911688896282
 30
0.0
 40
1.298471521222625
 50
88.7880889986112862
 51
93.5456255162165036
  0
LINE
  5
7762
  8
0
 10
308.9886625875105892
 20
-43.0220547980580932
 30
0.0
 11
313.2036153896156065
 21
-43.0223463925699292
 31
0.0
  0
LINE
  5
7763
  8
0
 10
308.3735126783105898
 20
-43.2653133888580825
 30
0.0
 11
308.9844252062105738
 21
-43.2648142094581019
 31
0.0
  0
LINE
  5
7764
  8
0
 10
308.9844252062105738
 20
-43.2648142094581019
 30
0.0
 11
308.9948896012106161
 21
-42.6653094172580865
 31
0.0
  0
LINE
  5
7765
  8
0
 10
308.3735126783105898
 20
-43.2653133888580825
 30
0.0
 11
308.3630394930106036
 21
-42.6653050089581001
 31
0.0
  0
LINE
  5
7766
  8
0
 10
308.3379966102659182
 20
-43.0220552417545932
 30
0.0
 11
308.3436431900465777
 21
-42.6985624423093029
 31
0.0
  0
ARC
  5
7767
  8
0
 10
308.3830371892527751
 20
-42.6992500661444794
 30
0.0
 40
0.0394
 50
90.0191024864316631
 51
179.0000014231314083
  0
LINE
  5
7768
  8
0
 10
309.0199325996687207
 20
-43.0220569613477934
 30
0.0
 11
309.0142825374837798
 21
-42.6983651173203427
 31
0.0
  0
ARC
  5
7769
  8
0
 10
308.974888538294806
 20
-42.6990527421377166
 30
0.0
 40
0.0394
 50
1.0000000054139191
 51
90.0191024864316631
  0
LINE
  5
776A
  8
0
 10
308.3830240532424796
 20
-42.6598500683342508
 30
0.0
 11
308.9748754022843968
 21
-42.659652744327488
 31
0.0
  0
LINE
  5
776B
  8
0
 10
308.4037358607295118
 20
-43.1716610972580881
 30
0.0
 11
308.9541933105916769
 21
-43.1716610972580881
 31
0.0
  0
ARC
  5
776C
  8
0
 10
308.9541933105916769
 20
-43.1519610972580878
 30
0.0
 40
0.0197
 50
270.0
 51
0.9999999989056662
  0
ARC
  5
776D
  8
0
 10
308.4037358607295118
 20
-43.1519610972580878
 30
0.0
 40
0.0197
 50
178.9999999987896899
 51
270.0
  0
LINE
  5
776E
  8
0
 10
308.9661597505644863
 20
-42.7087338202516591
 30
0.0
 11
308.9738903101862775
 21
-43.1516172848516675
 31
0.0
  0
ARC
  5
776F
  8
0
 10
308.9464627509698857
 20
-42.7090776326580865
 30
0.0
 40
0.0197
 50
0.9999999989056662
 51
90.0000000107086464
  0
LINE
  5
7770
  8
0
 10
308.3917694207727891
 20
-42.7087338203508509
 30
0.0
 11
308.3840388611350249
 21
-43.1516172848508788
 31
0.0
  0
ARC
  5
7771
  8
0
 10
308.411466420367276
 20
-42.7090776327580883
 30
0.0
 40
0.0197
 50
90.0000000107086464
 51
178.99999999879131
  0
LINE
  5
7772
  8
0
 10
308.4114664203636949
 20
-42.6893776327580809
 30
0.0
 11
308.9464627509661909
 21
-42.6893776326580934
 31
0.0
  0
LINE
  5
7773
  8
0
 10
308.3653495022589937
 20
-42.7976453492581115
 30
0.0
 11
308.3902174642610134
 21
-42.7976453492581115
 31
0.0
  0
LINE
  5
7774
  8
0
 10
308.3677547277576991
 20
-42.9354406248581029
 30
0.0
 11
308.387812238775723
 21
-42.9354406248581029
 31
0.0
  0
LINE
  5
7775
  8
0
 10
308.9889374704105762
 20
-43.0063067665580974
 30
0.0
 11
308.9713539056575087
 21
-43.0063067665580974
 31
0.0
  0
LINE
  5
7776
  8
0
 10
308.9882466650378205
 20
-43.0458829783581081
 30
0.0
 11
308.9720496789266804
 21
-43.0461675904971273
 31
0.0
  0
ARC
  5
7777
  8
0
 10
308.5489860150991035
 20
-42.7041016591420188
 30
0.0
 40
0.0470385977122375
 50
109.641389872808702
 51
161.7586698866558947
  0
ARC
  5
7778
  8
0
 10
308.7846467061738167
 20
-42.690480464573838
 30
0.0
 40
0.0326900107545947
 50
1.9333000845625281
 51
70.2548022222743782
  0
LINE
  5
7779
  8
0
 10
312.0002721145106079
 20
-43.0220561527580827
 30
0.0
 11
312.0037655675106976
 21
-42.7940973410580767
 31
0.0
  0
ARC
  5
777A
  8
0
 10
312.3648565363964167
 20
-42.7996310351457083
 30
0.0
 40
0.3611333681357874
 50
150.1224405061225866
 51
179.1220148758108053
  0
ARC
  5
777B
  8
0
 10
312.1711238040755916
 20
-42.6883307171468616
 30
0.0
 40
0.1377052312346765
 50
83.2416455450475183
 51
150.1224405061203129
  0
LINE
  5
777C
  8
0
 10
312.0398278870105742
 20
-43.0220548528580906
 30
0.0
 11
312.0433509447105962
 21
-42.7940959335580686
 31
0.0
  0
ARC
  5
777D
  8
0
 10
312.4260061823457022
 20
-42.8000097906931174
 30
0.0
 40
0.3827009336228181
 50
160.8322382510231137
 51
179.1145761308895032
  0
ARC
  5
777E
  8
0
 10
312.284022020809175
 20
-42.75065523425328
 30
0.0
 40
0.2323833552475921
 50
130.7271212037043995
 51
160.8322382510231137
  0
ARC
  5
777F
  8
0
 10
312.1951327865787107
 20
-42.6474108596030277
 30
0.0
 40
0.096145706783608
 50
94.6554505288435593
 51
130.727121203702211
  0
ARC
  5
7780
  8
0
 10
312.1951444457540106
 20
-42.6475540360321617
 30
0.0
 40
0.0962893571446325
 50
54.1618984265836332
 51
94.6554505288435593
  0
ARC
  5
7781
  8
0
 10
312.1442782445896
 20
-42.7179829988983073
 30
0.0
 40
0.183166334712331
 50
23.9746814024841406
 51
54.1618984265836332
  0
ARC
  5
7782
  8
0
 10
311.9081795245676858
 20
-42.8229759345970535
 30
0.0
 40
0.4415577473842161
 50
11.8721611989471594
 51
23.9746814024841406
  0
LINE
  5
7783
  8
0
 10
312.3402919365939283
 20
-42.7321348224945581
 30
0.0
 11
312.3583840664106219
 21
-43.0220548025581024
 31
0.0
  0
LINE
  5
7784
  8
0
 10
312.076988776035023
 20
-43.0222684514510476
 30
0.0
 11
312.0830302038181117
 21
-42.7615335178194513
 31
0.0
  0
ARC
  5
7785
  8
0
 10
312.3267190098925994
 20
-42.7901401922089732
 30
0.0
 40
0.2453621324198729
 50
149.7723003781214004
 51
173.3046804012525968
  0
ARC
  5
7786
  8
0
 10
312.2206689309928151
 20
-42.7263609659537096
 30
0.0
 40
0.1216347820494756
 50
115.5295527825460056
 51
150.5814229981093035
  0
ARC
  5
7787
  8
0
 10
312.1972517508626197
 20
-42.6858530598432182
 30
0.0
 40
0.075079575763388
 50
48.0612594636133181
 51
112.7255641767306997
  0
ARC
  5
7788
  8
0
 10
312.1228946053875006
 20
-42.7661705539888573
 30
0.0
 40
0.18452728436864
 50
14.7808575637312298
 51
47.5544397250397992
  0
ARC
  5
7789
  8
0
 10
311.9911304195613866
 20
-42.8115703688098321
 30
0.0
 40
0.3236770773400865
 50
2.5471724204824282
 51
16.6011347854541818
  0
ARC
  5
778A
  8
0
 10
9517.872460149883409
 20
397.8634754717575106
 30
0.0
 40
9216.0989253807929344
 50
182.7405984374665877
 51
182.7419994706646946
  0
ARC
  5
778B
  8
0
 10
312.2197844454652795
 20
-42.7065169151999982
 30
0.0
 40
0.0564750040848741
 50
47.1705282411050106
 51
127.7571927360633026
  0
ARC
  5
778C
  8
0
 10
312.0895312985317105
 20
-42.8077431094299499
 30
0.0
 40
0.2208816637165646
 50
320.3614824642680787
 51
40.2251634254356816
  0
ARC
  5
778D
  8
0
 10
312.2184086601766921
 20
-42.9050881815022009
 30
0.0
 40
0.0599748051076128
 50
209.1132955582322097
 51
313.4161176485931719
  0
ARC
  5
778E
  8
0
 10
312.3540258252317017
 20
-42.8106385784384287
 30
0.0
 40
0.2250195962344046
 50
138.6124259540038963
 51
213.327038393083086
  0
ARC
  5
778F
  8
0
 10
312.1585107087449842
 20
-42.7146038507671832
 30
0.0
 40
0.0649664159894338
 50
99.4016112600360344
 51
132.3824519431684905
  0
ARC
  5
7790
  8
0
 10
312.1964055902620885
 20
-44.8097185917290375
 30
0.0
 40
2.1597532991060779
 50
89.4290882695623139
 51
91.2869535742657519
  0
ARC
  5
7791
  8
0
 10
312.1971966642071834
 20
-42.8557510426383033
 30
0.0
 40
0.1236047251909474
 50
198.4438617577037007
 51
233.6245585843969934
  0
ARC
  5
7792
  8
0
 10
312.1534838082848182
 20
-42.9150949558189581
 30
0.0
 40
0.0498991364985446
 50
233.6245585843929859
 51
271.8464173165236275
  0
ARC
  5
7793
  8
0
 10
312.1853189261660191
 20
-43.902621669894522
 30
0.0
 40
0.9381405822088366
 50
88.2183062841594818
 51
91.8464173165235707
  0
LINE
  5
7794
  8
0
 10
312.2753821872954063
 20
-42.9271087515216294
 30
0.0
 11
312.2753821872954063
 21
-43.0222821764991394
 31
0.0
  0
LINE
  5
7795
  8
0
 10
309.9619517797469825
 20
-41.3192988925580806
 30
0.0
 11
311.7568791841105735
 21
-41.3192988925580806
 31
0.0
  0
LINE
  5
7796
  8
0
 10
309.8399517797470253
 20
-41.4412988925581018
 30
0.0
 11
309.8399517797470253
 21
-42.5280075539580906
 31
0.0
  0
LINE
  5
7797
  8
0
 10
309.9619517797469825
 20
-42.6500075539581118
 30
0.0
 11
311.7568791841105735
 21
-42.6500075539581118
 31
0.0
  0
LINE
  5
7798
  8
0
 10
311.8788791841105876
 20
-42.5280075539580906
 30
0.0
 11
311.8788791841105876
 21
-41.4412988925581018
 31
0.0
  0
ARC
  5
7799
  8
0
 10
309.9619517797469825
 20
-41.4412988925581018
 30
0.0
 40
0.122
 50
90.0000000000065086
 51
179.9999999999967031
  0
ARC
  5
779A
  8
0
 10
309.9619517797469825
 20
-42.5280075539580906
 30
0.0
 40
0.122
 50
180.0000000000015916
 51
269.9999999999951115
  0
ARC
  5
779B
  8
0
 10
311.7568791841105735
 20
-42.5280075539580906
 30
0.0
 40
0.122
 50
270.0
 51
359.9999999999968168
  0
ARC
  5
779C
  8
0
 10
311.7568791841105735
 20
-41.4412988925581018
 30
0.0
 40
0.122
 50
0.0000000000016284
 51
90.0
  0
ARC
  5
779D
  8
0
 10
311.6335077049159281
 20
-41.4494158870163503
 30
0.0
 40
0.1544603432139615
 50
1.631828323077509
 51
57.3941538076581921
  0
ARC
  5
779E
  8
0
 10
1099.0420565573949716
 20
-19.0173429265199694
 30
0.0
 40
787.573551538597826
 50
181.6318283230775137
 51
181.7100490813539011
  0
ARC
  5
779F
  8
0
 10
311.6750570303294126
 20
-42.5240682440111399
 30
0.0
 40
0.144264737894611
 50
299.1939465192236867
 51
1.7100490813539659
  0
LINE
  5
77A0
  8
0
 10
311.7073682846105953
 20
-41.8862280672581093
 30
0.0
 11
311.7108328215106212
 21
-42.0830779820581071
 31
0.0
  0
LINE
  5
77A1
  8
0
 10
311.7108328215106212
 20
-42.0830779820581071
 30
0.0
 11
311.7617056226490035
 21
-41.9846537129356108
 31
0.0
  0
LINE
  5
77A2
  8
0
 10
311.7617056226490035
 20
-41.9846537129356108
 30
0.0
 11
311.7073682846105953
 21
-41.8862280672581093
 31
0.0
  0
LINE
  5
77A3
  8
0
 10
310.0031718299106274
 20
-42.2794148631581024
 30
0.0
 11
310.0067941965106115
 21
-42.4824987943580865
 31
0.0
  0
LINE
  5
77A4
  8
0
 10
310.0067941965106115
 20
-42.4824987943580865
 30
0.0
 11
311.6662108651926246
 21
-42.4828099974302873
 31
0.0
  0
LINE
  5
77A5
  8
0
 10
311.6662108651926246
 20
-42.4828099974302873
 30
0.0
 11
311.662631272110616
 21
-42.2793995064580983
 31
0.0
  0
LINE
  5
77A6
  8
0
 10
311.662631272110616
 20
-42.2793995064580983
 30
0.0
 11
310.0031718299106274
 21
-42.2794148631581024
 31
0.0
  0
LINE
  5
77A7
  8
0
 10
310.8900201441066997
 20
-42.2794179381078834
 30
0.0
 11
310.8902772859491961
 21
-42.4438721908470811
 31
0.0
  0
ARC
  5
77A8
  8
0
 10
310.8829418392134016
 20
-42.4438836606039374
 30
0.0
 40
0.0073354557028929
 50
269.8730160990161835
 51
0.0895880164951013
  0
ARC
  5
77A9
  8
0
 10
310.8913331657540766
 20
-42.4226432420622785
 30
0.0
 40
0.0297870278476375
 50
207.9020663788978993
 51
253.6050704828583946
  0
ARC
  5
77AA
  8
0
 10
312.792729198976815
 20
-41.590126175246553
 30
0.0
 40
2.105372574260556
 50
200.2635145768138045
 51
203.7061353575911085
  0
LINE
  5
77AB
  8
0
 10
310.8176588284105719
 20
-42.3192974224580922
 30
0.0
 11
310.0038918566307871
 21
-42.3197740743808524
 31
0.0
  0
LINE
  5
77AC
  8
0
 10
310.0031718299106274
 20
-42.0645921427122786
 30
0.0
 11
310.0067941965106115
 21
-42.2676760739122912
 31
0.0
  0
LINE
  5
77AD
  8
0
 10
310.0067941965106115
 20
-42.2676760739122912
 30
0.0
 11
311.6662108651926246
 21
-42.2679872769844707
 31
0.0
  0
LINE
  5
77AE
  8
0
 10
311.6662108651926246
 20
-42.2679872769844707
 30
0.0
 11
311.662631272110616
 21
-42.0645767860122675
 31
0.0
  0
LINE
  5
77AF
  8
0
 10
311.662631272110616
 20
-42.0645767860122675
 30
0.0
 11
310.0031718299106274
 21
-42.0645921427122786
 31
0.0
  0
LINE
  5
77B0
  8
0
 10
310.8900201441066997
 20
-42.0645952176620526
 30
0.0
 11
310.8902772859491961
 21
-42.2290494704012573
 31
0.0
  0
ARC
  5
77B1
  8
0
 10
310.8829418392134016
 20
-42.2290609401580781
 30
0.0
 40
0.0073354557028929
 50
269.8730160990161835
 51
0.0895880164951013
  0
ARC
  5
77B2
  8
0
 10
310.8913331657540766
 20
-42.2078205216164619
 30
0.0
 40
0.0297870278476375
 50
207.9020663788978993
 51
253.6050704828583946
  0
ARC
  5
77B3
  8
0
 10
312.792729198976815
 20
-41.3753034548006866
 30
0.0
 40
2.105372574260556
 50
200.2635145768138045
 51
203.7061353575911085
  0
LINE
  5
77B4
  8
0
 10
310.8176588284105719
 20
-42.1044747020122685
 30
0.0
 11
310.0038918566307871
 21
-42.1049513539350286
 31
0.0
  0
LINE
  5
77B5
  8
0
 10
310.0031718299106274
 20
-41.8525010572247567
 30
0.0
 11
310.0067941965106115
 21
-42.0555849884247408
 31
0.0
  0
LINE
  5
77B6
  8
0
 10
310.0067941965106115
 20
-42.0555849884247408
 30
0.0
 11
311.6662108651926246
 21
-42.0558961914969629
 31
0.0
  0
LINE
  5
77B7
  8
0
 10
311.6662108651926246
 20
-42.0558961914969629
 30
0.0
 11
311.662631272110616
 21
-41.8524857005247526
 31
0.0
  0
LINE
  5
77B8
  8
0
 10
311.662631272110616
 20
-41.8524857005247526
 30
0.0
 11
310.0031718299106274
 21
-41.8525010572247567
 31
0.0
  0
LINE
  5
77B9
  8
0
 10
310.8900201441066997
 20
-41.8525041321745306
 30
0.0
 11
310.8902772859491961
 21
-42.0169583849137425
 31
0.0
  0
ARC
  5
77BA
  8
0
 10
310.8829418392134016
 20
-42.0169698546705987
 30
0.0
 40
0.0073354557028929
 50
269.8730160990161835
 51
0.0895880164951013
  0
ARC
  5
77BB
  8
0
 10
310.8913331657540766
 20
-41.995729436128947
 30
0.0
 40
0.0297870278476375
 50
207.9020663788978993
 51
253.6050704828583946
  0
ARC
  5
77BC
  8
0
 10
312.792729198976815
 20
-41.1632123693132002
 30
0.0
 40
2.105372574260556
 50
200.2635145768138045
 51
203.7061353575911085
  0
LINE
  5
77BD
  8
0
 10
310.8176588284105719
 20
-41.8923836165247607
 30
0.0
 11
310.0038918566307871
 21
-41.8928602684475067
 31
0.0
  0
LINE
  5
77BE
  8
0
 10
310.0031718299106274
 20
-41.6399648807709397
 30
0.0
 11
310.0067941965106115
 21
-41.8430488119709523
 31
0.0
  0
LINE
  5
77BF
  8
0
 10
310.0067941965106115
 20
-41.8430488119709523
 30
0.0
 11
311.6662108651926246
 21
-41.8433600150431602
 31
0.0
  0
LINE
  5
77C0
  8
0
 10
311.6662108651926246
 20
-41.8433600150431602
 30
0.0
 11
311.662631272110616
 21
-41.639949524070957
 31
0.0
  0
LINE
  5
77C1
  8
0
 10
311.662631272110616
 20
-41.639949524070957
 30
0.0
 11
310.0031718299106274
 21
-41.6399648807709397
 31
0.0
  0
LINE
  5
77C2
  8
0
 10
310.8900201441066997
 20
-41.6399679557207421
 30
0.0
 11
310.8902772859491961
 21
-41.8044222084599468
 31
0.0
  0
ARC
  5
77C3
  8
0
 10
310.8829418392134016
 20
-41.8044336782167676
 30
0.0
 40
0.0073354557028929
 50
269.8730160990161835
 51
0.0895880164951013
  0
ARC
  5
77C4
  8
0
 10
310.8913331657540766
 20
-41.7831932596751514
 30
0.0
 40
0.0297870278476375
 50
207.9020663788978993
 51
253.6050704828583946
  0
ARC
  5
77C5
  8
0
 10
312.792729198976815
 20
-40.9506761928593832
 30
0.0
 40
2.105372574260556
 50
200.2635145768138045
 51
203.7061353575911085
  0
LINE
  5
77C6
  8
0
 10
310.8176588284105719
 20
-41.6798474400709296
 30
0.0
 11
310.0038918566307871
 21
-41.6803240919937181
 31
0.0
  0
LINE
  5
77C7
  8
0
 10
310.0053569097344166
 20
-41.5477295196638607
 30
0.0
 11
310.0067941965106115
 21
-41.6283093949259566
 31
0.0
  0
LINE
  5
77C8
  8
0
 10
310.0067941965106115
 20
-41.6283093949259566
 30
0.0
 11
311.6662108651926246
 21
-41.6286205979981432
 31
0.0
  0
LINE
  5
77C9
  8
0
 10
311.6662108651926246
 20
-41.6286205979981432
 30
0.0
 11
311.6647653420404822
 21
-41.5464786988097714
 31
0.0
  0
LINE
  5
77CA
  8
0
 10
310.8901553483646012
 20
-41.5116979945728133
 30
0.0
 11
310.8902772859491961
 21
-41.5896827914149227
 31
0.0
  0
ARC
  5
77CB
  8
0
 10
310.8829418392134016
 20
-41.5896942611717506
 30
0.0
 40
0.0073354557028929
 50
269.8730160990161835
 51
0.0895880164951013
  0
ARC
  5
77CC
  8
0
 10
310.8913331657540766
 20
-41.5684538426301273
 30
0.0
 40
0.0297870278476375
 50
207.9020663788978993
 51
253.6050704828583946
  0
ARC
  5
77CD
  8
0
 10
312.792729198976815
 20
-40.7359367758143591
 30
0.0
 40
2.105372574260556
 50
202.2126364199594093
 51
203.7061353575911085
  0
LINE
  5
77CE
  8
0
 10
310.0407513548897782
 20
-41.5116981975145478
 30
0.0
 11
311.6293708972877994
 21
-41.5117015672654901
 31
0.0
  0
ARC
  5
77CF
  8
0
 10
310.0407512798000198
 20
-41.5470981975144369
 30
0.0
 40
0.0354
 50
89.9998784652331949
 51
181.0218647562512899
  0
ARC
  5
77D0
  8
0
 10
311.6293708221979273
 20
-41.5471015672654218
 30
0.0
 40
0.0354
 50
1.008180095484617
 51
89.9998784652217836
  0
LINE
  5
77D1
  8
0
 10
310.008797760222194
 20
-41.5318622995563302
 30
0.0
 11
310.8436021540911725
 21
-41.5318622995563302
 31
0.0
  0
LINE
  5
77D2
  8
0
 10
316.9353408372056151
 20
-30.3457755828288498
 30
0.0
 11
316.9353408372217018
 21
-30.2774541007925713
 31
0.0
  0
ARC
  5
77D3
  8
0
 10
316.9747109159889078
 20
-30.2774541008600089
 30
0.0
 40
0.0393700787674368
 50
90.0000000981495702
 51
179.9999999018569099
  0
LINE
  5
77D4
  8
0
 10
316.9747109159214915
 20
-30.2380840220925791
 30
0.0
 11
318.7857345379215985
 21
-30.2380840189904916
 31
0.0
  0
ARC
  5
77D5
  8
0
 10
318.7857345379887875
 20
-30.2774540977230515
 30
0.0
 40
0.039370078732567
 50
359.9999955328768806
 51
90.0000000981495702
  0
LINE
  5
77D6
  8
0
 10
318.8251046167214895
 20
-30.2774541007925713
 30
0.0
 11
318.8251046107845923
 21
-30.3457759650224013
 31
0.0
  0
LINE
  5
77D7
  8
0
 10
317.2738809899215084
 20
-30.2262729984925613
 30
0.0
 11
318.7658967646215729
 21
-30.2262729984925613
 31
0.0
  0
ARC
  5
77D8
  8
0
 10
317.2738809899215084
 20
-30.2380840220925791
 30
0.0
 40
0.0118110236000001
 50
90.0
 51
179.9999976122468013
  0
ARC
  5
77D9
  8
0
 10
317.9971902068214149
 20
-30.2380839533926213
 30
0.0
 40
0.0118109549000383
 50
359.999675325928024
 51
90.0
  0
ARC
  5
77DA
  8
0
 10
318.7658967646215729
 20
-30.2380840220925791
 30
0.0
 40
0.0118110236000001
 50
0.0000149816961707
 51
90.0
  0
ARC
  5
77DB
  8
0
 10
318.0425875477217232
 20
-30.2380839533926213
 30
0.0
 40
0.0118109549000383
 50
90.0
 51
180.0003244931257882
  0
LINE
  5
77DC
  8
0
 10
320.7404637589048093
 20
-30.3457757739505816
 30
0.0
 11
314.9197637995035279
 21
-30.3457757739505816
 31
0.0
  0
ARC
  5
77DD
  8
0
 10
320.7404637589048093
 20
-30.6607757739505793
 30
0.0
 40
0.315
 50
6.7906168423009596
 51
90.0000000000016058
  0
ARC
  5
77DE
  8
0
 10
314.9197637995035279
 20
-30.6607757739505793
 30
0.0
 40
0.315
 50
90.0
 51
173.2099975927741866
  0
LINE
  5
77DF
  8
0
 10
313.1324308600630957
 20
-42.5600827287927075
 30
0.0
 11
313.1914596283630772
 21
-42.5600776304927066
 31
0.0
  0
LINE
  5
77E0
  8
0
 10
313.1914596283630772
 20
-42.5600776304927066
 30
0.0
 11
313.2036153896156065
 21
-43.0223463925699292
 31
0.0
  0
LINE
  5
77E1
  8
0
 10
313.1940215567631185
 20
-42.6585079256927102
 30
0.0
 11
313.2067021101340742
 21
-42.6585079256527635
 31
0.0
  0
LINE
  5
77E2
  8
0
 10
313.2067021101340742
 20
-42.6585079256527635
 30
0.0
 11
313.2067021101631212
 21
-42.9734685555927101
 31
0.0
  0
LINE
  5
77E3
  8
0
 10
313.2067021101631212
 20
-42.9734685555927101
 30
0.0
 11
313.2023301041592731
 21
-42.9734685555927101
 31
0.0
  0
ARC
  5
77E4
  8
0
 10
313.0092892867111232
 20
-42.8159882405745265
 30
0.0
 40
0.2525309336519743
 50
321.4199075762850271
 51
38.5800924237150014
  0
LINE
  5
77E5
  8
0
 10
311.6695258138170175
 20
-43.3368288786257807
 30
0.0
 11
311.7411544058630852
 21
-43.3240473630927028
 31
0.0
  0
LINE
  5
77E6
  8
0
 10
311.7411544058630852
 20
-43.3240473630927028
 30
0.0
 11
312.0222882323631097
 21
-43.2073652138927073
 31
0.0
  0
LINE
  5
77E7
  8
0
 10
312.0222882323631097
 20
-43.2073652138927073
 30
0.0
 11
312.0626486025631152
 21
-43.1779178497927134
 31
0.0
  0
LINE
  5
77E8
  8
0
 10
312.0626486025631152
 20
-43.1779178497927134
 30
0.0
 11
312.0626486025631152
 21
-43.0222674593839685
 31
0.0
  0
LINE
  5
77E9
  8
0
 10
312.5059147086631128
 20
-43.3297677681927098
 30
0.0
 11
312.5452847873630731
 21
-43.2903976893927123
 31
0.0
  0
LINE
  5
77EA
  8
0
 10
312.5452847873630731
 20
-43.2903976893927123
 30
0.0
 11
312.5452847873630731
 21
-43.0223008486220806
 31
0.0
  0
LINE
  5
77EB
  8
0
 10
312.5097745131608917
 20
-43.325907963685097
 30
0.0
 11
312.7460721971630733
 21
-43.3258307602927104
 31
0.0
  0
LINE
  5
77EC
  8
0
 10
312.7460721971630733
 20
-43.3258307602927104
 30
0.0
 11
312.7460721971630733
 21
-43.0223147392892997
 31
0.0
  0
LINE
  5
77ED
  8
0
 10
312.5059147086631128
 20
-43.3297677681927098
 30
0.0
 11
311.7090968175289163
 21
-43.3297677681927098
 31
0.0
  0
LINE
  5
77EE
  8
0
 10
312.1318989605632055
 20
-43.3297677681927098
 30
0.0
 11
312.1318989605632055
 21
-43.3376417838927068
 31
0.0
  0
LINE
  5
77EF
  8
0
 10
312.1712690393630965
 20
-43.3297677681927098
 30
0.0
 11
312.1712690393630965
 21
-43.3376417838927068
 31
0.0
  0
ENDSEC
  0
EOF
