  0
SECTION
  2
HEADER
  9
$ACADVER
  1
AC1009
  9
$INSBASE
 10
3488.4195071836297757
 20
170.5627628044134951
 30
0.0
  9
$EXTMIN
 10
3480.9431485138561584
 20
170.549462127364194
 30
-0.0000000000112498
  9
$EXTMAX
 10
3495.8786937915228918
 20
199.0715721225897994
 30
0.0000000000002956
  9
$LIMMIN
 10
0.0
 20
0.0
  9
$LIMMAX
 10
11.6929133858000007
 20
8.2677165353999982
  9
$ORTHOMODE
 70
     0
  9
$REGENMODE
 70
     1
  9
$FILLMODE
 70
     1
  9
$QTEXTMODE
 70
     0
  9
$MIRRTEXT
 70
     0
  9
$DRAGMODE
 70
     2
  9
$LTSCALE
 40
0.6431102362
  9
$OSMODE
 70
  4095
  9
$ATTMODE
 70
     1
  9
$TEXTSIZE
 40
0.2
  9
$TRACEWID
 40
0.05
  9
$TEXTSTYLE
  7
STANDARD
  9
$CLAYER
  8
0
  9
$CELTYPE
  6
BYLAYER
  9
$CECOLOR
 62
   256
  9
$DIMSCALE
 40
1.0
  9
$DIMASZ
 40
0.1875
  9
$DIMEXO
 40
0.0625
  9
$DIMDLI
 40
0.4443307087
  9
$DIMRND
 40
0.0
  9
$DIMDLE
 40
0.0
  9
$DIMEXE
 40
0.125
  9
$DIMTP
 40
0.01
  9
$DIMTM
 40
0.01
  9
$DIMTXT
 40
2.0
  9
$DIMCEN
 40
0.1052362205
  9
$DIMTSZ
 40
0.0
  9
$DIMTOL
 70
     1
  9
$DIMLIM
 70
     0
  9
$DIMTIH
 70
     1
  9
$DIMTOH
 70
     1
  9
$DIMSE1
 70
     0
  9
$DIMSE2
 70
     0
  9
$DIMTAD
 70
     0
  9
$DIMZIN
 70
     0
  9
$DIMBLK
  1

  9
$DIMASO
 70
     1
  9
$DIMSHO
 70
     1
  9
$DIMPOST
  1
\X
  9
$DIMAPOST
  1

  9
$DIMALT
 70
     1
  9
$DIMALTD
 70
     2
  9
$DIMALTF
 40
25.3999999999999986
  9
$DIMLFAC
 40
1.0
  9
$DIMTOFL
 70
     0
  9
$DIMTVP
 40
0.0
  9
$DIMTIX
 70
     0
  9
$DIMSOXD
 70
     0
  9
$DIMSAH
 70
     0
  9
$DIMBLK1
  1

  9
$DIMBLK2
  1

  9
$DIMSTYLE
  2
STANDARD
  9
$DIMCLRD
 70
     0
  9
$DIMCLRE
 70
     0
  9
$DIMCLRT
 70
     0
  9
$DIMTFAC
 40
1.0
  9
$DIMGAP
 40
0.09
  9
$LUNITS
 70
     2
  9
$LUPREC
 70
     4
  9
$SKETCHINC
 40
0.1
  9
$FILLETRAD
 40
0.0
  9
$AUNITS
 70
     0
  9
$AUPREC
 70
     0
  9
$MENU
  1
.
  9
$ELEVATION
 40
0.0
  9
$PELEVATION
 40
0.0
  9
$THICKNESS
 40
0.0
  9
$LIMCHECK
 70
     0
  9
$BLIPMODE
 70
     0
  9
$CHAMFERA
 40
0.0
  9
$CHAMFERB
 40
0.0
  9
$SKPOLY
 70
     0
  9
$TDCREATE
 40
2458060.468368056230247
  9
$TDUPDATE
 40
2459098.7020486108958721
  9
$TDINDWG
 40
0.5540001157
  9
$TDUSRTIMER
 40
0.5540001157
  9
$USRTIMER
 70
     1
  9
$ANGBASE
 50
0.0
  9
$ANGDIR
 70
     0
  9
$PDMODE
 70
     0
  9
$PDSIZE
 40
0.3125
  9
$PLINEWID
 40
0.0
  9
$COORDS
 70
     1
  9
$SPLFRAME
 70
     0
  9
$SPLINETYPE
 70
     6
  9
$SPLINESEGS
 70
     8
  9
$ATTDIA
 70
     1
  9
$ATTREQ
 70
     1
  9
$HANDLING
 70
     1
  9
$HANDSEED
  5
F77F
  9
$SURFTAB1
 70
     6
  9
$SURFTAB2
 70
     6
  9
$SURFTYPE
 70
     6
  9
$SURFU
 70
     6
  9
$SURFV
 70
     6
  9
$UCSNAME
  2

  9
$UCSORG
 10
0.0
 20
0.0
 30
0.0
  9
$UCSXDIR
 10
1.0
 20
0.0
 30
0.0
  9
$UCSYDIR
 10
0.0
 20
1.0
 30
0.0
  9
$PUCSNAME
  2

  9
$PUCSORG
 10
0.0
 20
0.0
 30
0.0
  9
$PUCSXDIR
 10
1.0
 20
0.0
 30
0.0
  9
$PUCSYDIR
 10
0.0
 20
1.0
 30
0.0
  9
$USERI1
 70
     0
  9
$USERI2
 70
     0
  9
$USERI3
 70
     0
  9
$USERI4
 70
     0
  9
$USERI5
 70
     0
  9
$USERR1
 40
0.0
  9
$USERR2
 40
0.0
  9
$USERR3
 40
0.0
  9
$USERR4
 40
0.0
  9
$USERR5
 40
0.0
  9
$WORLDVIEW
 70
     1
  9
$SHADEDGE
 70
     3
  9
$SHADEDIF
 70
    70
  9
$TILEMODE
 70
     1
  9
$MAXACTVP
 70
    64
  9
$PLIMCHECK
 70
     0
  9
$PEXTMIN
 10
1.0000000000000000E+20
 20
1.0000000000000000E+20
 30
1.0000000000000000E+20
  9
$PEXTMAX
 10
-1.0000000000000000E+20
 20
-1.0000000000000000E+20
 30
-1.0000000000000000E+20
  9
$PLIMMIN
 10
0.0
 20
0.0
  9
$PLIMMAX
 10
12.0
 20
9.0
  9
$UNITMODE
 70
     0
  9
$VISRETAIN
 70
     1
  9
$PLINEGEN
 70
     0
  9
$PSLTSCALE
 70
     1
  0
ENDSEC
  0
SECTION
  2
TABLES
  0
TABLE
  2
VPORT
 70
     1
  0
VPORT
  2
*ACTIVE
 70
     0
 10
0.0
 20
0.0
 11
1.0
 21
1.0
 12
184.7178059183142977
 22
-10.4509944509107395
 13
0.0
 23
0.0
 14
1.0
 24
1.0
 15
0.0
 25
0.0
 16
0.0
 26
0.0
 36
96.5995694866707311
 17
3303.693115234375
 27
195.2615115758877096
 37
0.0
 40
28.7594645860319282
 41
2.6486111111111108
 42
50.0
 43
0.0
 44
0.0
 50
0.0
 51
0.0
 71
     0
 72
   100
 73
     1
 74
     1
 75
     0
 76
     0
 77
     0
 78
     0
  0
ENDTAB
  0
TABLE
  2
LTYPE
 70
     2
  0
LTYPE
  2
CONTINUOUS
 70
     0
  3
Solid line
 72
    65
 73
     0
 40
0.0
  0
LTYPE
  2
PHANTOM2
 70
     0
  3
___ _ _ ___ _ _ ___ _ _ ___ _ _
 72
    65
 73
     6
 40
1.25
 49
0.625
 49
-0.125
 49
0.125
 49
-0.125
 49
0.125
 49
-0.125
  0
ENDTAB
  0
TABLE
  2
LAYER
 70
     2
  0
LAYER
  2
0
 70
     0
 62
   255
  6
CONTINUOUS
  0
LAYER
  2
DEFPOINTS
 70
     0
 62
     7
  6
CONTINUOUS
  0
ENDTAB
  0
TABLE
  2
STYLE
 70
     1
  0
STYLE
  2
STANDARD
 70
     0
 40
0.0
 41
0.8
 50
0.0
 71
     0
 42
0.2
  3
txt
  4

  0
ENDTAB
  0
TABLE
  2
VIEW
 70
     0
  0
ENDTAB
  0
TABLE
  2
UCS
 70
     0
  0
ENDTAB
  0
TABLE
  2
APPID
 70
     9
  0
APPID
  2
ACAD
 70
     0
  0
APPID
  2
ACAD_MLEADERVER
 70
     0
  0
APPID
  2
ACAD_EXEMPT_FROM_CAD_STANDARDS
 70
     0
  0
APPID
  2
ACAD_NAV_VCDISPLAY
 70
     0
  0
APPID
  2
ACAECLAYERSTANDARD
 70
     0
  0
APPID
  2
ACCMTRANSPARENCY
 70
     0
  0
APPID
  2
ACAD_DSTYLE_DIMJAG
 70
     0
  0
APPID
  2
ACAD_DSTYLE_DIMTALN
 70
     0
  0
APPID
  2
ACDBATTR
 70
     0
  0
ENDTAB
  0
TABLE
  2
DIMSTYLE
 70
     1
  0
DIMSTYLE
  2
STANDARD
 70
     0
  3

  4

  5

  6

  7

 40
1.0
 41
0.1875
 42
0.0625
 43
0.38
 44
0.125
 45
0.0
 46
0.0
 47
0.01
 48
0.01
140
0.15625
141
0.09
142
0.0
143
25.3999999999999986
144
1.0
145
0.0
146
1.0
147
0.09
 71
     1
 72
     0
 73
     1
 74
     1
 75
     0
 76
     0
 77
     0
 78
     4
170
     0
171
     2
172
     0
173
     0
174
     0
175
     0
176
     0
177
     0
178
     0
  0
ENDTAB
  0
ENDSEC
  0
SECTION
  2
BLOCKS
  0
BLOCK
  8
0
  2
$MODEL_SPACE
 70
     0
 10
0.0
 20
0.0
 30
0.0
  3
$MODEL_SPACE
  1

  0
ENDBLK
  5
21
  8
0
  0
BLOCK
 67
     1
  8
0
  2
$PAPER_SPACE
 70
     0
 10
0.0
 20
0.0
 30
0.0
  3
$PAPER_SPACE
  1

  0
ENDBLK
  5
1D
 67
     1
  8
0
  0
BLOCK
  8
0
  2
_FILLED
 70
     0
 10
0.0
 20
0.0
 30
0.0
  3
_FILLED
  1

  0
SOLID
  5
9E2C
  8
0
  6
BYBLOCK
 62
     0
 10
0.0
 20
0.0
 30
0.0
 11
-1.0
 21
0.1666666667
 31
0.0
 12
-1.0
 22
-0.1666666667
 32
0.0
 13
-1.0
 23
-0.1666666667
 33
0.0
  0
ENDBLK
  5
9E2D
  8
0
  6
BYBLOCK
 62
     0
  0
BLOCK
  8
0
  2
A$C6B0F1CD5
 70
     2
 10
0.0
 20
0.0
 30
0.0
  3
A$C6B0F1CD5
  1

  0
ATTDEF
  5
B779
  8
DEFPOINTS
 10
0.0005209962714616
 20
0.000347009907216
 30
0.0
 40
0.001
  1
BATH FAUCET
  3

  2
PRODUCT
 70
     0
1001
ACDBATTR
1070
     0
1070
     1
  0
ATTDEF
  5
B77A
  8
DEFPOINTS
 10
0.0005209962714616
 20
0.0020136765738812
 30
0.0
 40
0.001
  1
SINGULIER
  3

  2
TRADENAME
 70
     0
1001
ACDBATTR
1070
     0
1070
     1
  0
ATTDEF
  5
B77B
  8
DEFPOINTS
 10
0.0005209962714616
 20
0.0036803432405463
 30
0.0
 40
0.001
  1
K-10873W
  3

  2
MODELNUMBER
 70
     0
1001
ACDBATTR
1070
     0
1070
     1
  0
ENDBLK
  5
B77F
  8
0
  0
ENDSEC
  0
SECTION
  2
ENTITIES
  0
LINE
  5
F24F
  8
0
 10
3483.7733909153298555
 20
170.5627628044134951
 30
0.0
 11
3493.0656234519301506
 21
170.5627628044134951
 31
0.0
  0
LINE
  5
F250
  8
0
 10
3481.7358361409301324
 20
197.0555068683135005
 30
0.0
 11
3481.7604866034289444
 21
197.1379546731135122
 31
0.0
  0
LINE
  5
F251
  8
0
 10
3481.6123777182301637
 20
197.2039919306135118
 30
0.0
 11
3481.7870789289299864
 21
198.6712556441135007
 31
0.0
  0
LINE
  5
F252
  8
0
 10
3481.5850915167297899
 20
196.9222769814134892
 30
0.0
 11
3481.2862497372288999
 21
186.521156842213486
 31
0.0
  0
LINE
  5
F253
  8
0
 10
3481.3943139026960125
 20
187.4273365709298957
 30
0.0
 11
3481.2473285589298939
 21
186.1947805392134967
 31
0.0
  0
LINE
  5
F254
  8
0
 10
3487.4747095903298941
 20
198.9489770384134886
 30
0.0
 11
3487.4747096033302114
 21
199.008032156513508
 31
0.0
  0
LINE
  5
F255
  8
0
 10
3481.2095437369289357
 20
183.7570606878134925
 30
0.0
 11
3495.6295437369299179
 21
183.7570606878134925
 31
0.0
  0
LINE
  5
F256
  8
0
 10
3489.3644733699297831
 20
198.9489766228134897
 30
0.0
 11
3489.3644733828300559
 21
199.0080317409135091
 31
0.0
  0
LINE
  5
F257
  8
0
 10
3495.4385626122298163
 20
185.957110687813497
 30
0.0
 11
3481.4000219588301661
 21
185.957110687813497
 31
0.0
  0
LINE
  5
F258
  8
0
 10
3482.044939382029952
 20
185.996480766513514
 30
0.0
 11
3483.3098961233299633
 21
185.996480766513514
 31
0.0
  0
LINE
  5
F259
  8
0
 10
3481.6722855235288989
 20
186.0515988767135127
 30
0.0
 11
3495.1783021343298969
 21
186.0515988767135127
 31
0.0
  0
LINE
  5
F25A
  8
0
 10
3481.3266366995298995
 20
186.106716987013499
 30
0.0
 11
3495.5243024049300402
 21
186.106716987013499
 31
0.0
  0
LINE
  5
F25B
  8
0
 10
3495.2539959553300832
 20
196.922277044113514
 30
0.0
 11
3495.5490888656290736
 21
186.6516354424134931
 31
0.0
  0
LINE
  5
F25C
  8
0
 10
3495.603569661830079
 20
186.1947828590134861
 30
0.0
 11
3495.4565782681288511
 21
187.4273896235135908
 31
0.0
  0
LINE
  5
F25D
  8
0
 10
3495.0520961951301615
 20
198.6712527285135081
 30
0.0
 11
3495.2267967603288525
 21
197.2039889381134969
 31
0.0
  0
LINE
  5
F25E
  8
0
 10
3495.1032513608301997
 20
197.0555067750134981
 30
0.0
 11
3495.0786017462301061
 21
197.1379517438134883
 31
0.0
  0
LINE
  5
F25F
  8
0
 10
3481.6710186207751576
 20
197.1379547386659112
 30
0.0
 11
3495.1682046711298426
 21
197.137951724113492
 31
0.0
  0
LINE
  5
F260
  8
0
 10
3494.7394306839300953
 20
198.9489754405134931
 30
0.0
 11
3482.0998305378461737
 21
198.9489779967977086
 31
0.0
  0
LINE
  5
F261
  8
0
 10
3487.5140802218302269
 20
199.0474022266135137
 30
0.0
 11
3489.3251033127889968
 21
199.0474022266135137
 31
0.0
  0
LINE
  5
F262
  8
0
 10
3489.0259332413270386
 20
199.0592131844711901
 30
0.0
 11
3487.8132500627298214
 21
199.059213184413494
 31
0.0
  0
ARC
  5
F263
  8
0
 10
3484.0086628095300512
 20
186.0161631588134981
 30
0.0
 40
0.0590539314
 50
181.8474571281003023
 51
270.0
  0
ARC
  5
F264
  8
0
 10
3488.2953514408859519
 20
185.9478909201062891
 30
0.0
 40
7.0228116183356493
 50
178.5509402052063024
 51
180.4335809508521038
  0
ARC
  5
F265
  8
0
 10
3485.1257002566298979
 20
186.0161631576135051
 30
0.0
 40
0.0590539315
 50
270.0
 51
346.4999028227995836
  0
ARC
  5
F266
  8
0
 10
3482.0998358878341605
 20
198.6340112344823865
 30
0.0
 40
0.3149667623607982
 50
90.0009732193099694
 51
173.2089592616993912
  0
ARC
  5
F267
  8
0
 10
3481.6850509523260371
 20
196.9194048984477945
 30
0.0
 40
0.1000006881661204
 50
93.3581600850891249
 51
178.3542027047747069
  0
ARC
  5
F268
  8
0
 10
3481.6710332188649772
 20
197.1970228034327022
 30
0.0
 40
0.0590680665706901
 50
173.2241927894995115
 51
269.985839912970107
  0
ARC
  5
F269
  8
0
 10
3481.6862467669670878
 20
197.0709745334611966
 30
0.0
 40
0.0519456896174056
 50
275.0922887525188116
 51
342.6765210454726116
  0
ARC
  5
F26A
  8
0
 10
3487.5163532088290594
 20
199.0057585895517036
 30
0.0
 40
0.0417056228539072
 50
93.124209917609349
 51
176.8749920533203124
  0
ARC
  5
F26B
  8
0
 10
3487.814859650418839
 20
199.045792234155499
 30
0.0
 40
0.013517125373285
 50
96.8388748445541978
 51
173.1593971396389975
  0
ARC
  5
F26C
  8
0
 10
3494.7393469847138476
 20
198.6340174647851029
 30
0.0
 40
0.3149579868498834
 50
6.789555308732238
 51
89.984773804573905
  0
ARC
  5
F26D
  8
0
 10
3495.1540372016302172
 20
196.9194051857134866
 30
0.0
 40
0.1
 50
1.6456799558990971
 51
86.6457519232942417
  0
ARC
  5
F26E
  8
0
 10
3495.1681426369600558
 20
197.1970185403847893
 30
0.0
 40
0.0590668488465564
 50
270.060174137992874
 51
6.7771886779560226
  0
ARC
  5
F26F
  8
0
 10
3495.1528407103628524
 20
197.0709745394078141
 30
0.0
 40
0.0519456958484993
 50
197.3235914344988089
 51
264.9077080168987095
  0
ARC
  5
F270
  8
0
 10
3489.3229994593671108
 20
199.005928325357786
 30
0.0
 40
0.0415272282315078
 50
2.9033584324973001
 51
87.0960367152896566
  0
ARC
  5
F271
  8
0
 10
3489.0248281637018408
 20
199.0462971112216906
 30
0.0
 40
0.0129632612893624
 50
4.8903893154648888
 51
85.1097782153851483
  0
LINE
  5
F272
  8
0
 10
3493.0656234519301506
 20
170.5627628044134951
 30
0.0
 11
3492.3028837373008173
 21
178.3579332047175114
 31
0.0
  0
LINE
  5
F273
  8
0
 10
3483.7733909153298555
 20
170.5627628044134951
 30
0.0
 11
3484.5363542118880105
 21
178.3594712381037084
 31
0.0
  0
ARC
  5
F274
  8
0
 10
3491.7517094028698921
 20
185.8247731602266981
 30
0.0
 40
10.3822966303457207
 50
191.4876975603555138
 51
227.9250035891191999
  0
ARC
  5
F275
  8
0
 10
3485.1811214470631057
 20
185.770913119574999
 30
0.0
 40
10.2796774918638896
 50
311.8873414950509186
 51
348.7023345685825007
  0
ARC
  5
F276
  8
0
 10
3488.4195431619468764
 20
190.2263662855723965
 30
0.0
 40
11.4796137409636696
 50
266.1140886023432017
 51
273.8859171483157979
  0
ARC
  5
F277
  8
0
 10
3489.4903388559250743
 20
174.6248823983106888
 30
0.0
 40
4.1585843059291996
 50
73.7898990496235854
 51
94.0377520045726811
  0
ARC
  5
F278
  8
0
 10
3490.2728754557570028
 20
175.9539021305641029
 30
0.0
 40
2.6909722512124952
 50
56.6577125299198201
 51
81.9169006978328866
  0
ARC
  5
F279
  8
0
 10
3491.9702970939038096
 20
178.411537463890113
 30
0.0
 40
0.3026689765079359
 50
223.8266717822309886
 51
284.1980710187648924
  0
ARC
  5
F27A
  8
0
 10
3487.349843577359934
 20
174.5972707255808132
 30
0.0
 40
4.1860513663345049
 50
86.0038093035394837
 51
106.2920376381966037
  0
ARC
  5
F27B
  8
0
 10
3486.6133667445301398
 20
175.8217033638391911
 30
0.0
 40
2.8276304156198822
 50
98.9079224276110267
 51
123.7173207422427055
  0
ARC
  5
F27C
  8
0
 10
3484.8808082271179956
 20
178.3185435586850076
 30
0.0
 40
0.2180291405317111
 50
246.6816834198585013
 51
318.3646574150088782
  0
ARC
  5
F27D
  8
0
 10
3468.9096223533510965
 20
184.7528133584355885
 30
0.0
 40
12.3401616449415492
 50
355.3716553682049835
 51
4.628344631795053
  0
ARC
  5
F27E
  8
0
 10
3507.9037940693210658
 20
184.7530792527637118
 30
0.0
 40
12.3145959821643096
 50
175.3607845088889121
 51
184.6392154911127079
  0
ARC
  5
F27F
  8
0
 10
3481.4267980596960115
 20
185.7413934490809879
 30
0.0
 40
0.2173726907040979
 50
97.0757004779084269
 51
178.1090855058695865
  0
ARC
  5
F280
  8
0
 10
3495.408397067883925
 20
185.7377366576205873
 30
0.0
 40
0.2214383101200172
 50
2.9409204133972762
 51
82.1705094639598883
  0
LINE
  5
F281
  8
0
 10
3495.5663687210649186
 20
185.892913595274905
 30
0.0
 11
3495.5644591070040406
 21
186.1170930710761979
 31
0.0
  0
ARC
  5
F282
  8
0
 10
3481.3259568531661898
 20
186.1858481107385046
 30
0.0
 40
0.0791340440838175
 50
173.5188003277833957
 51
270.4922382894538941
  0
ARC
  5
F283
  8
0
 10
3495.5253754251971259
 20
186.1854579610489964
 30
0.0
 40
0.0787482848355715
 50
269.2192663572050719
 51
6.8005777937541634
  0
LINE
  5
F284
  8
0
 10
3495.1598881254881235
 20
197.0192338724222907
 30
0.0
 11
3481.6791931721240871
 21
197.0192338724222907
 31
0.0
  0
ARC
  5
F285
  8
0
 10
3481.7178773740629367
 20
187.3876659703524865
 30
0.0
 40
0.3259863134433241
 50
96.5745373667911053
 51
173.0101178522189969
  0
ARC
  5
F286
  8
0
 10
3495.1326733425971725
 20
187.3872019915376939
 30
0.0
 40
0.3263884902204826
 50
7.0726753378724441
 51
81.7318282074755018
  0
ARC
  5
F287
  8
0
 10
3488.4240494761811533
 20
125.5777816998887033
 30
0.0
 40
62.4985979678721577
 50
83.7946954750860442
 51
96.194179269553473
  0
ARC
  5
F288
  8
0
 10
3488.4243543818079161
 20
476.7973363620947111
 30
0.0
 40
289.4553821373453957
 50
268.6083131169867784
 51
271.3921192015931751
  0
ARC
  5
F289
  8
0
 10
3495.1782311145329913
 20
186.130628534856811
 30
0.0
 40
0.079029690054178
 50
270.0514886896332882
 51
342.3883252012922185
  0
ARC
  5
F28A
  8
0
 10
3481.672733711120145
 20
186.1306685855973058
 30
0.0
 40
0.0790709790952512
 50
197.6326269792349137
 51
269.6752361591503018
  0
ARC
  5
F28B
  8
0
 10
3481.8928896479401374
 20
185.9632276498228975
 30
0.0
 40
0.118821085174562
 50
31.2863324660215802
 51
48.0504350583863982
  0
ARC
  5
F28C
  8
0
 10
3482.0449527118448714
 20
186.0555595469676859
 30
0.0
 40
0.0590787819579294
 50
211.2248204129732017
 51
269.9870725202018775
  0
ARC
  5
F28D
  8
0
 10
3483.3099001806381239
 20
186.0555224956090115
 30
0.0
 40
0.0590417292348892
 50
269.9960626724632107
 51
337.4438764593328983
  0
ARC
  5
F28E
  8
0
 10
3483.4705539842589133
 20
185.9890976853949098
 30
0.0
 40
0.1148028586291115
 50
147.0148323150972942
 51
157.5842747058555915
  0
ARC
  5
F28F
  8
0
 10
3483.8486608960079138
 20
186.0113526036151086
 30
0.0
 40
0.101020505843103
 50
1.648841447213663
 51
23.4780094888453092
  0
ARC
  5
F290
  8
0
 10
3485.2653306155289101
 20
185.9824698730440957
 30
0.0
 40
0.0845841337759025
 50
125.1864716828620061
 51
166.3874350354392959
  0
LINE
  5
F291
  8
0
 10
3494.8058031158298036
 20
185.996480766513514
 30
0.0
 11
3493.5408463745297922
 21
185.996480766513514
 31
0.0
  0
ARC
  5
F292
  8
0
 10
3492.8420771418068398
 20
186.0161694496202074
 30
0.0
 40
0.0590602222615161
 50
270.0024704446191208
 51
357.695859542404321
  0
ARC
  5
F293
  8
0
 10
3491.7250422412298576
 20
186.0161631576135051
 30
0.0
 40
0.0590539315
 50
193.5000971772003027
 51
270.0
  0
ARC
  5
F294
  8
0
 10
3494.9578528499200729
 20
185.9632276498230112
 30
0.0
 40
0.118821085174562
 50
131.9495649416136018
 51
148.7136675339783949
  0
ARC
  5
F295
  8
0
 10
3494.8057897860139747
 20
186.0555595469676859
 30
0.0
 40
0.0590787819579294
 50
270.0129274797980088
 51
328.7751795870267983
  0
ARC
  5
F296
  8
0
 10
3493.5408423172220864
 20
186.0555224956090967
 30
0.0
 40
0.0590417292349448
 50
202.5561235406790956
 51
270.0039373274847208
  0
ARC
  5
F297
  8
0
 10
3493.3801885136008423
 20
185.9890976853949098
 30
0.0
 40
0.1148028586291115
 50
22.4157252941444298
 51
32.9851676849027271
  0
ARC
  5
F298
  8
0
 10
3493.0021077008659631
 20
186.0113441462702895
 30
0.0
 40
0.1010478136159559
 50
156.5234877657964034
 51
178.6101934081162028
  0
ARC
  5
F299
  8
0
 10
3491.5854118823308454
 20
185.9824698730440957
 30
0.0
 40
0.0845841337759025
 50
13.6125649645607201
 51
54.8135283171380294
  0
ATTDEF
  5
F29E
  8
DEFPOINTS
 10
3488.4201185894071386
 20
170.5612863461333006
 30
0.0
 40
0.001
  1
K-3983T-S2
  3

  2
MODELNUMBER
 70
     0
1001
ACDBATTR
1070
     0
1070
     1
  0
ATTDEF
  5
F29F
  8
DEFPOINTS
 10
3488.4201185894071386
 20
170.5596196794666071
 30
0.0
 40
0.001
  1
REACH
  3

  2
TRADENAME
 70
     0
1001
ACDBATTR
1070
     0
1070
     1
  0
ATTDEF
  5
F2A0
  8
DEFPOINTS
 10
3488.4201185894071386
 20
170.5579530127999135
 30
0.0
 40
0.001
  1
TOILET
  3

  2
PRODUCT
 70
     0
1001
ACDBATTR
1070
     0
1070
     1
  0
ENDSEC
  0
EOF
