  0
SECTION
  2
HEADER
  9
$ACADVER
  1
AC1009
  9
$INSBASE
 10
3266.9643746674510112
 20
143.5838919558067062
 30
0.0
  9
$EXTMIN
 10
3256.9289459579590584
 20
143.566099440904793
 30
-0.0000000000000058
  9
$EXTMAX
 10
3274.722856833860078
 20
174.3857672250676103
 30
0.0000000000000104
  9
$LIMMIN
 10
0.0
 20
0.0
  9
$LIMMAX
 10
11.6929133858000007
 20
8.2677165353999982
  9
$ORTHOMODE
 70
     0
  9
$REGENMODE
 70
     1
  9
$FILLMODE
 70
     1
  9
$QTEXTMODE
 70
     0
  9
$MIRRTEXT
 70
     0
  9
$DRAGMODE
 70
     2
  9
$LTSCALE
 40
0.6431102362
  9
$OSMODE
 70
  4095
  9
$ATTMODE
 70
     1
  9
$TEXTSIZE
 40
0.2
  9
$TRACEWID
 40
0.05
  9
$TEXTSTYLE
  7
STANDARD
  9
$CLAYER
  8
0
  9
$CELTYPE
  6
BYLAYER
  9
$CECOLOR
 62
   256
  9
$DIMSCALE
 40
1.0
  9
$DIMASZ
 40
0.1875
  9
$DIMEXO
 40
0.0625
  9
$DIMDLI
 40
0.4443307087
  9
$DIMRND
 40
0.0
  9
$DIMDLE
 40
0.0
  9
$DIMEXE
 40
0.125
  9
$DIMTP
 40
0.01
  9
$DIMTM
 40
0.01
  9
$DIMTXT
 40
2.0
  9
$DIMCEN
 40
0.1052362205
  9
$DIMTSZ
 40
0.0
  9
$DIMTOL
 70
     1
  9
$DIMLIM
 70
     0
  9
$DIMTIH
 70
     1
  9
$DIMTOH
 70
     1
  9
$DIMSE1
 70
     0
  9
$DIMSE2
 70
     0
  9
$DIMTAD
 70
     0
  9
$DIMZIN
 70
     0
  9
$DIMBLK
  1

  9
$DIMASO
 70
     1
  9
$DIMSHO
 70
     1
  9
$DIMPOST
  1
\X
  9
$DIMAPOST
  1

  9
$DIMALT
 70
     1
  9
$DIMALTD
 70
     2
  9
$DIMALTF
 40
25.3999999999999986
  9
$DIMLFAC
 40
1.0
  9
$DIMTOFL
 70
     0
  9
$DIMTVP
 40
0.0
  9
$DIMTIX
 70
     0
  9
$DIMSOXD
 70
     0
  9
$DIMSAH
 70
     0
  9
$DIMBLK1
  1

  9
$DIMBLK2
  1

  9
$DIMSTYLE
  2
STANDARD
  9
$DIMCLRD
 70
     0
  9
$DIMCLRE
 70
     0
  9
$DIMCLRT
 70
     0
  9
$DIMTFAC
 40
1.0
  9
$DIMGAP
 40
0.09
  9
$LUNITS
 70
     2
  9
$LUPREC
 70
     4
  9
$SKETCHINC
 40
0.1
  9
$FILLETRAD
 40
0.0
  9
$AUNITS
 70
     0
  9
$AUPREC
 70
     0
  9
$MENU
  1
.
  9
$ELEVATION
 40
0.0
  9
$PELEVATION
 40
0.0
  9
$THICKNESS
 40
0.0
  9
$LIMCHECK
 70
     0
  9
$BLIPMODE
 70
     0
  9
$CHAMFERA
 40
0.0
  9
$CHAMFERB
 40
0.0
  9
$SKPOLY
 70
     0
  9
$TDCREATE
 40
2458060.468368056230247
  9
$TDUPDATE
 40
2460167.5094328708946705
  9
$TDINDWG
 40
0.6166042824
  9
$TDUSRTIMER
 40
0.6166042824
  9
$USRTIMER
 70
     1
  9
$ANGBASE
 50
0.0
  9
$ANGDIR
 70
     0
  9
$PDMODE
 70
     0
  9
$PDSIZE
 40
0.3125
  9
$PLINEWID
 40
0.0
  9
$COORDS
 70
     1
  9
$SPLFRAME
 70
     0
  9
$SPLINETYPE
 70
     6
  9
$SPLINESEGS
 70
     8
  9
$ATTDIA
 70
     1
  9
$ATTREQ
 70
     1
  9
$HANDLING
 70
     1
  9
$HANDSEED
  5
256D7
  9
$SURFTAB1
 70
     6
  9
$SURFTAB2
 70
     6
  9
$SURFTYPE
 70
     6
  9
$SURFU
 70
     6
  9
$SURFV
 70
     6
  9
$UCSNAME
  2

  9
$UCSORG
 10
0.0
 20
0.0
 30
0.0
  9
$UCSXDIR
 10
1.0
 20
0.0
 30
0.0
  9
$UCSYDIR
 10
0.0
 20
1.0
 30
0.0
  9
$PUCSNAME
  2

  9
$PUCSORG
 10
0.0
 20
0.0
 30
0.0
  9
$PUCSXDIR
 10
1.0
 20
0.0
 30
0.0
  9
$PUCSYDIR
 10
0.0
 20
1.0
 30
0.0
  9
$USERI1
 70
     0
  9
$USERI2
 70
     0
  9
$USERI3
 70
     0
  9
$USERI4
 70
     0
  9
$USERI5
 70
     0
  9
$USERR1
 40
0.0
  9
$USERR2
 40
0.0
  9
$USERR3
 40
0.0
  9
$USERR4
 40
0.0
  9
$USERR5
 40
0.0
  9
$WORLDVIEW
 70
     1
  9
$SHADEDGE
 70
     3
  9
$SHADEDIF
 70
    70
  9
$TILEMODE
 70
     1
  9
$MAXACTVP
 70
    64
  9
$PLIMCHECK
 70
     0
  9
$PEXTMIN
 10
1.0000000000000000E+20
 20
1.0000000000000000E+20
 30
1.0000000000000000E+20
  9
$PEXTMAX
 10
-1.0000000000000000E+20
 20
-1.0000000000000000E+20
 30
-1.0000000000000000E+20
  9
$PLIMMIN
 10
0.0
 20
0.0
  9
$PLIMMAX
 10
12.0
 20
9.0
  9
$UNITMODE
 70
     0
  9
$VISRETAIN
 70
     1
  9
$PLINEGEN
 70
     0
  9
$PSLTSCALE
 70
     1
  0
ENDSEC
  0
SECTION
  2
TABLES
  0
TABLE
  2
VPORT
 70
     1
  0
VPORT
  2
*ACTIVE
 70
     0
 10
0.0
 20
0.0
 11
1.0
 21
1.0
 12
-37.8672138384654318
 22
-36.2855782429015221
 13
0.0
 23
0.0
 14
1.0
 24
1.0
 15
0.0
 25
0.0
 16
0.0
 26
0.0
 36
96.5995694866707311
 17
3303.693115234375
 27
195.2615115758877096
 37
0.0
 40
31.0626612226712986
 41
2.498684210526315
 42
50.0
 43
0.0
 44
0.0
 50
0.0
 51
0.0
 71
     0
 72
   100
 73
     1
 74
     1
 75
     0
 76
     0
 77
     0
 78
     0
  0
ENDTAB
  0
TABLE
  2
LTYPE
 70
     2
  0
LTYPE
  2
CONTINUOUS
 70
     0
  3
Solid line
 72
    65
 73
     0
 40
0.0
  0
LTYPE
  2
PHANTOM2
 70
     0
  3
___ _ _ ___ _ _ ___ _ _ ___ _ _
 72
    65
 73
     6
 40
1.25
 49
0.625
 49
-0.125
 49
0.125
 49
-0.125
 49
0.125
 49
-0.125
  0
ENDTAB
  0
TABLE
  2
LAYER
 70
     2
  0
LAYER
  2
0
 70
     0
 62
   255
  6
CONTINUOUS
  0
LAYER
  2
DEFPOINTS
 70
     0
 62
     7
  6
CONTINUOUS
  0
ENDTAB
  0
TABLE
  2
STYLE
 70
     1
  0
STYLE
  2
STANDARD
 70
     0
 40
0.0
 41
0.8
 50
0.0
 71
     0
 42
0.2
  3
txt
  4

  0
ENDTAB
  0
TABLE
  2
VIEW
 70
     0
  0
ENDTAB
  0
TABLE
  2
UCS
 70
     0
  0
ENDTAB
  0
TABLE
  2
APPID
 70
     9
  0
APPID
  2
ACAD
 70
     0
  0
APPID
  2
ACAD_MLEADERVER
 70
     0
  0
APPID
  2
ACAD_EXEMPT_FROM_CAD_STANDARDS
 70
     0
  0
APPID
  2
ACAD_NAV_VCDISPLAY
 70
     0
  0
APPID
  2
ACAECLAYERSTANDARD
 70
     0
  0
APPID
  2
ACCMTRANSPARENCY
 70
     0
  0
APPID
  2
ACAD_DSTYLE_DIMJAG
 70
     0
  0
APPID
  2
ACAD_DSTYLE_DIMTALN
 70
     0
  0
APPID
  2
ACDBATTR
 70
     0
  0
ENDTAB
  0
TABLE
  2
DIMSTYLE
 70
     1
  0
DIMSTYLE
  2
STANDARD
 70
     0
  3

  4

  5

  6

  7

 40
1.0
 41
0.1875
 42
0.0625
 43
0.38
 44
0.125
 45
0.0
 46
0.0
 47
0.01
 48
0.01
140
0.15625
141
0.09
142
0.0
143
25.3999999999999986
144
1.0
145
0.0
146
1.0
147
0.09
 71
     1
 72
     0
 73
     1
 74
     1
 75
     0
 76
     0
 77
     0
 78
     4
170
     0
171
     2
172
     0
173
     0
174
     0
175
     0
176
     0
177
     0
178
     0
  0
ENDTAB
  0
ENDSEC
  0
SECTION
  2
BLOCKS
  0
BLOCK
  8
0
  2
$MODEL_SPACE
 70
     0
 10
0.0
 20
0.0
 30
0.0
  3
$MODEL_SPACE
  1

  0
ENDBLK
  5
21
  8
0
  0
BLOCK
 67
     1
  8
0
  2
$PAPER_SPACE
 70
     0
 10
0.0
 20
0.0
 30
0.0
  3
$PAPER_SPACE
  1

  0
ENDBLK
  5
1D
 67
     1
  8
0
  0
BLOCK
  8
0
  2
_FILLED
 70
     0
 10
0.0
 20
0.0
 30
0.0
  3
_FILLED
  1

  0
SOLID
  5
211E5
  8
0
  6
BYBLOCK
 62
     0
 10
0.0
 20
0.0
 30
0.0
 11
-1.0
 21
0.1666666667
 31
0.0
 12
-1.0
 22
-0.1666666667
 32
0.0
 13
-1.0
 23
-0.1666666667
 33
0.0
  0
ENDBLK
  5
211E6
  8
0
  6
BYBLOCK
 62
     0
  0
ENDSEC
  0
SECTION
  2
ENTITIES
  0
ATTDEF
  5
24C12
  8
DEFPOINTS
 10
3266.9599651004809857
 20
143.581765049542895
 30
0.0
 40
0.001
  1
K-3991K-HC
  3

  2
MODELNUMBER
 70
     0
1001
ACDBATTR
1070
     0
1070
     1
  0
ATTDEF
  5
24C13
  8
DEFPOINTS
 10
3266.9599651004809857
 20
143.5800983828762014
 30
0.0
 40
0.001
  1
REACH
  3

  2
TRADENAME
 70
     0
1001
ACDBATTR
1070
     0
1070
     1
  0
ATTDEF
  5
24C14
  8
DEFPOINTS
 10
3266.9599651004809857
 20
143.5784317162095078
 30
0.0
 40
0.001
  1
TOILET 
  3

  2
PRODUCT
 70
     0
1001
ACDBATTR
1070
     0
1070
     1
  0
LINE
  5
25560
  8
0
 10
3271.6105150089038034
 20
143.5838919558067062
 30
0.0
 11
3262.3182343259991285
 21
143.5838919558067062
 31
0.0
  0
LINE
  5
25561
  8
0
 10
3259.7035325379119968
 20
174.2741102349465052
 30
0.0
 11
3274.2164133327300988
 21
174.2741102349465052
 31
0.0
  0
ARC
  5
25562
  8
0
 10
3259.705107995329854
 20
174.0375238808476013
 30
0.0
 40
0.2365915996223948
 50
90.3815339517299492
 51
173.1146640195366047
  0
ARC
  5
25563
  8
0
 10
3660.4112160997528918
 20
125.6527431506341941
 30
0.0
 40
403.8533306956391016
 50
173.1149362736668138
 51
173.3036616861668051
  0
ARC
  5
25564
  8
0
 10
3001.158752384795207
 20
173.0599227353642959
 30
0.0
 40
262.8176390547545793
 50
353.5605049289135877
 51
355.2639815259612988
  0
ARC
  5
25565
  8
0
 10
3266.7787518617387832
 20
157.7447916998524988
 30
0.0
 40
6.1621238652678416
 50
264.3111943738006175
 51
271.726192572104992
  0
ARC
  5
25566
  8
0
 10
3265.8938034337647878
 20
148.8611897816797978
 30
0.0
 40
2.765446731525897
 50
84.3111943738005181
 51
98.4367991018927455
  0
ARC
  5
25567
  8
0
 10
3267.8283569991190234
 20
138.424926753374109
 30
0.0
 40
13.3780734186078991
 50
100.0748848387896004
 51
104.8566839845259011
  0
ARC
  5
25568
  8
0
 10
3264.9205194993342047
 20
149.3851313194140005
 30
0.0
 40
2.038690633130233
 50
104.8451825680379983
 51
123.444538753678799
  0
ARC
  5
25569
  8
0
 10
3258.7778174120680887
 20
159.1828587554944932
 30
0.0
 40
9.5260985445016964
 50
300.2186090926703059
 51
301.7949516003079111
  0
ARC
  5
2556A
  8
0
 10
3263.5036510562517833
 20
151.0691263090174061
 30
0.0
 40
0.1364149584848016
 50
223.8564939331145922
 51
300.2186090926703059
  0
ARC
  5
2556B
  8
0
 10
3263.8054728747201807
 20
151.2307902696122142
 30
0.0
 40
0.4751611458098363
 50
191.0738008374133869
 51
212.6252999053749875
  0
ARC
  5
2556C
  8
0
 10
3259.3730923959228676
 20
172.7382745625318989
 30
0.0
 40
0.0605334999813685
 50
173.6445056945013903
 51
249.4045323780457863
  0
LINE
  5
2556D
  8
0
 10
3259.3517986718911743
 20
172.681609918026993
 30
0.0
 11
3259.3490911412118294
 21
172.6585780296784947
 31
0.0
  0
ARC
  5
2556E
  8
0
 10
3259.3588474050070545
 20
172.6052347126993141
 30
0.0
 40
0.054228167492324
 50
100.3645972834496973
 51
177.9799843171959992
  0
ARC
  5
2556F
  8
0
 10
3270.5487139249139545
 20
172.7597825859288889
 30
0.0
 40
11.2450969488030701
 50
180.7777336576216953
 51
182.6054228608035999
  0
ARC
  5
25570
  8
0
 10
3259.385102484025083
 20
172.2077900481725123
 30
0.0
 40
0.0809116641709332
 50
149.7033179716715097
 51
173.8734682171117925
  0
LINE
  5
25571
  8
0
 10
3259.3046529362941328
 20
172.2164253054785092
 30
0.0
 11
3259.5812348181088964
 21
163.2208299752070104
 31
0.0
  0
LINE
  5
25572
  8
0
 10
3259.3490911412118294
 20
172.6585780296784947
 30
0.0
 11
3274.5796581980130213
 21
172.6585780296784947
 31
0.0
  0
ARC
  5
25573
  8
0
 10
3272.6629590496181663
 20
159.7578935113324121
 30
0.0
 40
12.8899352723629708
 50
193.3656683374904901
 51
210.424356297711995
  0
ARC
  5
25574
  8
0
 10
3268.2769128626068778
 20
157.1821085904736037
 30
0.0
 40
7.8034758836409193
 50
210.424356297711995
 51
230.7457034330629995
  0
LINE
  5
25575
  8
0
 10
3274.5772879799369548
 20
172.6817378233785121
 30
0.0
 11
3259.3514548093330632
 21
172.6817378233785121
 31
0.0
  0
ARC
  5
25576
  8
0
 10
3274.2234548322799128
 20
174.0374265049684936
 30
0.0
 40
0.2367884514755653
 50
6.9033177840903228
 51
91.7040851852861465
  0
ARC
  5
25577
  8
0
 10
2873.517533239471959
 20
125.6527431506341941
 30
0.0
 40
403.8533306956391016
 50
6.6963383138331674
 51
6.8850637263331569
  0
ARC
  5
25578
  8
0
 10
3532.7699969501081796
 20
173.0599227353642959
 30
0.0
 40
262.8176390547545793
 50
184.7360184740387012
 51
186.4394950710864123
  0
ARC
  5
25579
  8
0
 10
3267.1499974731627844
 20
157.7447916998524988
 30
0.0
 40
6.1621238652678416
 50
268.273807427895008
 51
275.6888056261994961
  0
ARC
  5
2557A
  8
0
 10
3268.0349459011367799
 20
148.8611897816797978
 30
0.0
 40
2.765446731525897
 50
81.5632008981072545
 51
95.6888056261994535
  0
ARC
  5
2557B
  8
0
 10
3266.100392335782999
 20
138.424926753374109
 30
0.0
 40
13.3780734186078991
 50
75.1433160154741131
 51
79.9251151612103854
  0
ARC
  5
2557C
  8
0
 10
3269.0082298355691819
 20
149.3851313194140005
 30
0.0
 40
2.038690633130233
 50
56.5554612463211583
 51
75.1548174319620017
  0
ARC
  5
2557D
  8
0
 10
3275.1509319228348431
 20
159.1828587554944932
 30
0.0
 40
9.5260985445016964
 50
238.2050483996922026
 51
239.7813909073298078
  0
ARC
  5
2557E
  8
0
 10
3270.4250982786497843
 20
151.0691263090174061
 30
0.0
 40
0.1364149584848016
 50
239.7813909073298078
 51
316.1435060668860046
  0
ARC
  5
2557F
  8
0
 10
3270.1232764601818417
 20
151.2307902696122142
 30
0.0
 40
0.4751611458098363
 50
327.3747000946249841
 51
348.9261991625866131
  0
ARC
  5
25580
  8
0
 10
3274.5556569433010736
 20
172.7382745625318989
 30
0.0
 40
0.0605334999813685
 50
290.5954676219541852
 51
6.3554943054985813
  0
LINE
  5
25581
  8
0
 10
3274.5769506673332216
 20
172.681609918026993
 30
0.0
 11
3274.5796581980130213
 21
172.6585780296784947
 31
0.0
  0
ARC
  5
25582
  8
0
 10
3274.5695093174172143
 20
172.6048954834820961
 30
0.0
 40
0.0546334654169684
 50
2.3610430406556979
 51
79.2943753587115765
  0
ARC
  5
25583
  8
0
 10
3263.3800354143140794
 20
172.75978258592869
 30
0.0
 40
11.2450969487987003
 50
357.3945771391963717
 51
359.2222663423783047
  0
ARC
  5
25584
  8
0
 10
3274.558534458646136
 20
172.2126881852813938
 30
0.0
 40
0.0656683683805717
 50
3.262407237017396
 51
33.1608065741954476
  0
LINE
  5
25585
  8
0
 10
3274.6240964029311726
 20
172.2164253054785092
 30
0.0
 11
3274.3474962754949047
 21
163.2202366616776885
 31
0.0
  0
ARC
  5
25586
  8
0
 10
3261.2657902852838561
 20
159.7578935113324121
 30
0.0
 40
12.8899352723629708
 50
329.575643702288005
 51
346.6343316625095099
  0
ARC
  5
25587
  8
0
 10
3265.6518364722951446
 20
157.1821085904736037
 30
0.0
 40
7.8034758836409193
 50
309.2542965669370005
 51
329.575643702288005
  0
LINE
  5
25588
  8
0
 10
3259.7543746673009082
 20
156.7781919424566865
 30
0.0
 11
3274.1743746673009809
 21
156.7781919424566865
 31
0.0
  0
LINE
  5
25589
  8
0
 10
3273.9833935426008793
 20
158.978241942456691
 30
0.0
 11
3259.9448528892007744
 21
158.978241942456691
 31
0.0
  0
ARC
  5
2558A
  8
0
 10
3247.4544532837207953
 20
157.773944613078811
 30
0.0
 40
12.3401616449415492
 50
355.3716553682049835
 51
4.628344631795053
  0
ARC
  5
2558B
  8
0
 10
3286.4486249996930383
 20
157.7742105074069059
 30
0.0
 40
12.3145959821643096
 50
175.3607845088920953
 51
184.639215491109411
  0
ARC
  5
2558C
  8
0
 10
3259.9716289900670745
 20
158.7625247037242104
 30
0.0
 40
0.2173726907040979
 50
97.0757004779084269
 51
178.1090855058695865
  0
ARC
  5
2558D
  8
0
 10
3273.9532279982549881
 20
158.7588679122636961
 30
0.0
 40
0.2214383101200172
 50
2.9409204133972762
 51
82.1705094639596609
  0
LINE
  5
2558E
  8
0
 10
3262.2652285516201118
 20
164.0881059692067083
 30
0.0
 11
3271.6634476762201302
 21
164.0881059692067083
 31
0.0
  0
ARC
  5
2558F
  8
0
 10
3266.8913405375487855
 20
-462.0414575335299219
 30
0.0
 40
626.0294181622474525
 50
89.9933190815996937
 51
90.1367392095148148
  0
ARC
  5
25590
  8
0
 10
3265.9391429381898888
 20
-63.0571404289213717
 30
0.0
 40
227.0439648237841084
 50
90.1367392095148148
 51
90.8516169658651478
  0
ARC
  5
25591
  8
0
 10
3264.9948244007860012
 20
0.47081217876692
 30
0.0
 40
163.5089941381469885
 50
90.8516169658651478
 51
90.9653987227429326
  0
ARC
  5
25592
  8
0
 10
3262.2302447279198532
 20
164.5312707958790099
 30
0.0
 40
0.5747557654457707
 50
265.34871046235412
 51
270.9653987227429752
  0
LINE
  5
25593
  8
0
 10
3262.2399285516207783
 20
163.9565966156065997
 30
0.0
 11
3262.2399285516207783
 21
164.0628059692066927
 31
0.0
  0
ARC
  5
25594
  8
0
 10
3262.2652285516201118
 20
164.0628059692066927
 30
0.0
 40
0.0253
 50
90.0
 51
179.9999999999951115
  0
LINE
  5
25595
  8
0
 10
3262.1836371047320426
 20
164.0626580065323026
 30
0.0
 11
3262.1836371047320426
 21
163.9584078808863978
 31
0.0
  0
ARC
  5
25596
  8
0
 10
3262.1086200910131083
 20
151.3616652389875128
 30
0.0
 40
12.7263884247167791
 50
89.774419646466697
 51
94.6936422183451185
  0
ARC
  5
25597
  8
0
 10
3262.1583371047317996
 20
164.0626580065323026
 30
0.0
 40
0.0253
 50
0.0
 51
89.1208853735830218
  0
ARC
  5
25598
  8
0
 10
3261.6221143030838903
 20
158.1171539377668012
 30
0.0
 40
5.9541320096715618
 50
95.3471764912074065
 51
102.8187714906566015
  0
ARC
  5
25599
  8
0
 10
3260.6584166172337973
 20
162.3524619135336877
 30
0.0
 40
1.6105681642438521
 50
102.8187714906566015
 51
118.7187295282812016
  0
ARC
  5
2559A
  8
0
 10
3260.0935705896458785
 20
163.3803216906748901
 30
0.0
 40
0.4377344841662957
 50
118.5267479915640934
 51
169.0151880354941056
  0
ARC
  5
2559B
  8
0
 10
3263.5876403282309184
 20
163.5819332763927036
 30
0.0
 40
3.9255639111594478
 50
181.7254817589625873
 51
200.1986422113324977
  0
ARC
  5
2559C
  8
0
 10
3262.7002989997640725
 20
163.1724165891158123
 30
0.0
 40
2.952426049010791
 50
198.6856592933764887
 51
208.2311672468796075
  0
ARC
  5
2559D
  8
0
 10
3261.7398418619418408
 20
162.6490800124595069
 30
0.0
 40
1.858677208000451
 50
208.0228253760188011
 51
239.1822453961922008
  0
ARC
  5
2559E
  8
0
 10
3262.2155326660958963
 20
163.6887441567216968
 30
0.0
 40
2.9978126966877889
 50
241.5548929976754096
 51
265.1445637892572904
  0
ARC
  5
2559F
  8
0
 10
3264.2253334816768984
 20
185.1850058339213092
 30
0.0
 40
24.5877288076912883
 50
264.717882663373075
 51
267.2132452019649236
  0
LINE
  5
255A0
  8
0
 10
3263.0264578522928787
 20
160.6263543914413106
 30
0.0
 11
3270.8987703881998641
 21
160.6263543914413106
 31
0.0
  0
LINE
  5
255A1
  8
0
 10
3259.6638563953952143
 20
163.4637314616066988
 30
0.0
 11
3259.3380394115952186
 21
162.5058529962066984
 31
0.0
  0
ARC
  5
255A2
  8
0
 10
3260.3293825220798681
 20
162.1686531934581126
 30
0.0
 40
1.0471221846951779
 50
161.2145511525507118
 51
184.9696546100009016
  0
ARC
  5
255A3
  8
0
 10
3261.6379863500119427
 20
162.4650529734018107
 30
0.0
 40
2.3834362610302828
 50
189.3472017880712883
 51
221.2189476945995068
  0
ARC
  5
255A4
  8
0
 10
3261.8005280439510898
 20
163.0756484960124055
 30
0.0
 40
2.929292603776851
 50
228.1242132007662065
 51
268.1170130098578284
  0
LINE
  5
255A5
  8
0
 10
3261.7042761549369061
 20
160.1479376611787018
 30
0.0
 11
3272.2244000729037907
 21
160.1479376611787018
 31
0.0
  0
ARC
  5
255A6
  8
0
 10
3263.8893484178797735
 20
161.4687560147526995
 30
0.0
 40
4.6686020028058302
 50
167.2084112122657018
 51
167.2389382635126083
  0
ARC
  5
255A7
  8
0
 10
3263.8893484178797735
 20
161.4687560147526995
 30
0.0
 40
4.6686020028058302
 50
170.5158224890284941
 51
177.2475591439844038
  0
ARC
  5
255A8
  8
0
 10
3261.0981592996968175
 20
161.6063289830966028
 30
0.0
 40
1.8740296627782971
 50
177.3508812262448089
 51
218.5683225662218945
  0
ARC
  5
255A9
  8
0
 10
3261.2681728200309408
 20
161.7380614922996926
 30
0.0
 40
2.089087774629026
 50
218.4861147777764074
 51
243.143064569688903
  0
ARC
  5
255AA
  8
0
 10
3261.6077339118392047
 20
162.4086216373470108
 30
0.0
 40
2.840721091609399
 50
243.143064569688903
 51
265.3358359103143016
  0
ARC
  5
255AB
  8
0
 10
3263.3744118901399816
 20
177.6306293699761056
 30
0.0
 40
18.1635104800366314
 50
263.6856826796595783
 51
269.53992551197382
  0
LINE
  5
255AC
  8
0
 10
3263.2285638354701405
 20
159.4677044595067059
 30
0.0
 11
3270.7001123923710111
 21
159.4677044595067059
 31
0.0
  0
LINE
  5
255AD
  8
0
 10
3260.0287773112750074
 20
160.0563402005932971
 30
0.0
 11
3260.0044912819198544
 21
159.4742266378067086
 31
0.0
  0
ARC
  5
255AE
  8
0
 10
3260.0949570893371856
 20
159.4660367121616957
 30
0.0
 40
0.0908357704524108
 50
174.8270788601300012
 51
222.9040747932872932
  0
ARC
  5
255AF
  8
0
 10
3259.8330036797578941
 20
158.943330558548098
 30
0.0
 40
0.5005863065611273
 50
63.8409402312101122
 51
67.0221240567681065
  0
ARC
  5
255B0
  8
0
 10
3260.0774304594078785
 20
159.4409686598810936
 30
0.0
 40
0.0538396402598242
 50
243.8409402312101122
 51
270.7276770062644005
  0
ARC
  5
255B1
  8
0
 10
3260.1010674427220692
 20
160.8054377267393988
 30
0.0
 40
1.4184900853121289
 50
269.0728310465615891
 51
270.3093107595190077
  0
ARC
  5
255B2
  8
0
 10
3260.7769185720758287
 20
161.1640118376566875
 30
0.0
 40
1.898516840760142
 50
249.3930305071403097
 51
257.3530175207085904
  0
ARC
  5
255B3
  8
0
 10
3260.8821218413108909
 20
161.6328579965648942
 30
0.0
 40
2.3790212097106811
 50
257.3530175207085904
 51
267.0901159361108057
  0
ARC
  5
255B4
  8
0
 10
3261.7245400466008505
 20
178.2170389246358013
 30
0.0
 40
18.9845842970379515
 50
267.0918293245752011
 51
269.2347535385691231
  0
LINE
  5
255B5
  8
0
 10
3261.470988141784801
 20
159.2341478813065976
 30
0.0
 11
3272.4576880860549863
 21
159.2341478813065976
 31
0.0
  0
LINE
  5
255B6
  8
0
 10
3260.1585943921190847
 20
159.3690072685456016
 30
0.0
 11
3260.1778864915208942
 21
159.0740991175067052
 31
0.0
  0
ARC
  5
255B7
  8
0
 10
3260.2171818140850519
 20
159.0766766006238981
 30
0.0
 40
0.0393797637720175
 50
183.7528043791305095
 51
270.193362466093788
  0
LINE
  5
255B8
  8
0
 10
3260.2173147131197766
 20
159.0372970611066989
 30
0.0
 11
3262.2343431738199797
 21
159.0373383614067109
 31
0.0
  0
ARC
  5
255B9
  8
0
 10
3262.148560995778098
 20
159.2204735038100978
 30
0.0
 40
0.2022302214130292
 50
295.0988220292630899
 51
313.2910720490002063
  0
LINE
  5
255BA
  8
0
 10
3262.2872312579202116
 20
159.073274248206701
 30
0.0
 11
3262.4477975038198565
 21
159.2341486072066914
 31
0.0
  0
LINE
  5
255BB
  8
0
 10
3260.3501369782197798
 20
159.0372970605066882
 30
0.0
 11
3260.3501369782197798
 21
158.978241942306397
 31
0.0
  0
LINE
  5
255BC
  8
0
 10
3261.5796793654199064
 20
159.0372970605066882
 30
0.0
 11
3261.5796793654199064
 21
158.978241942306397
 31
0.0
  0
LINE
  5
255BD
  8
0
 10
3262.8033101314631494
 20
159.2341478813065976
 30
0.0
 11
3262.9837096865198873
 21
158.9859103815066987
 31
0.0
  0
ARC
  5
255BE
  8
0
 10
3262.9996605552009896
 20
158.9975022224456893
 30
0.0
 40
0.0197180371240321
 50
216.006715036255514
 51
257.6300750970082163
  0
LINE
  5
255BF
  8
0
 10
3264.2648128327159611
 20
159.2341478813065976
 30
0.0
 11
3264.0816491972200311
 21
158.9865787324067128
 31
0.0
  0
ARC
  5
255C0
  8
0
 10
3264.0639574447632185
 20
158.9996679469265075
 30
0.0
 40
0.0220073997048443
 50
283.1992639134891192
 51
323.5041723533782942
  0
LINE
  5
255C1
  8
0
 10
3266.2556766966199575
 20
159.2026624148066958
 30
0.0
 11
3266.2556766966199575
 21
158.9900529660066866
 31
0.0
  0
LINE
  5
255C2
  8
0
 10
3266.3737869328188026
 20
159.2026624148066958
 30
0.0
 11
3266.3737869328188026
 21
158.9900529660066866
 31
0.0
  0
ARC
  5
255C3
  8
0
 10
3266.3619869328199457
 20
159.2026624148066958
 30
0.0
 40
0.0118
 50
0.0
 51
90.0
  0
LINE
  5
255C4
  8
0
 10
3266.2674766966201787
 20
159.2144624148066896
 30
0.0
 11
3266.3619869328199457
 21
159.2144624148066896
 31
0.0
  0
ARC
  5
255C5
  8
0
 10
3266.2674766966201787
 20
159.2026624148066958
 30
0.0
 40
0.0118
 50
90.0
 51
180.0
  0
ARC
  5
255C6
  8
0
 10
3266.2674877203808137
 20
158.9900529660677932
 30
0.0
 40
0.0118110237613584
 50
180.0000002965037993
 51
269.9999992172525936
  0
ARC
  5
255C7
  8
0
 10
3266.3619759090488515
 20
158.9900529660775987
 30
0.0
 40
0.0118110237711132
 50
270.0000008300896184
 51
359.9999996561720081
  0
LINE
  5
255C8
  8
0
 10
3266.3914556349200211
 20
159.1672183204067039
 30
0.0
 11
3267.5372205929188567
 21
159.1672183204067039
 31
0.0
  0
ARC
  5
255C9
  8
0
 10
3266.394621412207016
 20
159.1334566807327064
 30
0.0
 40
0.0339097398884333
 50
95.3568740561382384
 51
127.9119453557885038
  0
ARC
  5
255CA
  8
0
 10
3266.9636958391761254
 20
158.6212801644726937
 30
0.0
 40
0.5662386630281437
 50
89.9350238278978651
 51
105.3744054684559046
  0
ARC
  5
255CB
  8
0
 10
3266.9643381139208032
 20
158.6166489928066881
 30
0.0
 40
0.5759326751999893
 50
90.0
 51
98.4231768461247043
  0
ARC
  5
255CC
  8
0
 10
3266.8750734472819204
 20
159.219460709912596
 30
0.0
 40
0.0334523812218429
 50
253.7012285365269975
 51
278.4231768461245906
  0
ARC
  5
255CD
  8
0
 10
3266.869121284998073
 20
159.1991042820384905
 30
0.0
 40
0.012243600218829
 50
186.8671564063108121
 51
253.7012285365269975
  0
ARC
  5
255CE
  8
0
 10
3260.5353637057878586
 20
159.1440348491252905
 30
0.0
 40
6.3218290900716889
 50
0.4858412473285032
 51
0.8167339777132301
  0
LINE
  5
255CF
  8
0
 10
3266.4919042897208783
 20
159.2341478813065976
 30
0.0
 11
3266.4919042897208783
 21
159.1672183204067039
 31
0.0
  0
ARC
  5
255D0
  8
0
 10
3267.0373356902910018
 20
-462.0414575335299219
 30
0.0
 40
626.0294181622474525
 50
89.863260790485171
 51
90.0066809183742436
  0
ARC
  5
255D1
  8
0
 10
3267.989533289650808
 20
-63.0571404289213717
 30
0.0
 40
227.0439648237841084
 50
89.1483830341348522
 51
89.863260790485171
  0
ARC
  5
255D2
  8
0
 10
3268.9338518270551504
 20
0.47081217876692
 30
0.0
 40
163.5089941381469885
 50
89.0346012772570532
 51
89.1483830341348522
  0
ARC
  5
255D3
  8
0
 10
3271.6984314999199341
 20
164.5312707958790099
 30
0.0
 40
0.5747557654457707
 50
269.0346012772570248
 51
274.65128953764588
  0
LINE
  5
255D4
  8
0
 10
3271.688747676220828
 20
163.9565966156065997
 30
0.0
 11
3271.688747676220828
 21
164.0628059692066927
 31
0.0
  0
ARC
  5
255D5
  8
0
 10
3271.6634476762201302
 20
164.0628059692066927
 30
0.0
 40
0.0253
 50
0.0000000000032569
 51
90.0
  0
LINE
  5
255D6
  8
0
 10
3271.7450391231081994
 20
164.0626580065323026
 30
0.0
 11
3271.7450391231081994
 21
163.9584078808863978
 31
0.0
  0
ARC
  5
255D7
  8
0
 10
3271.8200561368271337
 20
151.3616652389875128
 30
0.0
 40
12.7263884247167791
 50
85.3063577816548673
 51
90.2255803535332888
  0
ARC
  5
255D8
  8
0
 10
3271.7703391231079877
 20
164.0626580065323026
 30
0.0
 40
0.0253
 50
90.8791146264170067
 51
180.0
  0
ARC
  5
255D9
  8
0
 10
3272.3065619247558971
 20
158.1171539377668012
 30
0.0
 40
5.9541320096715618
 50
77.1812285093433132
 51
84.6528235087926078
  0
ARC
  5
255DA
  8
0
 10
3273.27025961060599
 20
162.3524619135336877
 30
0.0
 40
1.6105681642438521
 50
61.2812704717187984
 51
77.1812285093433132
  0
ARC
  5
255DB
  8
0
 10
3273.8351142819260531
 20
163.3805376414055104
 30
0.0
 40
0.4375406335456784
 50
10.9609337598776495
 51
61.4607414699333816
  0
ARC
  5
255DC
  8
0
 10
3270.3387751857330841
 20
163.5881520708967116
 30
0.0
 40
3.9278687911542338
 50
339.7170464186838217
 51
358.1847742696867272
  0
ARC
  5
255DD
  8
0
 10
3271.2319101922398659
 20
163.1578904722848904
 30
0.0
 40
2.942463092172181
 50
331.9854983978430027
 51
341.5471622449900906
  0
ARC
  5
255DE
  8
0
 10
3272.1888343658979466
 20
162.6490800124595069
 30
0.0
 40
1.858677208000451
 50
300.8177546038078276
 51
331.9771746239812273
  0
ARC
  5
255DF
  8
0
 10
3271.713143561743891
 20
163.6887441567216968
 30
0.0
 40
2.9978126966877889
 50
274.8554362107427096
 51
298.4451070023246189
  0
ARC
  5
255E0
  8
0
 10
3269.7033427461628889
 20
185.1850058339213092
 30
0.0
 40
24.5877288076912883
 50
272.7867547980350764
 51
275.282117336626925
  0
LINE
  5
255E1
  8
0
 10
3274.2646728859422183
 20
163.4637314616066988
 30
0.0
 11
3274.5904898697422141
 21
162.5058529962066984
 31
0.0
  0
ARC
  5
255E2
  8
0
 10
3273.5991467592562003
 20
162.1686531934581126
 30
0.0
 40
1.0471221846951779
 50
355.0303453899991268
 51
18.7854488474493202
  0
ARC
  5
255E3
  8
0
 10
3272.2881942800709112
 20
162.4691191447234928
 30
0.0
 40
2.3864169037752641
 50
318.7139212392527838
 51
350.5656277384624104
  0
ARC
  5
255E4
  8
0
 10
3272.1281599400149389
 20
163.0701293573303872
 30
0.0
 40
2.923776063968738
 50
271.8863105630887844
 51
311.9172095770691158
  0
ARC
  5
255E5
  8
0
 10
3270.0391808634558402
 20
161.4687560147526995
 30
0.0
 40
4.6686020028058302
 50
12.7610617364874006
 51
12.7915887877343106
  0
ARC
  5
255E6
  8
0
 10
3270.0391808634558402
 20
161.4687560147526995
 30
0.0
 40
4.6686020028058302
 50
2.752440856015582
 51
9.4841775109699071
  0
ARC
  5
255E7
  8
0
 10
3272.8305046730388312
 20
161.6061137648738111
 30
0.0
 40
1.8739050756297919
 50
321.437056051518482
 51
2.6558825124110208
  0
ARC
  5
255E8
  8
0
 10
3272.660503407807937
 20
161.7380614922996926
 30
0.0
 40
2.089087774629026
 50
296.8569354303111822
 51
321.513885222223621
  0
ARC
  5
255E9
  8
0
 10
3272.3209423160019469
 20
162.4086216373470108
 30
0.0
 40
2.840721091609399
 50
274.6641640896856984
 51
296.8569354303111822
  0
ARC
  5
255EA
  8
0
 10
3270.5542643376998058
 20
177.6306293699761056
 30
0.0
 40
18.1635104800366314
 50
270.46007448802618
 51
276.314317320340308
  0
LINE
  5
255EB
  8
0
 10
3273.8998989165647799
 20
160.0563402005932971
 30
0.0
 11
3273.9241849459199329
 21
159.4742266378067086
 31
0.0
  0
ARC
  5
255EC
  8
0
 10
3273.8337191385030565
 20
159.4660367121616957
 30
0.0
 40
0.0908357704524108
 50
317.0959252067127068
 51
5.1729211398699908
  0
LINE
  5
255ED
  8
0
 10
3274.3668451284020193
 20
160.5334689859141122
 30
0.0
 11
3274.3994176840201362
 21
159.2853285566066859
 31
0.0
  0
LINE
  5
255EE
  8
0
 10
3274.3994176840201362
 20
159.2853285566066859
 30
0.0
 11
3274.3601593702201171
 21
159.2853285565047941
 31
0.0
  0
LINE
  5
255EF
  8
0
 10
3274.3601593702201171
 20
159.2853285566066859
 30
0.0
 11
3274.3601592630197956
 21
159.1424498432066912
 31
0.0
  0
LINE
  5
255F0
  8
0
 10
3274.3601592630197956
 20
159.1424498432066912
 30
0.0
 11
3274.1137526652278211
 21
159.012951791874201
 31
0.0
  0
LINE
  5
255F1
  8
0
 10
3274.1137526652278211
 20
159.012951791874201
 30
0.0
 11
3274.1139531577377966
 21
158.9111910828515022
 31
0.0
  0
ARC
  5
255F2
  8
0
 10
3274.0956725480818932
 20
158.943330558548098
 30
0.0
 40
0.5005863065611273
 50
112.9778759432318935
 51
116.159059768789902
  0
ARC
  5
255F3
  8
0
 10
3273.8512457684319088
 20
159.4409686598810936
 30
0.0
 40
0.0538396402598242
 50
269.2723229937355995
 51
296.1590597687899162
  0
ARC
  5
255F4
  8
0
 10
3273.8276087851181728
 20
160.8054377267393988
 30
0.0
 40
1.4184900853121289
 50
269.6906892404808787
 51
270.9271689534384109
  0
ARC
  5
255F5
  8
0
 10
3273.1517576557639586
 20
161.1640118376566875
 30
0.0
 40
1.898516840760142
 50
282.6469824792912959
 51
290.606969492859605
  0
ARC
  5
255F6
  8
0
 10
3273.0465543865288964
 20
161.6328579965648942
 30
0.0
 40
2.3790212097106811
 50
272.9098840638890806
 51
282.6469824792912959
  0
ARC
  5
255F7
  8
0
 10
3272.2041361812389368
 20
178.2170389246358013
 30
0.0
 40
18.9845842970379515
 50
270.7652464614308769
 51
272.9081706754246852
  0
LINE
  5
255F8
  8
0
 10
3273.7700818357211574
 20
159.3690072685456016
 30
0.0
 11
3273.7507897363198026
 21
159.0740991175067052
 31
0.0
  0
ARC
  5
255F9
  8
0
 10
3273.7114944137551902
 20
159.0766766006238981
 30
0.0
 40
0.0393797637720175
 50
269.806637533906212
 51
356.2471956208694905
  0
LINE
  5
255FA
  8
0
 10
3273.7113615147200107
 20
159.0372970611066989
 30
0.0
 11
3271.6943330540198076
 21
159.0373383614067109
 31
0.0
  0
ARC
  5
255FB
  8
0
 10
3271.7801152320630536
 20
159.2204735038100978
 30
0.0
 40
0.2022302214130292
 50
226.7089279509999074
 51
244.9011779707369101
  0
LINE
  5
255FC
  8
0
 10
3271.6414449699200304
 20
159.073274248206701
 30
0.0
 11
3271.4808787240199308
 21
159.2341486072066914
 31
0.0
  0
LINE
  5
255FD
  8
0
 10
3273.5785392496200075
 20
159.0372970605066882
 30
0.0
 11
3273.5785392496200075
 21
158.978241942306397
 31
0.0
  0
LINE
  5
255FE
  8
0
 10
3272.3489968624198809
 20
159.0372970605066882
 30
0.0
 11
3272.3489968624198809
 21
158.978241942306397
 31
0.0
  0
LINE
  5
255FF
  8
0
 10
3271.1253660963770926
 20
159.2341478813065976
 30
0.0
 11
3270.9449665413199
 21
158.9859103815066987
 31
0.0
  0
ARC
  5
25600
  8
0
 10
3270.9290156726401619
 20
158.9975022224456893
 30
0.0
 40
0.0197180371240321
 50
282.3699249029917837
 51
323.9932849637439176
  0
LINE
  5
25601
  8
0
 10
3269.6638633951238262
 20
159.2341478813065976
 30
0.0
 11
3269.847027030620211
 21
158.9865787324067128
 31
0.0
  0
ARC
  5
25602
  8
0
 10
3269.864718783077933
 20
158.9996679469265075
 30
0.0
 40
0.0220073997048443
 50
216.4958276466196878
 51
256.8007360864842212
  0
LINE
  5
25603
  8
0
 10
3267.6729995312198298
 20
159.2026624148066958
 30
0.0
 11
3267.6729995312198298
 21
158.9900529660066866
 31
0.0
  0
LINE
  5
25604
  8
0
 10
3267.5548892950200752
 20
159.2026624148066958
 30
0.0
 11
3267.5548892950200752
 21
158.9900529660066866
 31
0.0
  0
ARC
  5
25605
  8
0
 10
3267.5666892950198417
 20
159.2026624148066958
 30
0.0
 40
0.0118
 50
90.0
 51
180.0
  0
LINE
  5
25606
  8
0
 10
3267.6611995312200634
 20
159.2144624148066896
 30
0.0
 11
3267.5666892950198417
 21
159.2144624148066896
 31
0.0
  0
ARC
  5
25607
  8
0
 10
3267.6611995312200634
 20
159.2026624148066958
 30
0.0
 40
0.0118
 50
0.0
 51
90.0
  0
ARC
  5
25608
  8
0
 10
3267.6611885074589736
 20
158.9900529660677932
 30
0.0
 40
0.0118110237613584
 50
270.0000007827474064
 51
359.9999997034946091
  0
ARC
  5
25609
  8
0
 10
3267.5667003187909359
 20
158.9900529660775987
 30
0.0
 40
0.0118110237711132
 50
180.0000003438279919
 51
269.9999991699104953
  0
ARC
  5
2560A
  8
0
 10
3267.5340548156341356
 20
159.1334566807327064
 30
0.0
 40
0.0339097398884333
 50
52.0880546442115104
 51
84.6431259438617758
  0
ARC
  5
2560B
  8
0
 10
3266.9649803886641166
 20
158.6212801644726937
 30
0.0
 40
0.5662386630281437
 50
74.6255945315441238
 51
90.0649761721021349
  0
ARC
  5
2560C
  8
0
 10
3266.9643381139208032
 20
158.6166489928066881
 30
0.0
 40
0.5759326751999893
 50
81.5768231538752957
 51
90.0
  0
ARC
  5
2560D
  8
0
 10
3267.0536027805587764
 20
159.219460709912596
 30
0.0
 40
0.0334523812218429
 50
261.5768231538752957
 51
286.2987714634729741
  0
ARC
  5
2560E
  8
0
 10
3267.0595549428421691
 20
159.1991042820384905
 30
0.0
 40
0.012243600218829
 50
286.2987714634729741
 51
353.1328435936891879
  0
ARC
  5
2560F
  8
0
 10
3273.3933125220519287
 20
159.1440348491252905
 30
0.0
 40
6.3218290900716889
 50
179.1832660222866878
 51
179.5141587526715057
  0
LINE
  5
25610
  8
0
 10
3267.4367719381198185
 20
159.2341478813065976
 30
0.0
 11
3267.4367719381198185
 21
159.1672183204067039
 31
0.0
  0
LINE
  5
25611
  8
0
 10
3274.3601593702201171
 20
159.1424499561067023
 30
0.0
 11
3274.1919807006202063
 21
159.1442080237067103
 31
0.0
  0
LINE
  5
25612
  8
0
 10
3274.1919807006202063
 20
159.1442080237067103
 30
0.0
 11
3273.866570688262982
 21
158.978241942306397
 31
0.0
  0
LINE
  5
25613
  8
0
 10
3274.1966305472587919
 20
159.4518050931368123
 30
0.0
 11
3274.1900240878831028
 21
159.4230120619826039
 31
0.0
  0
LINE
  5
25614
  8
0
 10
3274.1900240878831028
 20
159.4230120619826039
 30
0.0
 11
3274.1919807006202063
 21
159.1442080237067103
 31
0.0
  0
ARC
  5
25615
  8
0
 10
3266.9127794879641442
 20
160.9480887717120083
 30
0.0
 40
7.4359499124697521
 50
348.3915178484140824
 51
356.4561423519716072
  0
LINE
  5
25616
  8
0
 10
3273.9189579814128592
 20
159.434644406528605
 30
0.0
 11
3274.1900240878831028
 21
159.4230120619826039
 31
0.0
  0
LINE
  5
25617
  8
0
 10
3259.2597122623119503
 20
162.070681033050505
 30
0.0
 11
3258.4601006041370965
 21
161.9533444018020987
 31
0.0
  0
ARC
  5
25618
  8
0
 10
3260.8572085088421773
 20
145.6178197995359085
 30
0.0
 40
16.5104660848215907
 50
98.3481181413652052
 51
99.5247132856689518
  0
ARC
  5
25619
  8
0
 10
3266.2502614493678266
 20
113.4753800465730933
 30
0.0
 40
49.1022051193094384
 50
99.5247132856689518
 51
99.9582675646346956
  0
ARC
  5
2561A
  8
0
 10
3258.2518073548380926
 20
159.0308730256078888
 30
0.0
 40
2.849873194689744
 50
99.9582675646346956
 51
109.5478999694818043
  0
ARC
  5
2561B
  8
0
 10
3257.4203025348201663
 20
161.3727462973982085
 30
0.0
 40
0.3647634009706105
 50
109.5478999694818043
 51
144.104799541486102
  0
ARC
  5
2561C
  8
0
 10
3257.2556597722609695
 20
161.4919067638763011
 30
0.0
 40
0.1615235032276141
 50
144.104799541486102
 51
174.5629688218153888
  0
ARC
  5
2561D
  8
0
 10
3257.7718830598419117
 20
161.4427726508461092
 30
0.0
 40
0.6800798103975864
 50
174.5629688218153888
 51
189.1351057973560899
  0
ARC
  5
2561E
  8
0
 10
3258.4583672386697799
 20
161.5531610517485888
 30
0.0
 40
1.3753827133359231
 50
189.1351057973560899
 51
210.2648710459955907
  0
ARC
  5
2561F
  8
0
 10
3252.7553753752217744
 20
158.2252905720245053
 30
0.0
 40
5.22755891327028
 50
29.1090911827798386
 51
30.2648710459955588
  0
ARC
  5
25620
  8
0
 10
3257.9163113568829431
 20
161.2449526643517004
 30
0.0
 40
0.761282676560753
 50
218.7582819099040137
 51
254.3471663735521986
  0
ARC
  5
25621
  8
0
 10
3259.2021107037721777
 20
165.2730044474893134
 30
0.0
 40
4.9891647326909458
 50
252.6091988767736041
 51
262.0304217095455215
  0
ARC
  5
25622
  8
0
 10
3262.1332657969010143
 20
184.0940984272488947
 30
0.0
 40
24.0366681403985005
 50
261.3311468331726815
 51
263.8376700889103859
  0
ARC
  5
25623
  8
0
 10
3260.7337985163771918
 20
170.2778471831009881
 30
0.0
 40
10.1504383024765996
 50
263.3198529436281206
 51
265.2710113856612111
  0
ARC
  5
25624
  8
0
 10
3258.588121323822179
 20
161.4838145851387878
 30
0.0
 40
1.494999319337609
 50
185.8080325259143137
 51
202.6079250693643985
  0
ARC
  5
25625
  8
0
 10
3272.8497968266128737
 20
167.422691716339898
 30
0.0
 40
16.9438067078195509
 50
202.6079250693643985
 51
203.2004095986999914
  0
ARC
  5
25626
  8
0
 10
3257.7009310651069427
 20
160.9297513663487109
 30
0.0
 40
0.4621075160282377
 50
203.2004095986999914
 51
214.5462330425968105
  0
ARC
  5
25627
  8
0
 10
3257.8639328208928418
 20
161.0419731344867103
 30
0.0
 40
0.6600047055828443
 50
214.5462330425968105
 51
247.6673368629537038
  0
ARC
  5
25628
  8
0
 10
3258.7420802377728251
 20
163.1796458077647003
 30
0.0
 40
2.9710190594656378
 50
247.6673368629537038
 51
262.318334076438191
  0
ARC
  5
25629
  8
0
 10
3261.8908527578641952
 20
181.8218633288753949
 30
0.0
 40
21.8758692830879795
 50
260.6716491213854283
 51
263.8566537008690034
  0
ARC
  5
2562A
  8
0
 10
3260.4866175711531469
 20
166.9195754798207076
 30
0.0
 40
6.9117395735238176
 50
262.2099687457978234
 51
266.1903731321565942
  0
ARC
  5
2562B
  8
0
 10
3283.2623831407368016
 20
163.402142426519589
 30
0.0
 40
26.1733837474350715
 50
185.4657643954477919
 51
185.8605611079674134
  0
ARC
  5
2562C
  8
0
 10
3258.5817885451419897
 20
160.9406011058676995
 30
0.0
 40
1.3723026917059491
 50
188.8432217481486077
 51
206.6616632516534082
  0
ARC
  5
2562D
  8
0
 10
3258.0612824525778706
 20
160.6362230945447038
 30
0.0
 40
0.7715190167962188
 50
203.8048983062354864
 51
224.9529475873856939
  0
ARC
  5
2562E
  8
0
 10
3258.1825382206047834
 20
160.8347019764362074
 30
0.0
 40
0.9990641812701944
 50
228.0967375559442871
 51
253.1382971969287041
  0
ARC
  5
2562F
  8
0
 10
3258.8677960629001973
 20
162.7694393358499951
 30
0.0
 40
3.0508574321054152
 50
251.3613638997508986
 51
259.3534825714100975
  0
ARC
  5
25630
  8
0
 10
3264.2133273001718408
 20
197.6242472544834925
 30
0.0
 40
38.3116050424359926
 50
261.1272890211466233
 51
263.697263478988873
  0
ARC
  5
25631
  8
0
 10
3262.6425475228279538
 20
173.8279423904513123
 30
0.0
 40
14.7232593173106796
 50
252.3628921968121119
 51
255.9827224226413875
  0
ARC
  5
25632
  8
0
 10
3261.0441454830279326
 20
168.4912541948401099
 30
0.0
 40
9.1619655089197671
 50
257.5975228684674221
 51
261.8080011796878921
  0
ARC
  5
25633
  8
0
 10
3259.1759303211160841
 20
156.4526405861111868
 30
0.0
 40
3.0229718830724401
 50
73.5991425731980229
 51
79.2719294798852872
  0
ARC
  5
25634
  8
0
 10
3260.302252377923196
 20
160.0801559949721025
 30
0.0
 40
0.7770007382694966
 50
249.4482704275451965
 51
259.6059441295111014
  0
LINE
  5
25635
  8
0
 10
3259.8505568718937866
 20
158.9430584370406052
 30
0.0
 11
3259.5685534789931808
 21
159.0912828905574941
 31
0.0
  0
LINE
  5
25636
  8
0
 10
3259.5685534789931808
 20
159.0912828905574941
 30
0.0
 11
3259.5685534760741575
 21
159.2341609865721068
 31
0.0
  0
LINE
  5
25637
  8
0
 10
3259.9422984252269089
 20
158.9779094864506988
 30
0.0
 11
3259.6877093544831041
 21
159.1134268921022965
 31
0.0
  0
LINE
  5
25638
  8
0
 10
3259.6877093544831041
 20
159.1134268921022965
 30
0.0
 11
3259.6863257157010594
 21
159.2060510263567039
 31
0.0
  0
LINE
  5
25639
  8
0
 10
3259.6863257157010594
 20
159.2060510263567039
 30
0.0
 11
3259.6833936789012114
 21
159.2341609880566864
 31
0.0
  0
LINE
  5
2563A
  8
0
 10
3259.6833936789012114
 20
159.2341609880566864
 30
0.0
 11
3259.5292951358010214
 21
159.2341609854566968
 31
0.0
  0
LINE
  5
2563B
  8
0
 10
3259.5292951358010214
 20
159.2341609854566968
 30
0.0
 11
3259.5350426328209323
 21
159.4544283929263884
 31
0.0
  0
LINE
  5
2563C
  8
0
 10
3259.7657864263092051
 20
158.9876148263876132
 30
0.0
 11
3259.7660101565961668
 21
158.8330355680355126
 31
0.0
  0
ARC
  5
2563D
  8
0
 10
3266.9639953649789277
 20
263.7073803915050121
 30
0.0
 40
89.4290178800526689
 50
269.3948623266758204
 51
270.6056254074102867
  0
ARC
  5
2563E
  8
0
 10
3266.9642945050609342
 20
89.0907226016877729
 30
0.0
 40
85.2840564116293507
 50
89.3913965667846355
 51
90.6084950432105671
  0
ARC
  5
2563F
  8
0
 10
3267.8697565572010717
 20
174.330469998589308
 30
0.0
 40
0.0395
 50
0.0
 51
89.3913965667846355
  0
ARC
  5
25640
  8
0
 10
3266.0589937062818535
 20
174.3304717113560116
 30
0.0
 40
0.0395
 50
90.6084950432366156
 51
180.0020602747096063
  0
LINE
  5
25641
  8
0
 10
3266.0194954006760781
 20
174.2833502943985025
 30
0.0
 11
3266.0194937063079124
 21
174.3304702909921957
 31
0.0
  0
LINE
  5
25642
  8
0
 10
3267.909256557201843
 20
174.2833583377567095
 30
0.0
 11
3267.909256557201843
 21
174.330469998589308
 31
0.0
  0
ARC
  5
25643
  8
0
 10
3266.1967123700010234
 20
174.2636912628566961
 30
0.0
 40
0.0196260665999833
 50
32.0946635396870619
 51
65.7483648205319042
  0
ARC
  5
25644
  8
0
 10
3267.7323041697509325
 20
174.2633939980775892
 30
0.0
 40
0.0200156939466805
 50
114.6086974146521982
 51
147.582392879976311
  0
ARC
  5
25646
  8
0
 10
3257.8940473641378048
 20
160.8903999255032033
 30
0.0
 40
0.7386816824126428
 50
89.6222543465418084
 51
100.6849702443545027
  0
ARC
  5
25647
  8
0
 10
3257.8025030184139723
 20
161.3761051731684972
 30
0.0
 40
0.2444247386706158
 50
100.7076965988211015
 51
115.2179254756554059
  0
ARC
  5
25648
  8
0
 10
3257.7183932450161592
 20
161.5547024836859009
 30
0.0
 40
0.0470128512243531
 50
115.2179254756554059
 51
138.4995443829839985
  0
ARC
  5
25649
  8
0
 10
3257.6957786094799303
 20
161.5747105436884965
 30
0.0
 40
0.0168177488819479
 50
138.4995443829814974
 51
219.0273199893028107
  0
ARC
  5
2564A
  8
0
 10
3257.7163885802929144
 20
161.5914164468564991
 30
0.0
 40
0.0433480729948125
 50
219.0273199893022138
 51
248.4298084316482118
  0
ARC
  5
2564B
  8
0
 10
3257.8062804282430989
 20
161.7825691800094035
 30
0.0
 40
0.2545107307950106
 50
245.4295991340900116
 51
262.0027168582757895
  0
ARC
  5
2564C
  8
0
 10
3257.8909595314848957
 20
162.2361374210697136
 30
0.0
 40
0.7157498559663881
 50
260.3412566766107261
 51
270.6377903019661062
  0
ARC
  5
2564D
  8
0
 10
3257.9043009599708967
 20
162.2604859837915114
 30
0.0
 40
0.7400735875929702
 50
269.5839314264252948
 51
280.3452495228431758
  0
ARC
  5
2564E
  8
0
 10
3258.0001548923819428
 20
161.755256210806607
 30
0.0
 40
0.2258718664216526
 50
279.4404057541361794
 51
297.3622904921394934
  0
ARC
  5
2564F
  8
0
 10
3258.0867556077391782
 20
161.585901807905401
 30
0.0
 40
0.0356741666530021
 50
298.8500547148323108
 51
331.6177902195124148
  0
ARC
  5
25650
  8
0
 10
3258.1057044060271437
 20
161.5756638332628938
 30
0.0
 40
0.0141364536524069
 50
331.6177902195159959
 51
60.1436735275620222
  0
ARC
  5
25651
  8
0
 10
3258.0149301039032252
 20
161.4455774812840048
 30
0.0
 40
0.17271275127436
 50
55.5055434700999299
 51
81.8185414016494406
  0
ARC
  5
25652
  8
0
 10
3257.9040890628680245
 20
160.8922670335444138
 30
0.0
 40
0.7368166705886057
 50
79.4094035175415485
 51
90.4021592180732512
  0
ENDSEC
  0
EOF
