  0
SECTION
  2
HEADER
  9
$ACADVER
  1
AC1009
  9
$INSBASE
 10
3197.1954128221382234
 20
143.8496768735626006
 30
0.0
  9
$EXTMIN
 10
3189.3042434354301804
 20
143.8432975165403036
 30
-0.0015258207003583
  9
$EXTMAX
 10
3204.9529464344032021
 20
175.0218520488494107
 30
0.0000000349246037
  9
$LIMMIN
 10
0.0
 20
0.0
  9
$LIMMAX
 10
11.6929133858000007
 20
8.2677165353999982
  9
$ORTHOMODE
 70
     1
  9
$REGENMODE
 70
     1
  9
$FILLMODE
 70
     1
  9
$QTEXTMODE
 70
     0
  9
$MIRRTEXT
 70
     0
  9
$DRAGMODE
 70
     2
  9
$LTSCALE
 40
0.6431102362
  9
$OSMODE
 70
  2039
  9
$ATTMODE
 70
     1
  9
$TEXTSIZE
 40
0.2
  9
$TRACEWID
 40
0.05
  9
$TEXTSTYLE
  7
STANDARD
  9
$CLAYER
  8
0
  9
$CELTYPE
  6
BYLAYER
  9
$CECOLOR
 62
   256
  9
$DIMSCALE
 40
1.0
  9
$DIMASZ
 40
0.1875
  9
$DIMEXO
 40
0.0625
  9
$DIMDLI
 40
0.4443307087
  9
$DIMRND
 40
0.0
  9
$DIMDLE
 40
0.0
  9
$DIMEXE
 40
0.125
  9
$DIMTP
 40
0.01
  9
$DIMTM
 40
0.01
  9
$DIMTXT
 40
2.0
  9
$DIMCEN
 40
0.1052362205
  9
$DIMTSZ
 40
0.0
  9
$DIMTOL
 70
     1
  9
$DIMLIM
 70
     0
  9
$DIMTIH
 70
     1
  9
$DIMTOH
 70
     1
  9
$DIMSE1
 70
     0
  9
$DIMSE2
 70
     0
  9
$DIMTAD
 70
     0
  9
$DIMZIN
 70
     0
  9
$DIMBLK
  1

  9
$DIMASO
 70
     1
  9
$DIMSHO
 70
     1
  9
$DIMPOST
  1
\X
  9
$DIMAPOST
  1

  9
$DIMALT
 70
     1
  9
$DIMALTD
 70
     2
  9
$DIMALTF
 40
25.3999999999999986
  9
$DIMLFAC
 40
1.0
  9
$DIMTOFL
 70
     0
  9
$DIMTVP
 40
0.0
  9
$DIMTIX
 70
     0
  9
$DIMSOXD
 70
     0
  9
$DIMSAH
 70
     0
  9
$DIMBLK1
  1

  9
$DIMBLK2
  1

  9
$DIMSTYLE
  2
STANDARD
  9
$DIMCLRD
 70
     0
  9
$DIMCLRE
 70
     0
  9
$DIMCLRT
 70
     0
  9
$DIMTFAC
 40
1.0
  9
$DIMGAP
 40
0.09
  9
$LUNITS
 70
     2
  9
$LUPREC
 70
     4
  9
$SKETCHINC
 40
0.1
  9
$FILLETRAD
 40
0.0
  9
$AUNITS
 70
     0
  9
$AUPREC
 70
     0
  9
$MENU
  1
.
  9
$ELEVATION
 40
0.0
  9
$PELEVATION
 40
0.0
  9
$THICKNESS
 40
0.0
  9
$LIMCHECK
 70
     0
  9
$BLIPMODE
 70
     0
  9
$CHAMFERA
 40
0.0
  9
$CHAMFERB
 40
0.0
  9
$SKPOLY
 70
     0
  9
$TDCREATE
 40
2458060.468368056230247
  9
$TDUPDATE
 40
2459249.3589236112311482
  9
$TDINDWG
 40
0.6056552083
  9
$TDUSRTIMER
 40
0.6056552083
  9
$USRTIMER
 70
     1
  9
$ANGBASE
 50
0.0
  9
$ANGDIR
 70
     0
  9
$PDMODE
 70
     0
  9
$PDSIZE
 40
0.3125
  9
$PLINEWID
 40
0.0
  9
$COORDS
 70
     1
  9
$SPLFRAME
 70
     0
  9
$SPLINETYPE
 70
     6
  9
$SPLINESEGS
 70
     8
  9
$ATTDIA
 70
     1
  9
$ATTREQ
 70
     1
  9
$HANDLING
 70
     1
  9
$HANDSEED
  5
26C3A
  9
$SURFTAB1
 70
     6
  9
$SURFTAB2
 70
     6
  9
$SURFTYPE
 70
     6
  9
$SURFU
 70
     6
  9
$SURFV
 70
     6
  9
$UCSNAME
  2

  9
$UCSORG
 10
0.0
 20
0.0
 30
0.0
  9
$UCSXDIR
 10
1.0
 20
0.0
 30
0.0
  9
$UCSYDIR
 10
0.0
 20
1.0
 30
0.0
  9
$PUCSNAME
  2

  9
$PUCSORG
 10
0.0
 20
0.0
 30
0.0
  9
$PUCSXDIR
 10
1.0
 20
0.0
 30
0.0
  9
$PUCSYDIR
 10
0.0
 20
1.0
 30
0.0
  9
$USERI1
 70
     0
  9
$USERI2
 70
     0
  9
$USERI3
 70
     0
  9
$USERI4
 70
     0
  9
$USERI5
 70
     0
  9
$USERR1
 40
0.0
  9
$USERR2
 40
0.0
  9
$USERR3
 40
0.0
  9
$USERR4
 40
0.0
  9
$USERR5
 40
0.0
  9
$WORLDVIEW
 70
     1
  9
$SHADEDGE
 70
     3
  9
$SHADEDIF
 70
    70
  9
$TILEMODE
 70
     1
  9
$MAXACTVP
 70
    64
  9
$PLIMCHECK
 70
     0
  9
$PEXTMIN
 10
1.0000000000000000E+20
 20
1.0000000000000000E+20
 30
1.0000000000000000E+20
  9
$PEXTMAX
 10
-1.0000000000000000E+20
 20
-1.0000000000000000E+20
 30
-1.0000000000000000E+20
  9
$PLIMMIN
 10
0.0
 20
0.0
  9
$PLIMMAX
 10
12.0
 20
9.0
  9
$UNITMODE
 70
     0
  9
$VISRETAIN
 70
     1
  9
$PLINEGEN
 70
     0
  9
$PSLTSCALE
 70
     1
  0
ENDSEC
  0
SECTION
  2
TABLES
  0
TABLE
  2
VPORT
 70
     1
  0
VPORT
  2
*ACTIVE
 70
     0
 10
0.0
 20
0.0
 11
1.0
 21
1.0
 12
-106.5645202994582945
 22
-35.8289367931929306
 13
0.0
 23
0.0
 14
1.0
 24
1.0
 15
0.0
 25
0.0
 16
0.0
 26
0.0
 36
96.5995694866707311
 17
3303.693115234375
 27
195.2615115758877096
 37
0.0
 40
31.4380154576819706
 41
2.6486111111111108
 42
50.0
 43
0.0
 44
0.0
 50
0.0
 51
0.0
 71
     0
 72
   100
 73
     1
 74
     1
 75
     0
 76
     0
 77
     0
 78
     0
  0
ENDTAB
  0
TABLE
  2
LTYPE
 70
     2
  0
LTYPE
  2
CONTINUOUS
 70
     0
  3
Solid line
 72
    65
 73
     0
 40
0.0
  0
LTYPE
  2
PHANTOM2
 70
     0
  3
___ _ _ ___ _ _ ___ _ _ ___ _ _
 72
    65
 73
     6
 40
1.25
 49
0.625
 49
-0.125
 49
0.125
 49
-0.125
 49
0.125
 49
-0.125
  0
ENDTAB
  0
TABLE
  2
LAYER
 70
     2
  0
LAYER
  2
0
 70
     0
 62
   255
  6
CONTINUOUS
  0
LAYER
  2
DEFPOINTS
 70
     0
 62
     7
  6
CONTINUOUS
  0
ENDTAB
  0
TABLE
  2
STYLE
 70
     1
  0
STYLE
  2
STANDARD
 70
     0
 40
0.0
 41
0.8
 50
0.0
 71
     0
 42
0.2
  3
txt
  4

  0
ENDTAB
  0
TABLE
  2
VIEW
 70
     0
  0
ENDTAB
  0
TABLE
  2
UCS
 70
     0
  0
ENDTAB
  0
TABLE
  2
APPID
 70
     9
  0
APPID
  2
ACAD
 70
     0
  0
APPID
  2
ACAD_MLEADERVER
 70
     0
  0
APPID
  2
ACAD_EXEMPT_FROM_CAD_STANDARDS
 70
     0
  0
APPID
  2
ACAD_NAV_VCDISPLAY
 70
     0
  0
APPID
  2
ACAECLAYERSTANDARD
 70
     0
  0
APPID
  2
ACCMTRANSPARENCY
 70
     0
  0
APPID
  2
ACAD_DSTYLE_DIMJAG
 70
     0
  0
APPID
  2
ACAD_DSTYLE_DIMTALN
 70
     0
  0
APPID
  2
ACDBATTR
 70
     0
  0
ENDTAB
  0
TABLE
  2
DIMSTYLE
 70
     1
  0
DIMSTYLE
  2
STANDARD
 70
     0
  3

  4

  5

  6

  7

 40
1.0
 41
0.1875
 42
0.0625
 43
0.38
 44
0.125
 45
0.0
 46
0.0
 47
0.01
 48
0.01
140
0.15625
141
0.09
142
0.0
143
25.3999999999999986
144
1.0
145
0.0
146
1.0
147
0.09
 71
     1
 72
     0
 73
     1
 74
     1
 75
     0
 76
     0
 77
     0
 78
     4
170
     0
171
     2
172
     0
173
     0
174
     0
175
     0
176
     0
177
     0
178
     0
  0
ENDTAB
  0
ENDSEC
  0
SECTION
  2
BLOCKS
  0
BLOCK
  8
0
  2
$MODEL_SPACE
 70
     0
 10
0.0
 20
0.0
 30
0.0
  3
$MODEL_SPACE
  1

  0
ENDBLK
  5
21
  8
0
  0
BLOCK
 67
     1
  8
0
  2
$PAPER_SPACE
 70
     0
 10
0.0
 20
0.0
 30
0.0
  3
$PAPER_SPACE
  1

  0
ENDBLK
  5
1D
 67
     1
  8
0
  0
BLOCK
  8
0
  2
_FILLED
 70
     0
 10
0.0
 20
0.0
 30
0.0
  3
_FILLED
  1

  0
SOLID
  5
211E5
  8
0
  6
BYBLOCK
 62
     0
 10
0.0
 20
0.0
 30
0.0
 11
-1.0
 21
0.1666666667
 31
0.0
 12
-1.0
 22
-0.1666666667
 32
0.0
 13
-1.0
 23
-0.1666666667
 33
0.0
  0
ENDBLK
  5
211E6
  8
0
  6
BYBLOCK
 62
     0
  0
ENDSEC
  0
SECTION
  2
ENTITIES
  0
ATTDEF
  5
266B0
  8
DEFPOINTS
 10
3197.1958618337398548
 20
143.8537618994729996
 30
0.0
 40
0.001
  1
K-3991T-S2
  3

  2
MODELNUMBER
 70
     0
1001
ACDBATTR
1070
     0
1070
     1
  0
ATTDEF
  5
266B1
  8
DEFPOINTS
 10
3197.1958618337398548
 20
143.8520952328063061
 30
0.0
 40
0.001
  1
REACH
  3

  2
TRADENAME
 70
     0
1001
ACDBATTR
1070
     0
1070
     1
  0
ATTDEF
  5
266B2
  8
DEFPOINTS
 10
3197.1958618337398548
 20
143.8504285661396978
 30
0.0
 40
0.001
  1
TOILET
  3

  2
PRODUCT
 70
     0
1001
ACDBATTR
1070
     0
1070
     1
  0
LINE
  5
26A40
  8
0
 10
3201.8415531635910156
 20
143.8496768611886125
 30
0.0
 11
3192.5492724806849765
 21
143.8496768611886125
 31
0.0
  0
LINE
  5
26A41
  8
0
 10
3189.9345706904377948
 20
174.9298929401805935
 30
0.0
 11
3204.4474514852549873
 21
174.9298929401805935
 31
0.0
  0
ARC
  5
26A43
  8
0
 10
3189.9361461478561068
 20
174.6933065860816896
 30
0.0
 40
0.2365915996223948
 50
90.3815339517299492
 51
173.1146640195366047
  0
ARC
  5
26A44
  8
0
 10
3590.6422542522791446
 20
126.3085258558682966
 30
0.0
 40
403.8533306956391016
 50
173.1149362736668138
 51
173.3036616861635935
  0
ARC
  5
26A45
  8
0
 10
2931.3897905394819645
 20
173.3257076407462023
 30
0.0
 40
262.8176390547545793
 50
353.5605049289102908
 51
355.2639815259612988
  0
ARC
  5
26A46
  8
0
 10
3197.0097900164269049
 20
158.0105766052344052
 30
0.0
 40
6.1621238652678416
 50
264.3111943738003902
 51
271.7261925721048783
  0
ARC
  5
26A47
  8
0
 10
3196.124841588452
 20
149.1269746870617041
 30
0.0
 40
2.765446731525897
 50
84.311194373800447
 51
98.4367991018929871
  0
ARC
  5
26A48
  8
0
 10
3198.0593951538048714
 20
138.6907116587559869
 30
0.0
 40
13.3780734186078991
 50
100.0748848387896999
 51
104.8566839845259011
  0
ARC
  5
26A49
  8
0
 10
3195.1515576540200527
 20
149.6509162247959068
 30
0.0
 40
2.038690633130233
 50
104.8451825680383962
 51
123.4445387536752037
  0
ARC
  5
26A4A
  8
0
 10
3189.0088555667548462
 20
159.4486436608763995
 30
0.0
 40
9.5260985445016964
 50
300.2186090926684869
 51
301.7949516003043868
  0
ARC
  5
26A4B
  8
0
 10
3193.7346892109389955
 20
151.3349112143993125
 30
0.0
 40
0.1364149584848016
 50
223.8564939331151891
 51
300.2186090926684869
  0
ARC
  5
26A4C
  8
0
 10
3194.0365110294069382
 20
151.4965751749940921
 30
0.0
 40
0.4751611458098363
 50
191.0738008374165986
 51
212.625299905375698
  0
ARC
  5
26A4D
  8
0
 10
3189.6041305484491204
 20
173.3940572677659873
 30
0.0
 40
0.0605334999813685
 50
173.6445056945046019
 51
249.4045323780468948
  0
LINE
  5
26A4E
  8
0
 10
3189.5828368244169724
 20
173.3373926232611097
 30
0.0
 11
3189.5801292937380822
 21
173.3143607349126114
 31
0.0
  0
ARC
  5
26A4F
  8
0
 10
3189.5898855575328525
 20
173.2610174179334024
 30
0.0
 40
0.054228167492324
 50
100.3645972834496973
 51
177.9799843171959992
  0
ARC
  5
26A50
  8
0
 10
3200.7797520774411169
 20
173.4155652911630057
 30
0.0
 40
11.2450969488030701
 50
180.7777336576216953
 51
182.6054228608035999
  0
ARC
  5
26A51
  8
0
 10
3189.616140636550881
 20
172.8635727534066007
 30
0.0
 40
0.0809116641709332
 50
149.7033179716785014
 51
173.8734682171117925
  0
LINE
  5
26A52
  8
0
 10
3189.5356910888199309
 20
172.8722080107125976
 30
0.0
 11
3189.8888715872380999
 21
160.9953087478126008
 31
0.0
  0
ARC
  5
26A53
  8
0
 10
3190.0094649358120478
 20
160.9994434733229127
 30
0.0
 40
0.12066421041622
 50
181.963703289177289
 51
271.8702305835914785
  0
LINE
  5
26A54
  8
0
 10
3190.013402919138116
 20
160.8788435398126069
 30
0.0
 11
3190.2342673563871358
 21
160.8788435398126069
 31
0.0
  0
ARC
  5
26A55
  8
0
 10
3190.1819268294630092
 20
160.6168506338385953
 30
0.0
 40
0.2024949832058179
 50
85.9644239568035857
 51
180.3141865992184023
  0
LINE
  5
26A56
  8
0
 10
3189.9794348907380481
 20
160.6157402398125953
 30
0.0
 11
3189.9970548804380996
 21
159.0511902729550968
 31
0.0
  0
ARC
  5
26A57
  8
0
 10
3197.194051633494837
 20
99.5649146803627048
 30
0.0
 40
61.7983307080061124
 50
89.9987379859177565
 51
91.3308967564914269
  0
ARC
  5
26A58
  8
0
 10
3197.1926130049810126
 20
99.6268372271448328
 30
0.0
 40
61.7363914518595607
 50
91.3308967564914269
 51
95.2880829802406879
  0
ARC
  5
26A59
  8
0
 10
3202.743539411988877
 20
39.6540492954166766
 30
0.0
 40
121.965521250322098
 50
95.2880829802406879
 51
95.7789694043187438
  0
ARC
  5
26A5A
  8
0
 10
3190.4898913382230603
 20
160.6720216885811965
 30
0.0
 40
0.3288143826486379
 50
94.7443840254250347
 51
141.0241540964152875
  0
ARC
  5
26A5B
  8
0
 10
3190.466849746293974
 20
160.6836115732839119
 30
0.0
 40
0.3036611414871242
 50
139.9895687175001058
 51
174.2119016844006012
  0
LINE
  5
26A5C
  8
0
 10
3190.1647367667378603
 20
160.7142356885125878
 30
0.0
 11
3190.0177477395382084
 21
159.4816487685125992
 31
0.0
  0
ARC
  5
26A5D
  8
0
 10
3190.0959798855601548
 20
159.472358116578306
 30
0.0
 40
0.0787818817021169
 50
173.2274178418201984
 51
270.7585906213578255
  0
LINE
  5
26A5E
  8
0
 10
3190.0970229196382206
 20
159.3935831398125913
 30
0.0
 11
3204.2938027246382262
 21
159.3935831398125913
 31
0.0
  0
ARC
  5
26A5F
  8
0
 10
3190.7516579637881478
 20
159.0335430736506055
 30
0.0
 40
0.7471116986575447
 50
151.1898250127356107
 51
176.3554037358343862
  0
ARC
  5
26A60
  8
0
 10
3190.2406007311301437
 20
158.9938081370387977
 30
0.0
 40
0.2502382042302389
 50
88.6496463652548954
 51
159.5998096980978005
  0
ARC
  5
26A61
  8
0
 10
3190.2377708170160986
 20
158.9948605833631063
 30
0.0
 40
0.2472189233295394
 50
159.5998096980978005
 51
166.8292705671962892
  0
ARC
  5
26A62
  8
0
 10
3190.2429480614250679
 20
158.9936490617054972
 30
0.0
 40
0.2525360319797122
 50
166.8292705671962892
 51
180.3208660090959086
  0
LINE
  5
26A63
  8
0
 10
3189.9904159894381337
 20
158.9922348248126127
 30
0.0
 11
3190.0040574064541943
 21
157.0440277155416027
 31
0.0
  0
LINE
  5
26A64
  8
0
 10
3190.0040189965379795
 20
157.043976813612602
 30
0.0
 11
3204.3867678814049214
 21
157.043976813612602
 31
0.0
  0
LINE
  5
26A65
  8
0
 10
3189.5801292937380822
 20
173.3143607349126114
 30
0.0
 11
3204.8106963505379099
 21
173.3143607349126114
 31
0.0
  0
ARC
  5
26A66
  8
0
 10
3202.8939972043049238
 20
160.0236784167142901
 30
0.0
 40
12.8899352723629708
 50
193.3656683374873069
 51
210.4243562977140982
  0
ARC
  5
26A67
  8
0
 10
3198.50795101729409
 20
157.4478934958555101
 30
0.0
 40
7.8034758836409193
 50
210.4243562977127056
 51
230.7457034330620047
  0
LINE
  5
26A68
  8
0
 10
3190.2347033920191279
 20
159.2439768406125893
 30
0.0
 11
3204.1561222522568642
 21
159.2439768406125893
 31
0.0
  0
LINE
  5
26A69
  8
0
 10
3204.8083261324618434
 20
173.3375205286126004
 30
0.0
 11
3189.5824929618588612
 21
173.3375205286126004
 31
0.0
  0
LINE
  5
26A6A
  8
0
 10
3190.2653724330361911
 20
160.9122510778126127
 30
0.0
 11
3204.125453211239801
 21
160.9122510778126127
 31
0.0
  0
LINE
  5
26A6B
  8
0
 10
3204.4644004001697795
 20
160.9122510778126127
 30
0.0
 11
3204.4644717816199773
 21
160.9122510778126127
 31
0.0
  0
ARC
  5
26A6C
  8
0
 10
3190.443048140000883
 20
159.417392665919408
 30
0.0
 40
0.0789284146117309
 50
197.5573190780903019
 51
269.7456027072644815
  0
LINE
  5
26A6D
  8
0
 10
3190.4426976934378217
 20
159.3384650293126015
 30
0.0
 11
3203.948667776979164
 21
159.338465029512605
 31
0.0
  0
ARC
  5
26A6E
  8
0
 10
3203.9491108583329151
 20
159.4168655909093104
 30
0.0
 40
0.0784018134255052
 50
269.6761959242036824
 51
342.7247049185194214
  0
ARC
  5
26A6F
  8
0
 10
3190.6643214036907921
 20
159.2509747961628932
 30
0.0
 40
0.1174982509583587
 50
31.1749366339191916
 51
48.1255099097235828
  0
ARC
  5
26A70
  8
0
 10
3190.8153187356811031
 20
159.3423317764423075
 30
0.0
 40
0.0589848703704687
 50
211.1749366339192022
 51
270.0383905093913199
  0
LINE
  5
26A71
  8
0
 10
3190.8153582579470822
 20
159.2833469193126064
 30
0.0
 11
3192.0804432924642242
 21
159.2833469193126064
 31
0.0
  0
ARC
  5
26A72
  8
0
 10
3192.0803058473729834
 20
159.3424155348803026
 30
0.0
 40
0.0590687754759918
 50
270.1333196879465959
 51
337.5964463208118786
  0
ARC
  5
26A73
  8
0
 10
3192.2392945064648302
 20
159.2768738976751024
 30
0.0
 40
0.1128995353469655
 50
146.938475783741012
 51
157.5965851206017874
  0
ARC
  5
26A74
  8
0
 10
3191.2708362607040726
 20
159.3006858692297101
 30
0.0
 40
0.1152296021279183
 50
333.0999377322456212
 51
351.329140389372526
  0
ARC
  5
26A75
  8
0
 10
3191.365048805646893
 20
159.2528889884571015
 30
0.0
 40
0.0095861194310875
 50
291.6129948928889917
 51
333.0999377322456212
  0
ARC
  5
26A76
  8
0
 10
3191.3166155781141242
 20
157.6036898114053031
 30
0.0
 40
1.933127429480147
 50
58.0504849553538378
 51
63.8174899560398501
  0
ARC
  5
26A77
  8
0
 10
3192.6121301751459214
 20
159.2966839399753951
 30
0.0
 40
0.1080148901777233
 50
2.1102788481675678
 51
22.7560669722322189
  0
ARC
  5
26A78
  8
0
 10
3192.7789609799488062
 20
159.3028313177223083
 30
0.0
 40
0.0589291354245811
 50
182.1102788481674963
 51
267.1155863037694758
  0
ARC
  5
26A79
  8
0
 10
3194.0378883758949087
 20
159.2678779575099952
 30
0.0
 40
0.0870129685909593
 50
125.7842359289698067
 51
165.7079861478898124
  0
ARC
  5
26A7A
  8
0
 10
3193.8947080873531377
 20
159.304352902389212
 30
0.0
 40
0.0607402602428703
 50
276.277483844135304
 51
345.7079861478898124
  0
ARC
  5
26A7B
  8
0
 10
3204.4544929848061656
 20
174.6932092102026104
 30
0.0
 40
0.2367884514755653
 50
6.9033177840935567
 51
91.7040851852861465
  0
ARC
  5
26A7C
  8
0
 10
2803.7485713919968475
 20
126.3085258558682966
 30
0.0
 40
403.8533306956391016
 50
6.6963383138364021
 51
6.8850637263331569
  0
ARC
  5
26A7D
  8
0
 10
3463.0010351047940276
 20
173.3257076407462023
 30
0.0
 40
262.8176390547545793
 50
184.7360184740387012
 51
186.4394950710895955
  0
ARC
  5
26A7E
  8
0
 10
3197.3810356278490872
 20
158.0105766052344052
 30
0.0
 40
6.1621238652678416
 50
268.2738074278951217
 51
275.6888056261994961
  0
ARC
  5
26A7F
  8
0
 10
3198.2659840558239921
 20
149.1269746870617041
 30
0.0
 40
2.765446731525897
 50
81.5632008981070129
 51
95.688805626199553
  0
ARC
  5
26A80
  8
0
 10
3196.3314304904711207
 20
138.6907116587559869
 30
0.0
 40
13.3780734186078991
 50
75.1433160154741131
 51
79.9251151612102433
  0
ARC
  5
26A81
  8
0
 10
3199.2392679902559394
 20
149.6509162247959068
 30
0.0
 40
2.038690633130233
 50
56.5554612463247466
 51
75.1548174319615896
  0
ARC
  5
26A82
  8
0
 10
3205.3819700775211459
 20
159.4486436608763995
 30
0.0
 40
9.5260985445016964
 50
238.2050483996956132
 51
239.7813909073313994
  0
ARC
  5
26A83
  8
0
 10
3200.6561364333369966
 20
151.3349112143993125
 30
0.0
 40
0.1364149584848016
 50
239.7813909073313994
 51
316.1435060668848109
  0
ARC
  5
26A84
  8
0
 10
3200.3543146148690539
 20
151.4965751749940921
 30
0.0
 40
0.4751611458098363
 50
327.374700094624302
 51
348.926199162583373
  0
ARC
  5
26A85
  8
0
 10
3204.7866950958268717
 20
173.3940572677659873
 30
0.0
 40
0.0605334999813685
 50
290.5954676219531052
 51
6.355494305495343
  0
LINE
  5
26A86
  8
0
 10
3204.8079888198590197
 20
173.3373926232611097
 30
0.0
 11
3204.8106963505379099
 21
173.3143607349126114
 31
0.0
  0
ARC
  5
26A87
  8
0
 10
3204.8005474699421029
 20
173.2606781887160992
 30
0.0
 40
0.0546334654169684
 50
2.3610430406556979
 51
79.2943753587111217
  0
ARC
  5
26A88
  8
0
 10
3193.6110735668398775
 20
173.4155652911628067
 30
0.0
 40
11.2450969487987003
 50
357.3945771391963717
 51
359.2222663423783047
  0
ARC
  5
26A89
  8
0
 10
3204.7895726111719341
 20
172.8684708905155105
 30
0.0
 40
0.0656683683805717
 50
3.262407237017396
 51
33.1608065741947584
  0
LINE
  5
26A8A
  8
0
 10
3204.8551345554569707
 20
172.8722080107125976
 30
0.0
 11
3204.5019540570378922
 21
160.9953087478126008
 31
0.0
  0
ARC
  5
26A8B
  8
0
 10
3204.3813607084639443
 20
160.9994434733229127
 30
0.0
 40
0.12066421041622
 50
268.1297694164085215
 51
358.0362967108226258
  0
LINE
  5
26A8C
  8
0
 10
3204.3774227251378761
 20
160.8788435398126069
 30
0.0
 11
3204.1565582878888563
 21
160.8788435398126069
 31
0.0
  0
ARC
  5
26A8D
  8
0
 10
3204.2088988148120734
 20
160.6168506338385953
 30
0.0
 40
0.2024949832058179
 50
359.6858134007816261
 51
94.0355760431964143
  0
LINE
  5
26A8E
  8
0
 10
3204.411390753537944
 20
160.6157402398125953
 30
0.0
 11
3204.393774332421799
 21
159.0511750567582965
 31
0.0
  0
ARC
  5
26A8F
  8
0
 10
3197.1967740107811551
 20
99.5649146803627048
 30
0.0
 40
61.7983307080061124
 50
88.6691032435085731
 51
90.001262014082215
  0
ARC
  5
26A90
  8
0
 10
3197.1982126392949795
 20
99.6268372271448328
 30
0.0
 40
61.7363914518595607
 50
84.7119170197593263
 51
88.6691032435085731
  0
ARC
  5
26A91
  8
0
 10
3191.6472862322871151
 20
39.6540492954166766
 30
0.0
 40
121.965521250322098
 50
84.2210305956812419
 51
84.7119170197593263
  0
ARC
  5
26A92
  8
0
 10
3203.9009343060529318
 20
160.6720216885811965
 30
0.0
 40
0.3288143826486379
 50
38.9758459035846201
 51
85.2556159745749653
  0
ARC
  5
26A93
  8
0
 10
3203.9239758979820181
 20
160.6836115732839119
 30
0.0
 40
0.3036611414871242
 50
5.788098315599397
 51
40.0104312824998871
  0
LINE
  5
26A94
  8
0
 10
3204.2260888775381318
 20
160.7142356885125878
 30
0.0
 11
3204.3730779047377837
 21
159.4816487685125992
 31
0.0
  0
ARC
  5
26A95
  8
0
 10
3204.2948457587158373
 20
159.472358116578306
 30
0.0
 40
0.0787818817021169
 50
269.2414093786421745
 51
6.7725821581797829
  0
ARC
  5
26A96
  8
0
 10
3203.6391676804878443
 20
159.0335430736506055
 30
0.0
 40
0.7471116986575282
 50
3.6445962641655441
 51
28.8101749872643893
  0
ARC
  5
26A97
  8
0
 10
3204.1502249131458484
 20
158.9938081370387977
 30
0.0
 40
0.2502382042302389
 50
20.4001903019021888
 51
88.6495909855925532
  0
ARC
  5
26A98
  8
0
 10
3204.153052889053015
 20
158.9948599313547959
 30
0.0
 40
0.2472209672470746
 50
13.1671520354479608
 51
20.4001753544193392
  0
ARC
  5
26A99
  8
0
 10
3204.1478769947138971
 20
158.9936490303468872
 30
0.0
 40
0.2525366199324922
 50
359.6791418527315045
 51
13.1671600192593594
  0
LINE
  5
26A9A
  8
0
 10
3204.4004096548378584
 20
158.9922348248126127
 30
0.0
 11
3204.3867678814049214
 21
157.043976813612602
 31
0.0
  0
ARC
  5
26A9B
  8
0
 10
3191.4968284399710683
 20
160.0236784167142901
 30
0.0
 40
12.8899352723629708
 50
329.5756437022859018
 51
346.6343316625125794
  0
ARC
  5
26A9C
  8
0
 10
3195.8828746269819021
 20
157.4478934958555101
 30
0.0
 40
7.8034758836409193
 50
309.2542965669380237
 51
329.5756437022859018
  0
ARC
  5
26A9D
  8
0
 10
3203.9477775042751091
 20
159.417392665919408
 30
0.0
 40
0.0789284146117309
 50
270.2543972927354048
 51
342.4426809219096981
  0
ARC
  5
26A9E
  8
0
 10
3203.7265042405852
 20
159.2509747961628932
 30
0.0
 40
0.1174982509583587
 50
131.8744900902763959
 51
148.8250633660807978
  0
ARC
  5
26A9F
  8
0
 10
3203.575506908594889
 20
159.3423317764423075
 30
0.0
 40
0.0589848703704687
 50
269.9616094906086232
 51
328.8250633660808262
  0
LINE
  5
26AA0
  8
0
 10
3203.5754673863289099
 20
159.2833469193126064
 30
0.0
 11
3202.3103823518122226
 21
159.2833469193126064
 31
0.0
  0
ARC
  5
26AA1
  8
0
 10
3202.3105197969030087
 20
159.3424155348803026
 30
0.0
 40
0.059068775475991
 50
202.4035536791880929
 51
269.8666803120532904
  0
ARC
  5
26AA2
  8
0
 10
3202.1515311378111619
 20
159.2768738976751024
 30
0.0
 40
0.1128995353469655
 50
22.4034148793982197
 51
33.0615242162590377
  0
ARC
  5
26AA3
  8
0
 10
3203.1199893835719195
 20
159.3006858692297101
 30
0.0
 40
0.1152296021279183
 50
188.6708596106275024
 51
206.9000622677529009
  0
ARC
  5
26AA4
  8
0
 10
3203.0257768386290991
 20
159.2528889884571015
 30
0.0
 40
0.0095861194310875
 50
206.9000622677544072
 51
248.3870051071110083
  0
ARC
  5
26AA5
  8
0
 10
3203.0742100661618679
 20
157.6036898114053031
 30
0.0
 40
1.933127429480147
 50
116.1825100439600931
 51
121.9495150446461054
  0
ARC
  5
26AA6
  8
0
 10
3201.7786954691300707
 20
159.2966839399753951
 30
0.0
 40
0.1080148901777233
 50
157.2439330277678096
 51
177.88972115183239
  0
ARC
  5
26AA7
  8
0
 10
3201.6118646643271859
 20
159.3028313177223083
 30
0.0
 40
0.0589291354245811
 50
272.8844136962305242
 51
357.8897211518324184
  0
ARC
  5
26AA8
  8
0
 10
3200.3529372683819929
 20
159.2678779575099952
 30
0.0
 40
0.0870129685909593
 50
14.2920138521101698
 51
54.2157640710301365
  0
ARC
  5
26AA9
  8
0
 10
3200.4961175569228544
 20
159.304352902389212
 30
0.0
 40
0.0607402602428703
 50
194.2920138521101023
 51
263.7225161558648097
  0
LINE
  5
26AAA
  8
0
 10
3196.2503727861380867
 20
174.9298952204125897
 30
0.0
 11
3196.2503727851931217
 21
174.9771393149125913
 31
0.0
  0
ARC
  5
26AAB
  8
0
 10
3196.2897428639062127
 20
174.9771393157001
 30
0.0
 40
0.0393700787124969
 50
90.0000369176331105
 51
180.0000011460581106
  0
LINE
  5
26AAC
  8
0
 10
3196.2897428385381318
 20
175.0165093944125942
 30
0.0
 11
3198.100765458438218
 21
175.0165105613168066
 31
0.0
  0
ARC
  5
26AAD
  8
0
 10
3198.1007654838058443
 20
174.9771400060787983
 30
0.0
 40
0.0393705552380059
 50
359.9990479950211011
 51
90.0000369176331105
  0
LINE
  5
26AAE
  8
0
 10
3198.1401360390382251
 20
174.9771393519125979
 30
0.0
 11
3198.1401352540019616
 21
174.9298925107461002
 31
0.0
  0
ENDSEC
  0
EOF
