  0
SECTION
  2
HEADER
  9
$ACADVER
  1
AC1009
  9
$INSBASE
 10
2798.5238294341029359
 20
198.9796502597235133
 30
0.0
  9
$EXTMIN
 10
2791.2876607876441994
 20
169.6451178053237925
 30
-0.0000000349181948
  9
$EXTMAX
 10
2805.8102605141370987
 20
198.9905985593157993
 30
0.0000000814935746
  9
$LIMMIN
 10
0.0
 20
0.0
  9
$LIMMAX
 10
11.6929133858000007
 20
8.2677165353999982
  9
$ORTHOMODE
 70
     1
  9
$REGENMODE
 70
     1
  9
$FILLMODE
 70
     1
  9
$QTEXTMODE
 70
     0
  9
$MIRRTEXT
 70
     0
  9
$DRAGMODE
 70
     2
  9
$LTSCALE
 40
0.6431102362
  9
$OSMODE
 70
  2039
  9
$ATTMODE
 70
     1
  9
$TEXTSIZE
 40
0.2
  9
$TRACEWID
 40
0.05
  9
$TEXTSTYLE
  7
STANDARD
  9
$CLAYER
  8
0
  9
$CELTYPE
  6
BYLAYER
  9
$CECOLOR
 62
   256
  9
$DIMSCALE
 40
1.0
  9
$DIMASZ
 40
0.1875
  9
$DIMEXO
 40
0.0625
  9
$DIMDLI
 40
0.4443307087
  9
$DIMRND
 40
0.0
  9
$DIMDLE
 40
0.0
  9
$DIMEXE
 40
0.125
  9
$DIMTP
 40
0.01
  9
$DIMTM
 40
0.01
  9
$DIMTXT
 40
2.0
  9
$DIMCEN
 40
0.1052362205
  9
$DIMTSZ
 40
0.0
  9
$DIMTOL
 70
     1
  9
$DIMLIM
 70
     0
  9
$DIMTIH
 70
     1
  9
$DIMTOH
 70
     1
  9
$DIMSE1
 70
     0
  9
$DIMSE2
 70
     0
  9
$DIMTAD
 70
     0
  9
$DIMZIN
 70
     0
  9
$DIMBLK
  1

  9
$DIMASO
 70
     1
  9
$DIMSHO
 70
     1
  9
$DIMPOST
  1
\X
  9
$DIMAPOST
  1

  9
$DIMALT
 70
     1
  9
$DIMALTD
 70
     2
  9
$DIMALTF
 40
25.3999999999999986
  9
$DIMLFAC
 40
1.0
  9
$DIMTOFL
 70
     0
  9
$DIMTVP
 40
0.0
  9
$DIMTIX
 70
     0
  9
$DIMSOXD
 70
     0
  9
$DIMSAH
 70
     0
  9
$DIMBLK1
  1

  9
$DIMBLK2
  1

  9
$DIMSTYLE
  2
STANDARD
  9
$DIMCLRD
 70
     0
  9
$DIMCLRE
 70
     0
  9
$DIMCLRT
 70
     0
  9
$DIMTFAC
 40
1.0
  9
$DIMGAP
 40
0.09
  9
$LUNITS
 70
     2
  9
$LUPREC
 70
     4
  9
$SKETCHINC
 40
0.1
  9
$FILLETRAD
 40
0.0
  9
$AUNITS
 70
     0
  9
$AUPREC
 70
     0
  9
$MENU
  1
.
  9
$ELEVATION
 40
0.0
  9
$PELEVATION
 40
0.0
  9
$THICKNESS
 40
0.0
  9
$LIMCHECK
 70
     0
  9
$BLIPMODE
 70
     0
  9
$CHAMFERA
 40
0.0
  9
$CHAMFERB
 40
0.0
  9
$SKPOLY
 70
     0
  9
$TDCREATE
 40
2458060.468368056230247
  9
$TDUPDATE
 40
2459312.4953240738250315
  9
$TDINDWG
 40
0.6679121528
  9
$TDUSRTIMER
 40
0.6679121528
  9
$USRTIMER
 70
     1
  9
$ANGBASE
 50
0.0
  9
$ANGDIR
 70
     0
  9
$PDMODE
 70
     0
  9
$PDSIZE
 40
0.3125
  9
$PLINEWID
 40
0.0
  9
$COORDS
 70
     1
  9
$SPLFRAME
 70
     0
  9
$SPLINETYPE
 70
     6
  9
$SPLINESEGS
 70
     8
  9
$ATTDIA
 70
     1
  9
$ATTREQ
 70
     1
  9
$HANDLING
 70
     1
  9
$HANDSEED
  5
32ABD
  9
$SURFTAB1
 70
     6
  9
$SURFTAB2
 70
     6
  9
$SURFTYPE
 70
     6
  9
$SURFU
 70
     6
  9
$SURFV
 70
     6
  9
$UCSNAME
  2

  9
$UCSORG
 10
0.0
 20
0.0
 30
0.0
  9
$UCSXDIR
 10
1.0
 20
0.0
 30
0.0
  9
$UCSYDIR
 10
0.0
 20
1.0
 30
0.0
  9
$PUCSNAME
  2

  9
$PUCSORG
 10
0.0
 20
0.0
 30
0.0
  9
$PUCSXDIR
 10
1.0
 20
0.0
 30
0.0
  9
$PUCSYDIR
 10
0.0
 20
1.0
 30
0.0
  9
$USERI1
 70
     0
  9
$USERI2
 70
     0
  9
$USERI3
 70
     0
  9
$USERI4
 70
     0
  9
$USERI5
 70
     0
  9
$USERR1
 40
0.0
  9
$USERR2
 40
0.0
  9
$USERR3
 40
0.0
  9
$USERR4
 40
0.0
  9
$USERR5
 40
0.0
  9
$WORLDVIEW
 70
     1
  9
$SHADEDGE
 70
     3
  9
$SHADEDIF
 70
    70
  9
$TILEMODE
 70
     1
  9
$MAXACTVP
 70
    64
  9
$PLIMCHECK
 70
     0
  9
$PEXTMIN
 10
1.0000000000000000E+20
 20
1.0000000000000000E+20
 30
1.0000000000000000E+20
  9
$PEXTMAX
 10
-1.0000000000000000E+20
 20
-1.0000000000000000E+20
 30
-1.0000000000000000E+20
  9
$PLIMMIN
 10
0.0
 20
0.0
  9
$PLIMMAX
 10
12.0
 20
9.0
  9
$UNITMODE
 70
     0
  9
$VISRETAIN
 70
     1
  9
$PLINEGEN
 70
     0
  9
$PSLTSCALE
 70
     1
  0
ENDSEC
  0
SECTION
  2
TABLES
  0
TABLE
  2
VPORT
 70
     1
  0
VPORT
  2
*ACTIVE
 70
     0
 10
0.0
 20
0.0
 11
1.0
 21
1.0
 12
-505.1441545834840099
 22
-10.9436533935679492
 13
0.0
 23
0.0
 14
1.0
 24
1.0
 15
0.0
 25
0.0
 16
0.0
 26
0.0
 36
96.5995694866707311
 17
3303.693115234375
 27
195.2615115758877096
 37
0.0
 40
29.5896872512512807
 41
2.6486111111111108
 42
50.0
 43
0.0
 44
0.0
 50
0.0
 51
0.0
 71
     0
 72
   100
 73
     1
 74
     1
 75
     0
 76
     0
 77
     0
 78
     0
  0
ENDTAB
  0
TABLE
  2
LTYPE
 70
     2
  0
LTYPE
  2
CONTINUOUS
 70
     0
  3
Solid line
 72
    65
 73
     0
 40
0.0
  0
LTYPE
  2
PHANTOM2
 70
     0
  3
___ _ _ ___ _ _ ___ _ _ ___ _ _
 72
    65
 73
     6
 40
1.25
 49
0.625
 49
-0.125
 49
0.125
 49
-0.125
 49
0.125
 49
-0.125
  0
ENDTAB
  0
TABLE
  2
LAYER
 70
     2
  0
LAYER
  2
0
 70
     0
 62
   255
  6
CONTINUOUS
  0
LAYER
  2
DEFPOINTS
 70
     0
 62
     7
  6
CONTINUOUS
  0
ENDTAB
  0
TABLE
  2
STYLE
 70
     1
  0
STYLE
  2
STANDARD
 70
     0
 40
0.0
 41
0.8
 50
0.0
 71
     0
 42
0.2
  3
txt
  4

  0
ENDTAB
  0
TABLE
  2
VIEW
 70
     0
  0
ENDTAB
  0
TABLE
  2
UCS
 70
     0
  0
ENDTAB
  0
TABLE
  2
APPID
 70
     9
  0
APPID
  2
ACAD
 70
     0
  0
APPID
  2
ACAD_MLEADERVER
 70
     0
  0
APPID
  2
ACAD_EXEMPT_FROM_CAD_STANDARDS
 70
     0
  0
APPID
  2
ACAD_NAV_VCDISPLAY
 70
     0
  0
APPID
  2
ACAECLAYERSTANDARD
 70
     0
  0
APPID
  2
ACCMTRANSPARENCY
 70
     0
  0
APPID
  2
ACAD_DSTYLE_DIMJAG
 70
     0
  0
APPID
  2
ACAD_DSTYLE_DIMTALN
 70
     0
  0
APPID
  2
ACDBATTR
 70
     0
  0
ENDTAB
  0
TABLE
  2
DIMSTYLE
 70
     1
  0
DIMSTYLE
  2
STANDARD
 70
     0
  3

  4

  5

  6

  7

 40
1.0
 41
0.1875
 42
0.0625
 43
0.38
 44
0.125
 45
0.0
 46
0.0
 47
0.01
 48
0.01
140
0.15625
141
0.09
142
0.0
143
25.3999999999999986
144
1.0
145
0.0
146
1.0
147
0.09
 71
     1
 72
     0
 73
     1
 74
     1
 75
     0
 76
     0
 77
     0
 78
     4
170
     0
171
     2
172
     0
173
     0
174
     0
175
     0
176
     0
177
     0
178
     0
  0
ENDTAB
  0
ENDSEC
  0
SECTION
  2
BLOCKS
  0
BLOCK
  8
0
  2
$MODEL_SPACE
 70
     0
 10
0.0
 20
0.0
 30
0.0
  3
$MODEL_SPACE
  1

  0
ENDBLK
  5
21
  8
0
  0
BLOCK
 67
     1
  8
0
  2
$PAPER_SPACE
 70
     0
 10
0.0
 20
0.0
 30
0.0
  3
$PAPER_SPACE
  1

  0
ENDBLK
  5
1D
 67
     1
  8
0
  0
BLOCK
  8
0
  2
_FILLED
 70
     0
 10
0.0
 20
0.0
 30
0.0
  3
_FILLED
  1

  0
SOLID
  5
2ABDA
  8
0
  6
BYBLOCK
 62
     0
 10
0.0
 20
0.0
 30
0.0
 11
-1.0
 21
0.1666666667
 31
0.0
 12
-1.0
 22
-0.1666666667
 32
0.0
 13
-1.0
 23
-0.1666666667
 33
0.0
  0
ENDBLK
  5
2ABDB
  8
0
  6
BYBLOCK
 62
     0
  0
ENDSEC
  0
SECTION
  2
ENTITIES
  0
LINE
  5
323F5
  8
0
 10
2792.3432540240619346
 20
198.5496502597237054
 30
0.0
 11
2804.7044048441448467
 21
198.5496502597237054
 31
0.0
  0
ARC
  5
323F6
  8
0
 10
2792.3763338437411221
 20
197.4648720088522964
 30
0.0
 40
1.085282510701107
 50
91.7466674681484164
 51
149.2738289270268979
  0
ARC
  5
323F7
  8
0
 10
2792.2427286901538537
 20
197.5442835081395003
 30
0.0
 40
0.9298588211165125
 50
149.2738289270268979
 51
177.3476955497170025
  0
LINE
  5
323F8
  8
0
 10
2791.3138659874030054
 20
197.5873126453236921
 30
0.0
 11
2791.3138659874030054
 21
183.2009637081185076
 31
0.0
  0
ARC
  5
323F9
  8
0
 10
2792.1047496563378445
 20
188.5913414567700954
 30
0.0
 40
0.751339966779034
 50
87.5598408155475028
 51
134.8054320691099974
  0
ARC
  5
323FA
  8
0
 10
2792.1404237699880468
 20
188.5565980694061921
 30
0.0
 40
0.8011305643441806
 50
134.8645928331449113
 51
161.8984781408321112
  0
ARC
  5
323FB
  8
0
 10
2792.0974188835061796
 20
188.570655497278608
 30
0.0
 40
0.7558864316886486
 50
161.8984781408321112
 51
179.6228974264512885
  0
ARC
  5
323FC
  8
0
 10
5903.9304011525191527
 20
169.2881726190713891
 30
0.0
 40
3112.6486100541092128
 50
179.6449657052301916
 51
179.777420163893396
  0
ARC
  5
323FD
  8
0
 10
2813.6338721896090647
 20
181.4006843158387881
 30
0.0
 40
22.3286037530385606
 50
180.0530586147139047
 51
190.5231313974713885
  0
ARC
  5
323FE
  8
0
 10
2805.086915871410838
 20
180.3994629154605889
 30
0.0
 40
13.7546306719416993
 50
192.9255723666863958
 51
212.2508865602443109
  0
ARC
  5
323FF
  8
0
 10
2800.4942688781839024
 20
177.0090515756745049
 30
0.0
 40
8.0720783706855581
 50
209.292721623209502
 51
233.4963867391516033
  0
ARC
  5
32400
  8
0
 10
2798.6119967385948257
 20
174.9188315272955094
 30
0.0
 40
5.2790934279369921
 50
236.4236142414031008
 51
258.6596069094999848
  0
ARC
  5
32401
  8
0
 10
2798.5183848475198829
 20
174.2985562832662936
 30
0.0
 40
4.6526185846170733
 50
258.2878828677722254
 51
270.0670486733346252
  0
ARC
  5
32402
  8
0
 10
2808.7500579045790801
 20
626.984650934880392
 30
0.0
 40
437.9578657720718979
 50
267.8260429479420281
 51
268.100716217872673
  0
ARC
  5
32403
  8
0
 10
2794.2270670808970863
 20
189.1978608083888105
 30
0.0
 40
0.0699715360781859
 50
67.7493879350792412
 51
83.5244954946414566
  0
LINE
  5
32404
  8
0
 10
2794.2535623981029858
 20
189.2626220161236859
 30
0.0
 11
2794.2590746856099031
 21
189.1870010044657135
 31
0.0
  0
ARC
  5
32405
  8
0
 10
2794.2608396850660029
 20
189.1872715484068976
 30
0.0
 40
0.0017856139291145
 50
188.7146243809700934
 51
233.3645051857866974
  0
ARC
  5
32406
  8
0
 10
2794.2890017317508864
 20
189.2564049022138875
 30
0.0
 40
0.0763795864674051
 50
247.5013318547125039
 51
267.2638671466560254
  0
ARC
  5
32407
  8
0
 10
2794.3467513735881766
 20
189.9030793802891139
 30
0.0
 40
0.7255692269603765
 50
265.1459801030727021
 51
271.36804433759022
  0
ARC
  5
32408
  8
0
 10
2794.3621761375029564
 20
188.9423138505690929
 30
0.0
 40
0.2354107691437959
 50
43.5991919618281401
 51
89.5380675836840396
  0
ARC
  5
32409
  8
0
 10
2794.956378894170939
 20
189.5078723031876962
 30
0.0
 40
0.5849143466359099
 50
223.5795275633738868
 51
250.1560604997146129
  0
ARC
  5
3240A
  8
0
 10
2794.9578623491011058
 20
189.5002183587662898
 30
0.0
 40
0.5782322516195439
 50
249.7603430062642929
 51
270.0785049747266271
  0
LINE
  5
3240B
  8
0
 10
2794.9586546255031863
 20
188.9219866499236957
 30
0.0
 11
2802.0768352034028794
 21
188.9239956194236925
 31
0.0
  0
LINE
  5
3240C
  8
0
 10
2802.2319011595218399
 20
189.3673301794960082
 30
0.0
 11
2794.814168235507168
 21
189.3652343888703058
 31
0.0
  0
ARC
  5
3240D
  8
0
 10
2794.8191531530469547
 20
189.3234744948507
 30
0.0
 40
0.0420563687376999
 50
96.8072395771274046
 51
183.7698838805524986
  0
ARC
  5
3240E
  8
0
 10
2800.2470588774790485
 20
189.228736092660597
 30
0.0
 40
5.4706442779793472
 50
179.0366901304722091
 51
180.439088659219891
  0
LINE
  5
3240F
  8
0
 10
2794.2853556469030991
 20
189.1801123908236946
 30
0.0
 11
2794.2853628236698569
 21
189.1979071514089128
 31
0.0
  0
ARC
  5
32410
  8
0
 10
2794.3783176383071805
 20
189.1978696620043081
 30
0.0
 40
0.0929548221978671
 50
161.414219526262201
 51
179.9768921646939077
  0
ARC
  5
32411
  8
0
 10
2794.3641052814709838
 20
189.2003011220255075
 30
0.0
 40
0.0787401573409625
 50
90.0161881488839555
 51
159.7948469080830023
  0
LINE
  5
32412
  8
0
 10
2794.3640830345038921
 20
189.279041276223694
 30
0.0
 11
2794.681224613203085
 21
189.2791308774237109
 31
0.0
  0
ARC
  5
32413
  8
0
 10
2794.6804097683620967
 20
189.1467858308357961
 30
0.0
 40
0.1323221160926819
 50
73.8024733947448084
 51
89.7266944373178319
  0
ARC
  5
32414
  8
0
 10
2794.902718014851871
 20
189.8597214836223941
 30
0.0
 40
0.6145006043719095
 50
252.4400465448671014
 51
256.3570346946943914
  0
LINE
  5
32415
  8
0
 10
2794.757775200002925
 20
189.2625593840236888
 30
0.0
 11
2794.7578232516038952
 21
188.9576901140767973
 31
0.0
  0
LINE
  5
32416
  8
0
 10
2794.7814567368691314
 20
188.9495518564380916
 30
0.0
 11
2794.780440997802998
 21
189.2512290533236978
 31
0.0
  0
LINE
  5
32417
  8
0
 10
2794.7806578844638352
 20
189.1868131398954063
 30
0.0
 11
2794.7577761991537955
 21
189.1868131398954063
 31
0.0
  0
ARC
  5
32418
  8
0
 10
2804.5074145374401269
 20
189.1702821723469867
 30
0.0
 40
9.7295364047837545
 50
179.3436647031529105
 51
179.9028560363499878
  0
ARC
  5
32419
  8
0
 10
2796.1759928585579473
 20
189.3545806895876069
 30
0.0
 40
1.3993737508873929
 50
182.9839891788570867
 51
184.2355997947250899
  0
LINE
  5
3241A
  8
0
 10
2794.9440111227941088
 20
189.3652714834030917
 30
0.0
 11
2794.9440053605108005
 21
189.3856643910235107
 31
0.0
  0
ARC
  5
3241B
  8
0
 10
2794.9243203233509121
 20
189.3856588306647097
 30
0.0
 40
0.0196850379449475
 50
0.016184124177943
 51
90.0161906569744161
  0
LINE
  5
3241C
  8
0
 10
2794.9243147607480751
 20
189.4053438678236887
 30
0.0
 11
2794.8502990161268826
 21
189.4053229524338064
 31
0.0
  0
ARC
  5
3241D
  8
0
 10
2794.8502934535240456
 20
189.425007990467094
 30
0.0
 40
0.0196850388192499
 50
180.0161805188841981
 51
270.0161906569744019
  0
LINE
  5
3241E
  8
0
 10
2794.8306084154901328
 20
189.4250024313467122
 30
0.0
 11
2794.8306061918410705
 21
189.4328764478239009
 31
0.0
  0
ARC
  5
3241F
  8
0
 10
2794.8502912331350672
 20
189.4328820069453059
 30
0.0
 40
0.0196850420794441
 50
90.0162012762796166
 51
180.0161805188841981
  0
LINE
  5
32420
  8
0
 10
2794.8502856668819732
 20
189.4525670482377109
 30
0.0
 11
2794.9880809373339616
 21
189.4526059806379976
 31
0.0
  0
ARC
  5
32421
  8
0
 10
2794.9880864991851013
 20
189.4329209422207896
 30
0.0
 40
0.0196850392028669
 50
0.0161755193134208
 51
90.0161885553436036
  0
LINE
  5
32422
  8
0
 10
2795.0077715376041851
 20
189.4329264996237043
 30
0.0
 11
2795.0077906327301207
 21
189.3652890945342904
 31
0.0
  0
ARC
  5
32423
  8
0
 10
2792.5124374713959696
 20
197.7276224467958059
 30
0.0
 40
0.8230260257789273
 50
92.8221905204369762
 51
179.8692136978935991
  0
LINE
  5
32424
  8
0
 10
2791.689413589805099
 20
197.729501126829291
 30
0.0
 11
2791.6894137618028253
 21
192.9446258068236943
 31
0.0
  0
ARC
  5
32425
  8
0
 10
2792.9036171802081299
 20
192.9453134081595067
 30
0.0
 40
1.2142036130982901
 50
180.0324464992598053
 51
269.8128494255985856
  0
LINE
  5
32426
  8
0
 10
2792.8996511202030888
 20
191.7311162724236908
 30
0.0
 11
2804.146879288502987
 21
191.7311123631237137
 31
0.0
  0
ARC
  5
32427
  8
0
 10
2792.5333502280409448
 20
197.7327579671789977
 30
0.0
 40
0.3290256269454214
 50
90.0001925058947876
 51
179.9968175379204069
  0
LINE
  5
32428
  8
0
 10
2792.5333491225610487
 20
198.0617835941224882
 30
0.0
 11
2804.5143798663029884
 21
198.0618238487294036
 31
0.0
  0
LINE
  5
32429
  8
0
 10
2792.2043246020830338
 20
197.7327834523350987
 30
0.0
 11
2792.2041012862050593
 21
192.9417172520685142
 31
0.0
  0
ARC
  5
3242A
  8
0
 10
2792.9039468532191677
 20
192.9416846316410954
 30
0.0
 40
0.6998455677748366
 50
179.9973293925062876
 51
269.9227645952574903
  0
LINE
  5
3242B
  8
0
 10
2792.9030034532029276
 20
192.2418396997236982
 30
0.0
 11
2804.1447283796010197
 21
192.2418339563716927
 31
0.0
  0
CIRCLE
  5
3242C
  8
0
 10
2798.5238659874030418
 20
195.1612149619236902
 30
0.0
 40
0.9448818898000004
  0
CIRCLE
  5
3242D
  8
0
 10
2798.5238294341029359
 20
195.1612149619236902
 30
0.0
 40
0.6593855302751568
  0
CIRCLE
  5
3242E
  8
0
 10
2798.5238294341029359
 20
195.1612149619236902
 30
0.0
 40
0.6475860016199233
  0
LINE
  5
3242F
  8
0
 10
2802.0880616459030534
 20
188.7129167950236877
 30
0.0
 11
2794.9473238193031648
 21
188.7100828161237018
 31
0.0
  0
ARC
  5
32430
  8
0
 10
2794.9470149280409714
 20
189.4883918979668067
 30
0.0
 40
0.7783091431386885
 50
222.9717910401525955
 51
270.0227392498669019
  0
ARC
  5
32431
  8
0
 10
2794.3489290660950246
 20
188.9312180762391051
 30
0.0
 40
0.0390948976384174
 50
42.9717910401526311
 51
89.9373736710200546
  0
LINE
  5
32432
  8
0
 10
2794.3489717982029106
 20
188.9703129505236916
 30
0.0
 11
2792.2690559230209146
 21
188.9904256970837082
 31
0.0
  0
ARC
  5
32433
  8
0
 10
2792.3003062923171456
 20
188.4633131629551031
 30
0.0
 40
0.5280380755367942
 50
93.3928635443209885
 51
184.5125663936877913
  0
LINE
  5
32434
  8
0
 10
2791.7739050811028392
 20
188.4217683191236858
 30
0.0
 11
2791.7947705365249931
 21
180.0023047946754957
 31
0.0
  0
ARC
  5
32435
  8
0
 10
2805.0104812635968301
 20
180.2953569207458031
 30
0.0
 40
13.2189594738099601
 50
181.2702985952192023
 51
199.5467994670148073
  0
ARC
  5
32436
  8
0
 10
2806.4935326926038215
 20
181.1318842514137941
 30
0.0
 40
14.8992870346544599
 50
200.6702399877356129
 51
216.6974431844560911
  0
ARC
  5
32437
  8
0
 10
2798.8545666177142266
 20
175.2974834557180088
 30
0.0
 40
5.2889792831655402
 50
215.4724444265389991
 51
248.7216635766172033
  0
ARC
  5
32438
  8
0
 10
2798.4689054788909743
 20
174.3072076186921038
 30
0.0
 40
4.2262560137318452
 50
248.7216635766172033
 51
265.6551176736800812
  0
ARC
  5
32439
  8
0
 10
2798.6075394427862193
 20
176.1318621741062032
 30
0.0
 40
6.0561695697609128
 50
265.6551176736800812
 51
269.2080170671446808
  0
ARC
  5
3245C
  8
0
 10
2804.6713250244652045
 20
197.4648720088522964
 30
0.0
 40
1.085282510701107
 50
30.7261710729730915
 51
88.2533325318515836
  0
ARC
  5
3245D
  8
0
 10
2804.8049301780529277
 20
197.5442835081395003
 30
0.0
 40
0.9298588211165125
 50
2.6523044502830331
 51
30.7261710729730915
  0
LINE
  5
3245E
  8
0
 10
2805.7337928808037759
 20
197.5873126453236921
 30
0.0
 11
2805.7337928808037759
 21
183.2009637081185076
 31
0.0
  0
ARC
  5
3245F
  8
0
 10
2804.9429092118680273
 20
188.5913414567700954
 30
0.0
 40
0.751339966779034
 50
45.1945679308899599
 51
92.4401591844525257
  0
ARC
  5
32460
  8
0
 10
2804.907235098217825
 20
188.5565980694061921
 30
0.0
 40
0.8011305643441806
 50
18.1015218591679314
 51
45.13540716685511
  0
ARC
  5
32461
  8
0
 10
2804.9502399847010565
 20
188.570655497278608
 30
0.0
 40
0.7558864316886486
 50
0.3771025735486791
 51
18.1015218591679314
  0
ARC
  5
32462
  8
0
 10
927.9281442172158449
 20
176.2165154571277981
 30
0.0
 40
1877.8186378535719996
 50
0.1670802096700064
 51
0.3771025735486791
  0
ARC
  5
32463
  8
0
 10
2783.555465710037879
 20
181.3800069705897045
 30
0.0
 40
22.18553192351429
 50
349.4625466457587777
 51
0.8068414797341638
  0
ARC
  5
32464
  8
0
 10
2791.9607429967959433
 20
180.3994629154605889
 30
0.0
 40
13.7546306719416993
 50
327.7491134397557175
 51
347.074427633313519
  0
ARC
  5
32465
  8
0
 10
2796.5533899900228789
 20
177.0090515756745049
 30
0.0
 40
8.0720783706855581
 50
306.5036132608482831
 51
330.707278376790498
  0
ARC
  5
32466
  8
0
 10
2798.4356621296119556
 20
174.9188315272955094
 30
0.0
 40
5.2790934279369921
 50
281.3403930904999015
 51
303.5763857585969276
  0
ARC
  5
32467
  8
0
 10
2798.5292740206868984
 20
174.2985562832662936
 30
0.0
 40
4.6526185846170733
 50
269.9329513266653748
 51
281.7121171322277746
  0
ARC
  5
32468
  8
0
 10
2788.2977037462151202
 20
626.9816596566272437
 30
0.0
 40
437.954872730645377
 50
271.8992833128514803
 51
272.173958272288985
  0
ARC
  5
32469
  8
0
 10
2802.8205917873087856
 20
189.1978608083888105
 30
0.0
 40
0.0699715360781859
 50
96.4755045053585576
 51
112.250612064920702
  0
LINE
  5
3246A
  8
0
 10
2802.7940964701028861
 20
189.2626220161236859
 30
0.0
 11
2802.7885841825968782
 21
189.1870010044657135
 31
0.0
  0
ARC
  5
3246B
  8
0
 10
2802.786819183139869
 20
189.1872715484068976
 30
0.0
 40
0.0017856139291145
 50
306.6354948142134162
 51
351.2853756190298213
  0
ARC
  5
3246C
  8
0
 10
2802.7586571364558949
 20
189.2564049022138875
 30
0.0
 40
0.0763795864674051
 50
272.7361328533439746
 51
292.4986681452875246
  0
ARC
  5
3246D
  8
0
 10
2802.7009074946190594
 20
189.9030793802891139
 30
0.0
 40
0.7255692269603765
 50
268.6319556624097231
 51
274.8540198969272979
  0
ARC
  5
3246E
  8
0
 10
2802.6854827307029154
 20
188.9423138505690929
 30
0.0
 40
0.2354107691437959
 50
90.4619324163159746
 51
136.4008080381717889
  0
ARC
  5
3246F
  8
0
 10
2802.0912799740358423
 20
189.5078723031876962
 30
0.0
 40
0.5849143466359099
 50
289.8439395002853871
 51
316.4204724366260848
  0
ARC
  5
32470
  8
0
 10
2802.0147496969721033
 20
190.0065640473800102
 30
0.0
 40
1.084347274316088
 50
273.2823284914060764
 51
284.6958045803144159
  0
ARC
  5
32471
  8
0
 10
2802.2249636054248185
 20
189.3223255906252973
 30
0.0
 40
0.0455361688801401
 50
357.9658950632933738
 51
81.2367116540830239
  0
ARC
  5
32472
  8
0
 10
2796.8005999907268233
 20
189.228736092660597
 30
0.0
 40
5.4706442779793472
 50
359.5609113407800237
 51
0.9633098695277961
  0
LINE
  5
32473
  8
0
 10
2802.7623032213027727
 20
189.1801123908236946
 30
0.0
 11
2802.7622960445369245
 21
189.1979071514089128
 31
0.0
  0
ARC
  5
32474
  8
0
 10
2802.6693412298991461
 20
189.1978696620043081
 30
0.0
 40
0.0929548221978671
 50
0.0231078353060634
 51
18.5857804737378096
  0
ARC
  5
32475
  8
0
 10
2802.6835535867348881
 20
189.2003011220255075
 30
0.0
 40
0.0787401573409625
 50
20.2051530919169409
 51
89.9838118511160445
  0
LINE
  5
32476
  8
0
 10
2802.6835758337028892
 20
189.279041276223694
 30
0.0
 11
2802.3664342550041511
 21
189.2791308774237109
 31
0.0
  0
ARC
  5
32477
  8
0
 10
2802.3672490998451394
 20
189.1467858308357961
 30
0.0
 40
0.1323221160926819
 50
90.2733055626821539
 51
106.1975266052552058
  0
ARC
  5
32478
  8
0
 10
2802.1449408533540009
 20
189.8597214836223941
 30
0.0
 40
0.6145006043719095
 50
283.6429653053054949
 51
287.559953455132927
  0
LINE
  5
32479
  8
0
 10
2802.2898836682029469
 20
189.2625593840236888
 30
0.0
 11
2802.2898356166028861
 21
188.9576901140767973
 31
0.0
  0
LINE
  5
3247A
  8
0
 10
2802.2662096214180565
 20
188.9517764300300087
 30
0.0
 11
2802.2672178704037833
 21
189.2512290533236978
 31
0.0
  0
LINE
  5
3247B
  8
0
 10
2802.2670009837429461
 20
189.1868131398954063
 30
0.0
 11
2802.2898826690520764
 21
189.1868131398954063
 31
0.0
  0
ARC
  5
3247C
  8
0
 10
2792.5402443307671092
 20
189.1702821723469867
 30
0.0
 40
9.7295364047837545
 50
0.0971439636499604
 51
0.6563352968470855
  0
ARC
  5
3247D
  8
0
 10
2800.871666009648834
 20
189.3545806895876069
 30
0.0
 40
1.3993737508873929
 50
355.7644002052749101
 51
357.0160108211427996
  0
LINE
  5
3247E
  8
0
 10
2802.1036483168850282
 20
189.3672939432082103
 30
0.0
 11
2802.1036535076959808
 21
189.3856643910235107
 31
0.0
  0
ARC
  5
3247F
  8
0
 10
2802.1233385448549598
 20
189.3856588306647097
 30
0.0
 40
0.0196850379449475
 50
89.9838093430255839
 51
179.9838158758221027
  0
LINE
  5
32480
  8
0
 10
2802.1233441074577968
 20
189.4053438678236887
 30
0.0
 11
2802.1973598520798987
 21
189.4053229524338064
 31
0.0
  0
ARC
  5
32481
  8
0
 10
2802.1973654146831905
 20
189.425007990467094
 30
0.0
 40
0.0196850388192499
 50
269.9838093430255981
 51
359.9838194811158019
  0
LINE
  5
32482
  8
0
 10
2802.2170504527171033
 20
189.4250024313467122
 30
0.0
 11
2802.2170526763661655
 21
189.4328764478239009
 31
0.0
  0
ARC
  5
32483
  8
0
 10
2802.1973676350708047
 20
189.4328820069453059
 30
0.0
 40
0.0196850420794441
 50
359.9838194811158019
 51
89.9837987237203834
  0
LINE
  5
32484
  8
0
 10
2802.1973732013238987
 20
189.4525670482377109
 30
0.0
 11
2802.0595779308728197
 21
189.4526059806379976
 31
0.0
  0
ARC
  5
32485
  8
0
 10
2802.0595723690221348
 20
189.4329209422207896
 30
0.0
 40
0.0196850392028669
 50
89.9838114446564106
 51
179.9838244806865077
  0
LINE
  5
32486
  8
0
 10
2802.0398873306030509
 20
189.4329264996237043
 30
0.0
 11
2802.0398687963897828
 21
189.3672759230769032
 31
0.0
  0
ARC
  5
32487
  8
0
 10
2804.5352213968099022
 20
197.7276224467958059
 30
0.0
 40
0.8230260257789273
 50
0.1307863021064264
 51
87.1778094795630381
  0
LINE
  5
32488
  8
0
 10
2805.358245278402137
 20
197.729501126829291
 30
0.0
 11
2805.3582451064030465
 21
192.9446258068236943
 31
0.0
  0
ARC
  5
32489
  8
0
 10
2804.1440404080321969
 20
192.9453139377515072
 30
0.0
 40
1.21420489336478
 50
270.1339609308381
 51
359.9675285446120938
  0
ARC
  5
3248A
  8
0
 10
2804.5142398696148121
 20
197.7327294781952958
 30
0.0
 40
0.329094400311384
 50
0.0081417675666955
 51
89.9756263867472654
  0
LINE
  5
3248B
  8
0
 10
2804.8433342661242023
 20
197.7327834523350987
 30
0.0
 11
2804.8435575820021768
 21
192.9417172520685142
 31
0.0
  0
ARC
  5
3248C
  8
0
 10
2804.1437020183129789
 20
192.9416887680434911
 30
0.0
 40
0.6998555642685503
 50
270.0840261821344939
 51
0.0023319303304758
  0
ARC
  5
3248D
  8
0
 10
2802.0610157170449384
 20
189.5912239739813003
 30
0.0
 40
0.8787234962582781
 50
271.763765681622715
 51
313.8819302778312021
  0
ARC
  5
3248E
  8
0
 10
2802.6987298021108472
 20
188.9312180762391051
 30
0.0
 40
0.0390948976384174
 50
90.0626263289799454
 51
137.0282089598472908
  0
LINE
  5
3248F
  8
0
 10
2802.6986870700029613
 20
188.9703129505236916
 30
0.0
 11
2804.7786029451858667
 21
188.9904256970837082
 31
0.0
  0
ARC
  5
32490
  8
0
 10
2804.747352575889181
 20
188.4633131629551031
 30
0.0
 40
0.5280380755367942
 50
355.487433606312095
 51
86.6071364556789973
  0
LINE
  5
32491
  8
0
 10
2805.2737537871030327
 20
188.4217683191236858
 30
0.0
 11
2805.2528883316808788
 21
180.0023047946754957
 31
0.0
  0
ARC
  5
32492
  8
0
 10
2792.0371776046099512
 20
180.2953569207458031
 30
0.0
 40
13.2189594738099601
 50
340.4532005329851927
 51
358.7297014047807124
  0
ARC
  5
32493
  8
0
 10
2790.5541261756020504
 20
181.1318842514137941
 30
0.0
 40
14.8992870346544599
 50
323.3025568155439942
 51
339.3297600122643871
  0
ARC
  5
32494
  8
0
 10
2798.1930922504930095
 20
175.2974834557180088
 30
0.0
 40
5.2889792831655402
 50
291.2783364233828252
 51
324.5275555734609725
  0
ARC
  5
32495
  8
0
 10
2798.578753389315807
 20
174.3072076186921038
 30
0.0
 40
4.2262560137318452
 50
274.3448823263199188
 51
291.2783364233828252
  0
ARC
  5
32496
  8
0
 10
2798.4401194254201073
 20
176.1318621741062032
 30
0.0
 40
6.0561695697609128
 50
270.7919829328552055
 51
274.3448823263199188
  0
ATTDEF
  5
3251A
  8
DEFPOINTS
 10
2798.5247397160551373
 20
198.9782155111564919
 30
0.0
 40
0.001
  1
K-4012T-S2
  3

  2
MODELNUMBER
 70
     0
1001
ACDBATTR
1070
     0
1070
     1
  0
ATTDEF
  5
3251B
  8
DEFPOINTS
 10
2798.5247397160551373
 20
198.9765488444897983
 30
0.0
 40
0.001
  1
REACH
  3

  2
TRADENAME
 70
     0
1001
ACDBATTR
1070
     0
1070
     1
  0
ATTDEF
  5
3251C
  8
DEFPOINTS
 10
2798.5247397160551373
 20
198.9748821778231047
 30
0.0
 40
0.001
  1
TOILET
  3

  2
PRODUCT
 70
     0
1001
ACDBATTR
1070
     0
1070
     1
  0
ENDSEC
  0
EOF
