  0
SECTION
  2
HEADER
  9
$ACADVER
  1
AC1009
  9
$INSBASE
 10
1239.2661435233180782
 20
195.9565443878589974
 30
0.0
  9
$EXTMIN
 10
1230.8508303139360578
 20
165.2773741582637967
 30
-0.0000000000112498
  9
$EXTMAX
 10
1247.7046163838660959
 20
195.970278890981092
 30
0.0000000000002956
  9
$LIMMIN
 10
0.0
 20
0.0
  9
$LIMMAX
 10
11.6929133858000007
 20
8.2677165353999982
  9
$ORTHOMODE
 70
     0
  9
$REGENMODE
 70
     1
  9
$FILLMODE
 70
     1
  9
$QTEXTMODE
 70
     0
  9
$MIRRTEXT
 70
     0
  9
$DRAGMODE
 70
     2
  9
$LTSCALE
 40
0.6431102362
  9
$OSMODE
 70
  4095
  9
$ATTMODE
 70
     1
  9
$TEXTSIZE
 40
0.2
  9
$TRACEWID
 40
0.05
  9
$TEXTSTYLE
  7
STANDARD
  9
$CLAYER
  8
0
  9
$CELTYPE
  6
BYLAYER
  9
$CECOLOR
 62
   256
  9
$DIMSCALE
 40
1.0
  9
$DIMASZ
 40
0.1875
  9
$DIMEXO
 40
0.0625
  9
$DIMDLI
 40
0.4443307087
  9
$DIMRND
 40
0.0
  9
$DIMDLE
 40
0.0
  9
$DIMEXE
 40
0.125
  9
$DIMTP
 40
0.01
  9
$DIMTM
 40
0.01
  9
$DIMTXT
 40
1.0
  9
$DIMCEN
 40
0.1052362205
  9
$DIMTSZ
 40
0.0
  9
$DIMTOL
 70
     1
  9
$DIMLIM
 70
     0
  9
$DIMTIH
 70
     0
  9
$DIMTOH
 70
     1
  9
$DIMSE1
 70
     0
  9
$DIMSE2
 70
     0
  9
$DIMTAD
 70
     0
  9
$DIMZIN
 70
     0
  9
$DIMBLK
  1

  9
$DIMASO
 70
     1
  9
$DIMSHO
 70
     1
  9
$DIMPOST
  1
\X
  9
$DIMAPOST
  1

  9
$DIMALT
 70
     1
  9
$DIMALTD
 70
     2
  9
$DIMALTF
 40
25.3999999999999986
  9
$DIMLFAC
 40
1.0
  9
$DIMTOFL
 70
     0
  9
$DIMTVP
 40
0.0
  9
$DIMTIX
 70
     0
  9
$DIMSOXD
 70
     0
  9
$DIMSAH
 70
     0
  9
$DIMBLK1
  1

  9
$DIMBLK2
  1

  9
$DIMSTYLE
  2
STANDARD
  9
$DIMCLRD
 70
     0
  9
$DIMCLRE
 70
     0
  9
$DIMCLRT
 70
     0
  9
$DIMTFAC
 40
1.0
  9
$DIMGAP
 40
0.09
  9
$LUNITS
 70
     2
  9
$LUPREC
 70
     4
  9
$SKETCHINC
 40
0.1
  9
$FILLETRAD
 40
0.0
  9
$AUNITS
 70
     0
  9
$AUPREC
 70
     0
  9
$MENU
  1
.
  9
$ELEVATION
 40
0.0
  9
$PELEVATION
 40
0.0
  9
$THICKNESS
 40
0.0
  9
$LIMCHECK
 70
     0
  9
$BLIPMODE
 70
     0
  9
$CHAMFERA
 40
0.0
  9
$CHAMFERB
 40
0.0
  9
$SKPOLY
 70
     0
  9
$TDCREATE
 40
2458172.5207638889551163
  9
$TDUPDATE
 40
2459137.65542824100703
  9
$TDINDWG
 40
0.4587970139
  9
$TDUSRTIMER
 40
0.4587970139
  9
$USRTIMER
 70
     1
  9
$ANGBASE
 50
0.0
  9
$ANGDIR
 70
     0
  9
$PDMODE
 70
     0
  9
$PDSIZE
 40
0.3125
  9
$PLINEWID
 40
0.0
  9
$COORDS
 70
     1
  9
$SPLFRAME
 70
     0
  9
$SPLINETYPE
 70
     6
  9
$SPLINESEGS
 70
     8
  9
$ATTDIA
 70
     1
  9
$ATTREQ
 70
     1
  9
$HANDLING
 70
     1
  9
$HANDSEED
  5
D38E
  9
$SURFTAB1
 70
     6
  9
$SURFTAB2
 70
     6
  9
$SURFTYPE
 70
     6
  9
$SURFU
 70
     6
  9
$SURFV
 70
     6
  9
$UCSNAME
  2

  9
$UCSORG
 10
0.0
 20
0.0
 30
0.0
  9
$UCSXDIR
 10
1.0
 20
0.0
 30
0.0
  9
$UCSYDIR
 10
0.0
 20
1.0
 30
0.0
  9
$PUCSNAME
  2

  9
$PUCSORG
 10
0.0
 20
0.0
 30
0.0
  9
$PUCSXDIR
 10
1.0
 20
0.0
 30
0.0
  9
$PUCSYDIR
 10
0.0
 20
1.0
 30
0.0
  9
$USERI1
 70
     0
  9
$USERI2
 70
     0
  9
$USERI3
 70
     0
  9
$USERI4
 70
     0
  9
$USERI5
 70
     0
  9
$USERR1
 40
0.0
  9
$USERR2
 40
0.0
  9
$USERR3
 40
0.0
  9
$USERR4
 40
0.0
  9
$USERR5
 40
0.0
  9
$WORLDVIEW
 70
     1
  9
$SHADEDGE
 70
     3
  9
$SHADEDIF
 70
    70
  9
$TILEMODE
 70
     1
  9
$MAXACTVP
 70
    64
  9
$PLIMCHECK
 70
     0
  9
$PEXTMIN
 10
1.0000000000000000E+20
 20
1.0000000000000000E+20
 30
1.0000000000000000E+20
  9
$PEXTMAX
 10
-1.0000000000000000E+20
 20
-1.0000000000000000E+20
 30
-1.0000000000000000E+20
  9
$PLIMMIN
 10
0.0
 20
0.0
  9
$PLIMMAX
 10
12.0
 20
9.0
  9
$UNITMODE
 70
     0
  9
$VISRETAIN
 70
     1
  9
$PLINEGEN
 70
     0
  9
$PSLTSCALE
 70
     1
  0
ENDSEC
  0
SECTION
  2
TABLES
  0
TABLE
  2
VPORT
 70
     1
  0
VPORT
  2
*ACTIVE
 70
     0
 10
0.0
 20
0.0
 11
1.0
 21
1.0
 12
772.5355216410711137
 22
91.4906794046926848
 13
0.0
 23
0.0
 14
1.0
 24
1.0
 15
0.0
 25
0.0
 16
0.0
 26
0.0
 36
24.1179433675886514
 17
466.74220170783002
 27
89.133147119929788
 37
0.0
 40
31.0554193555447284
 41
2.6055226824457591
 42
50.0
 43
0.0
 44
0.0
 50
0.0
 51
0.0
 71
     0
 72
   100
 73
     1
 74
     1
 75
     0
 76
     0
 77
     0
 78
     0
  0
ENDTAB
  0
TABLE
  2
LTYPE
 70
     2
  0
LTYPE
  2
CONTINUOUS
 70
     0
  3
Solid line
 72
    65
 73
     0
 40
0.0
  0
LTYPE
  2
PHANTOM2
 70
     0
  3
___ _ _ ___ _ _ ___ _ _ ___ _ _
 72
    65
 73
     6
 40
1.25
 49
0.625
 49
-0.125
 49
0.125
 49
-0.125
 49
0.125
 49
-0.125
  0
ENDTAB
  0
TABLE
  2
LAYER
 70
     2
  0
LAYER
  2
0
 70
     0
 62
   255
  6
CONTINUOUS
  0
LAYER
  2
DEFPOINTS
 70
     0
 62
     7
  6
CONTINUOUS
  0
ENDTAB
  0
TABLE
  2
STYLE
 70
     1
  0
STYLE
  2
STANDARD
 70
     0
 40
0.0
 41
0.8
 50
0.0
 71
     0
 42
0.2
  3
txt
  4

  0
ENDTAB
  0
TABLE
  2
VIEW
 70
     0
  0
ENDTAB
  0
TABLE
  2
UCS
 70
     0
  0
ENDTAB
  0
TABLE
  2
APPID
 70
    11
  0
APPID
  2
ACAD
 70
     0
  0
APPID
  2
ACAD_MLEADERVER
 70
     0
  0
APPID
  2
ACAD_EXEMPT_FROM_CAD_STANDARDS
 70
     0
  0
APPID
  2
ACAD_DSTYLE_DIMJAG
 70
     0
  0
APPID
  2
ACAD_DSTYLE_DIMTALN
 70
     0
  0
APPID
  2
ACAD_NAV_VCDISPLAY
 70
     0
  0
APPID
  2
ACAECLAYERSTANDARD
 70
     0
  0
APPID
  2
ACCMTRANSPARENCY
 70
     0
  0
APPID
  2
DCO15
 70
     0
  0
APPID
  2
ACDBATTR
 70
     0
  0
APPID
  2
ACADANNOTATIVE
 70
     0
  0
ENDTAB
  0
TABLE
  2
DIMSTYLE
 70
     1
  0
DIMSTYLE
  2
STANDARD
 70
     0
  3

  4

  5

  6

  7

 40
1.0
 41
0.1875
 42
0.0625
 43
0.38
 44
0.125
 45
0.0
 46
0.0
 47
0.01
 48
0.01
140
0.15625
141
0.09
142
0.0
143
25.3999999999999986
144
1.0
145
0.0
146
1.0
147
0.09
 71
     1
 72
     0
 73
     1
 74
     1
 75
     0
 76
     0
 77
     0
 78
     4
170
     0
171
     2
172
     0
173
     0
174
     0
175
     0
176
     0
177
     0
178
     0
  0
ENDTAB
  0
ENDSEC
  0
SECTION
  2
BLOCKS
  0
BLOCK
  8
0
  2
$MODEL_SPACE
 70
     0
 10
0.0
 20
0.0
 30
0.0
  3
$MODEL_SPACE
  1

  0
ENDBLK
  5
21
  8
0
  0
BLOCK
 67
     1
  8
0
  2
$PAPER_SPACE
 70
     0
 10
0.0
 20
0.0
 30
0.0
  3
$PAPER_SPACE
  1

  0
ENDBLK
  5
1D
 67
     1
  8
0
  0
ENDSEC
  0
SECTION
  2
ENTITIES
  0
ATTDEF
  5
829
  8
DEFPOINTS
 10
1239.261303930260965
 20
195.9543402078186887
 30
0.0
 40
0.001
  1
K-4026T
  3

  2
MODELNUMBER
 70
     0
1001
ACDBATTR
1070
     0
1070
     1
  0
ATTDEF
  5
82A
  8
DEFPOINTS
 10
1239.261303930260965
 20
195.9526735411519951
 30
0.0
 40
0.001
  1
KARING
  3

  2
TRADENAME
 70
     0
1001
ACDBATTR
1070
     0
1070
     1
  0
ATTDEF
  5
82B
  8
DEFPOINTS
 10
1239.261303930260965
 20
195.9510068744853015
 30
0.0
 40
0.001
  1
TOILET
  3

  2
PRODUCT
 70
     0
1001
ACDBATTR
1070
     0
1070
     1
  0
ARC
  5
D1E6
  8
0
 10
1237.46401111768796
 20
69.2796290418494038
 30
0.0
 40
96.0245275210180722
 50
88.9246430478629151
 51
89.0333173310120571
  0
ARC
  5
D1E7
  8
0
 10
1239.2613248455040775
 20
170.2765906175526993
 30
0.0
 40
4.989251522475441
 50
253.3124305953959094
 51
267.9636650809193839
  0
ARC
  5
D1E8
  8
0
 10
1239.3994017347640693
 20
170.7371878943557135
 30
0.0
 40
5.4700998132553069
 50
224.051701117377803
 51
253.3124305953959094
  0
ARC
  5
D1E9
  8
0
 10
1243.6719709887499903
 20
174.8706172824564078
 30
0.0
 40
11.4148526707355291
 50
202.6633095120112102
 51
224.051701117377803
  0
ARC
  5
D1EA
  8
0
 10
1260.2907867155890926
 20
181.8099174536467046
 30
0.0
 40
29.4242647385549994
 50
190.1398221611962072
 51
202.6633095120097039
  0
ARC
  5
D1EB
  8
0
 10
1257.5492623049960912
 20
181.3196114405151036
 30
0.0
 40
26.6392412053713983
 50
180.9810229388262997
 51
190.1398221611962072
  0
ARC
  5
D1EC
  8
0
 10
1253.9636247708911014
 20
181.2582118664581117
 30
0.0
 40
23.05307801420442
 50
180.1819208814966089
 51
180.9810229388262997
  0
ARC
  5
D1ED
  8
0
 10
1252.8233463535570991
 20
181.1804744836911141
 30
0.0
 40
21.9126838641593586
 50
172.1152028797642117
 51
179.988125839833998
  0
ARC
  5
D1EE
  8
0
 10
1242.5262524785089226
 20
182.5671834966040024
 30
0.0
 40
11.5227745514845097
 50
153.9468443136346139
 51
171.9214078381023114
  0
ARC
  5
D1EF
  8
0
 10
1238.9319773882571099
 20
184.3243582544122887
 30
0.0
 40
7.5219650641571114
 50
135.0753503860534011
 51
153.9468443136346139
  0
ARC
  5
D1F0
  8
0
 10
1237.9716201113590159
 20
185.2821928920195091
 30
0.0
 40
6.1655973808605991
 50
112.9612523864658016
 51
135.0753503860534011
  0
ARC
  5
D1F1
  8
0
 10
1239.1031611035130027
 20
182.6114290748502071
 30
0.0
 40
9.0661773890706012
 50
96.2936362953811056
 51
112.9612523864658016
  0
ARC
  5
D1F2
  8
0
 10
1239.3524109524250889
 20
180.3514508799524094
 30
0.0
 40
11.3398587494629606
 50
91.6244919926160577
 51
96.2936362953811056
  0
ARC
  5
D1F3
  8
0
 10
1239.2421901656809951
 20
184.2378926851887115
 30
0.0
 40
7.4518543092239451
 50
89.8158272284642436
 51
91.6244919926160577
  0
ARC
  5
D1F4
  8
0
 10
1239.2706708008111036
 20
182.4393524215610967
 30
0.0
 40
9.102294131446488
 50
90.0284976402591326
 51
98.1088196934914549
  0
ARC
  5
D1F5
  8
0
 10
1239.1935682824569085
 20
182.9805057794121979
 30
0.0
 40
8.5556756584233931
 50
98.1088196934914549
 51
111.7078698260602039
  0
ARC
  5
D1F6
  8
0
 10
1238.0517423998169306
 20
185.7132732105422122
 30
0.0
 40
5.5946031561007628
 50
111.1950936337699005
 51
135.8187112487715922
  0
ARC
  5
D1F7
  8
0
 10
1235.2477395212908959
 20
188.4777758405570012
 30
0.0
 40
1.657320255367867
 50
136.7983100399997056
 51
150.2988991174555906
  0
ARC
  5
D1F8
  8
0
 10
1234.0890525328541116
 20
189.1270989843253858
 30
0.0
 40
0.3292900897440403
 50
148.5439453933126117
 51
175.7656247860537064
  0
ARC
  5
D1F9
  8
0
 10
1233.0008787742979166
 20
189.350593476748486
 30
0.0
 40
0.785456860373559
 50
334.5875748578257003
 51
345.3101855713907185
  0
ARC
  5
D1FA
  8
0
 10
1231.8975371285150686
 20
190.185771272158604
 30
0.0
 40
2.158794228184675
 50
316.8110175479486088
 51
327.1113842936237006
  0
ARC
  5
D1FB
  8
0
 10
1239.8583281271339729
 20
183.3665943198988941
 30
0.0
 40
8.3261616482934038
 50
140.0921963817887104
 51
150.1164056502175868
  0
ARC
  5
D1FC
  8
0
 10
1243.9984063218701067
 20
181.2416340671711907
 30
0.0
 40
12.9763824806896704
 50
151.0892779846568033
 51
167.1187512984220973
  0
ARC
  5
D1FD
  8
0
 10
1246.2452195090650093
 20
180.6441407023037868
 30
0.0
 40
15.3000701308960299
 50
166.8132769229924008
 51
174.9375926397580088
  0
ARC
  5
D1FE
  8
0
 10
1261.3662933067880658
 20
179.5865131206033993
 30
0.0
 40
30.4567795401645682
 50
175.4658325457446892
 51
178.2993289007746966
  0
ARC
  5
D1FF
  8
0
 10
1222.8756873563841054
 20
181.1641434363110079
 30
0.0
 40
8.0798605071610261
 50
354.9464532530552106
 51
358.7493427736944227
  0
ARC
  5
D200
  8
0
 10
1241.6386403312978928
 20
180.7545190180653947
 30
0.0
 40
10.6875633038703306
 50
175.2096257990774859
 51
178.7493427736943943
  0
ARC
  5
D201
  8
0
 10
1255.2981984399800695
 20
179.6098048566709053
 30
0.0
 40
24.3950028253768103
 50
172.872819019021108
 51
175.2096257990774859
  0
ARC
  5
D202
  8
0
 10
1243.8331658503288963
 20
181.0433738488356141
 30
0.0
 40
12.84069227316051
 50
166.1174748889438035
 51
172.872819019021108
  0
ARC
  5
D203
  8
0
 10
1246.9333881832978932
 20
180.2771497707738035
 30
0.0
 40
16.0341978472349815
 50
157.7368468226848961
 51
166.1174748889438035
  0
ARC
  5
D204
  8
0
 10
1240.638030118261895
 20
182.8543360000772111
 30
0.0
 40
9.2317407891180228
 50
144.4900088740641877
 51
157.7368468226848961
  0
ARC
  5
D205
  8
0
 10
1238.1349896721210371
 20
184.6403960291571025
 30
0.0
 40
6.1568063341264594
 50
137.4107835724678921
 51
144.4900088740641877
  0
ARC
  5
D206
  8
0
 10
1232.3617725347630767
 20
189.9471363326622964
 30
0.0
 40
1.6848471116675729
 50
317.4107835724678921
 51
327.6064582976010797
  0
ARC
  5
D207
  8
0
 10
1233.5535835115811096
 20
189.1909785174815966
 30
0.0
 40
0.2733981944475536
 50
327.6064582976010797
 51
352.699110658661084
  0
ARC
  5
D208
  8
0
 10
1233.7430799373100854
 20
189.1667004758616883
 30
0.0
 40
0.082352862996998
 50
352.699110658661084
 51
18.2343960670422796
  0
ARC
  5
D209
  8
0
 10
1234.0342952615799277
 20
189.2009180423131056
 30
0.0
 40
0.213165366432626
 50
158.8748326944607925
 51
182.2715460066499986
  0
ARC
  5
D20A
  8
0
 10
1234.9765972562620391
 20
188.7782370837396968
 30
0.0
 40
1.2456771918508589
 50
130.8527481752811923
 51
156.3597635457425952
  0
ARC
  5
D20B
  8
0
 10
1237.3534053432770179
 20
186.4607376829304997
 30
0.0
 40
4.5620461226520872
 50
125.4698359112502004
 51
134.3952642846628862
  0
ARC
  5
D20C
  8
0
 10
1239.6649456290729177
 20
154.0813952010086041
 30
0.0
 40
36.2232336808441389
 50
90.6308144477320496
 51
95.2786354304030851
  0
ARC
  5
D20D
  8
0
 10
1239.384006025924009
 20
170.0438753374978091
 30
0.0
 40
20.3373771215098209
 50
90.3320517549454678
 51
98.6296783984895455
  0
ARC
  5
D20E
  8
0
 10
1239.2660666194929036
 20
178.8035268888295946
 30
0.0
 40
12.1084196800149009
 50
89.9996360992932409
 51
104.0211711812800957
  0
ARC
  5
D20F
  8
0
 10
1206.2807293204130019
 20
238.2988714497884075
 30
0.0
 40
55.890969388819272
 50
300.5697772010473159
 51
300.8757849900383121
  0
ARC
  5
D210
  8
0
 10
1236.4567302006350928
 20
187.830055372997009
 30
0.0
 40
2.9111770457807742
 50
108.6712628054671939
 51
120.8757849900382979
  0
ARC
  5
D211
  8
0
 10
1236.0144136658059324
 20
189.1389846914258044
 30
0.0
 40
1.529533141720935
 50
95.9084225619536852
 51
108.6712628054671939
  0
ARC
  5
D212
  8
0
 10
1235.9006125619050636
 20
190.2386342262207108
 30
0.0
 40
0.4240107355148737
 50
93.0373823459903946
 51
95.9084225619536852
  0
LINE
  5
D213
  8
0
 10
1236.3324337353999454
 20
190.6620493012239876
 30
0.0
 11
1236.3324337353999454
 21
190.1510087666619881
 31
0.0
  0
LINE
  5
D214
  8
0
 10
1235.8781452947860089
 20
190.6620493012239876
 30
0.0
 11
1236.3324337353999454
 21
190.6620493012239876
 31
0.0
  0
ARC
  5
D215
  8
0
 10
1241.0682759290000376
 20
69.2796290388992446
 30
0.0
 40
96.0245275239686862
 50
90.9666826689879287
 51
91.0753569521370991
  0
ARC
  5
D216
  8
0
 10
1239.2709622011320789
 20
170.2765906175526993
 30
0.0
 40
4.989251522475441
 50
272.0363349190805025
 51
286.687569404604119
  0
ARC
  5
D217
  8
0
 10
1239.1328853118729967
 20
170.7371878943557135
 30
0.0
 40
5.4700998132553069
 50
286.687569404604119
 51
315.9482988826209748
  0
ARC
  5
D218
  8
0
 10
1234.8603160578870757
 20
174.8706172824564078
 30
0.0
 40
11.4148526707355291
 50
315.9482988826222254
 51
337.3366904879887898
  0
ARC
  5
D219
  8
0
 10
1218.2415003310479733
 20
181.8099174536467046
 30
0.0
 40
29.4242647385549994
 50
337.3366904879903245
 51
349.8601778388036792
  0
ARC
  5
D21A
  8
0
 10
1220.9830247416400653
 20
181.3196114405151036
 30
0.0
 40
26.6392412053713983
 50
349.8601778388036792
 51
359.0189770611737003
  0
ARC
  5
D21B
  8
0
 10
1224.5686622757459645
 20
181.2582118664581117
 30
0.0
 40
23.05307801420442
 50
359.0189770611737003
 51
359.8180791185034195
  0
ARC
  5
D21C
  8
0
 10
1225.7089406930799669
 20
181.1804744836911141
 30
0.0
 40
21.9126838641593586
 50
0.0118741601660088
 51
7.8847971202357492
  0
ARC
  5
D21D
  8
0
 10
1236.0060345681270064
 20
182.5671834966040024
 30
0.0
 40
11.5227745514845097
 50
8.0785921618976921
 51
26.0531556863653613
  0
ARC
  5
D21E
  8
0
 10
1239.6003096583799561
 20
184.3243582544122887
 30
0.0
 40
7.5219650641571114
 50
26.0531556863653613
 51
44.9246496139465776
  0
ARC
  5
D21F
  8
0
 10
1240.56066693527805
 20
185.2821928920195091
 30
0.0
 40
6.1655973808605991
 50
44.9246496139465776
 51
67.0387476135341558
  0
ARC
  5
D220
  8
0
 10
1239.4291259431229264
 20
182.6114290748502071
 30
0.0
 40
9.0661773890706012
 50
67.0387476135341558
 51
83.7063637046188802
  0
ARC
  5
D221
  8
0
 10
1239.179876094211977
 20
180.3514508799524094
 30
0.0
 40
11.3398587494629606
 50
83.7063637046188802
 51
88.3755080073839423
  0
ARC
  5
D222
  8
0
 10
1239.2900968809560709
 20
184.2378926851887115
 30
0.0
 40
7.4518543092239451
 50
88.3755080073839423
 51
90.1841727715357564
  0
ARC
  5
D223
  8
0
 10
1239.2616162458250528
 20
182.4393524215610967
 30
0.0
 40
9.102294131446488
 50
81.8911803065085735
 51
89.9715023597408674
  0
ARC
  5
D224
  8
0
 10
1239.3387187641790206
 20
182.9805057794121979
 30
0.0
 40
8.5556756584233931
 50
68.2921301739398103
 51
81.8911803065085735
  0
ARC
  5
D225
  8
0
 10
1240.4805446468189984
 20
185.7132732105422122
 30
0.0
 40
5.5946031561007628
 50
44.181288751228422
 51
68.8049063662300568
  0
ARC
  5
D226
  8
0
 10
1243.2845475253450331
 20
188.4777758405570012
 30
0.0
 40
1.657320255367867
 50
29.701100882544381
 51
43.2016899600002588
  0
ARC
  5
D227
  8
0
 10
1244.4432345137820448
 20
189.1270989843253858
 30
0.0
 40
0.3292900897440403
 50
4.2343752139463504
 51
31.4560546066873812
  0
ARC
  5
D228
  8
0
 10
1245.531408272338922
 20
189.350593476748486
 30
0.0
 40
0.785456860373559
 50
194.6898144286091963
 51
205.412425142174186
  0
ARC
  5
D229
  8
0
 10
1246.6347499181210878
 20
190.185771272158604
 30
0.0
 40
2.158794228184675
 50
212.8886157063762994
 51
223.1889824520513912
  0
ARC
  5
D22A
  8
0
 10
1238.6739589195030931
 20
183.3665943198988941
 30
0.0
 40
8.3261616482934038
 50
29.8835943497823813
 51
39.9078036182112967
  0
ARC
  5
D22B
  8
0
 10
1234.5338807247660498
 20
181.2416340671711907
 30
0.0
 40
12.9763824806896704
 50
12.8812487015779098
 51
28.9107220153431896
  0
ARC
  5
D22C
  8
0
 10
1232.2870675375709197
 20
180.6441407023037868
 30
0.0
 40
15.3000701308960299
 50
5.062407360241953
 51
13.1867230770075601
  0
ARC
  5
D22D
  8
0
 10
1217.1659937398480906
 20
179.5865131206033993
 30
0.0
 40
30.4567795401645682
 50
1.7006710992252989
 51
4.5341674542569201
  0
ARC
  5
D22E
  8
0
 10
1255.6565996902529605
 20
181.1641434363110079
 30
0.0
 40
8.0798605071610261
 50
181.250657226305492
 51
185.0535467469447894
  0
ARC
  5
D22F
  8
0
 10
1236.8936467153380363
 20
180.7545190180653947
 30
0.0
 40
10.6875633038703306
 50
1.250657226305588
 51
4.7903742009224146
  0
ARC
  5
D230
  8
0
 10
1223.2340886066569965
 20
179.6098048566709053
 30
0.0
 40
24.3950028253768103
 50
4.7903742009224146
 51
7.1271809809788511
  0
ARC
  5
D231
  8
0
 10
1234.6991211963079422
 20
181.0433738488356141
 30
0.0
 40
12.84069227316051
 50
7.1271809809788511
 51
13.8825251110561201
  0
ARC
  5
D232
  8
0
 10
1231.5988988633380359
 20
180.2771497707738035
 30
0.0
 40
16.0341978472349815
 50
13.8825251110561201
 51
22.26315317731504
  0
ARC
  5
D233
  8
0
 10
1237.894256928374034
 20
182.8543360000772111
 30
0.0
 40
9.2317407891180228
 50
22.26315317731504
 51
35.509991125935791
  0
ARC
  5
D234
  8
0
 10
1240.397297374514892
 20
184.6403960291571025
 30
0.0
 40
6.1568063341264594
 50
35.509991125935791
 51
42.5892164275320582
  0
ARC
  5
D235
  8
0
 10
1246.1705145118730798
 20
189.9471363326622964
 30
0.0
 40
1.6848471116675729
 50
212.3935417023974992
 51
222.5892164275319942
  0
ARC
  5
D236
  8
0
 10
1244.9787035350550468
 20
189.1909785174815966
 30
0.0
 40
0.2733981944475536
 50
187.3008893413388876
 51
212.3935417023988919
  0
ARC
  5
D237
  8
0
 10
1244.7892071093260711
 20
189.1667004758616883
 30
0.0
 40
0.082352862996998
 50
161.7656039329577027
 51
187.3008893413388876
  0
ARC
  5
D238
  8
0
 10
1244.4979917850560014
 20
189.2009180423131056
 30
0.0
 40
0.213165366432626
 50
357.7284539933500014
 51
21.1251673055392217
  0
ARC
  5
D239
  8
0
 10
1243.55568979037389
 20
188.7782370837396968
 30
0.0
 40
1.2456771918508589
 50
23.6402364542573586
 51
49.1472518247188219
  0
ARC
  5
D23A
  8
0
 10
1241.1788817033589112
 20
186.4607376829304997
 30
0.0
 40
4.5620461226520872
 50
45.6047357153371067
 51
54.530164088749757
  0
ARC
  5
D23B
  8
0
 10
1238.8673414175630114
 20
154.0813952010086041
 30
0.0
 40
36.2232336808441389
 50
84.7213645695969149
 51
89.3691855522679788
  0
ARC
  5
D23C
  8
0
 10
1239.1482810207119201
 20
170.0438753374978091
 30
0.0
 40
20.3373771215098209
 50
81.3703216015104402
 51
89.6679482450545464
  0
ARC
  5
D23D
  8
0
 10
1239.2662204271430255
 20
178.8035268888295946
 30
0.0
 40
12.1084196800149009
 50
75.9788288187199186
 51
90.0003639010585061
  0
ARC
  5
D23E
  8
0
 10
1272.2515577262229272
 20
238.2988714497884075
 30
0.0
 40
55.890969388819272
 50
239.1242150099616879
 51
239.4302227989525989
  0
ARC
  5
D23F
  8
0
 10
1242.0755568460010636
 20
187.830055372997009
 30
0.0
 40
2.9111770457807742
 50
59.1242150099616595
 51
71.3287371945327777
  0
ARC
  5
D240
  8
0
 10
1242.5178733808309062
 20
189.1389846914258044
 30
0.0
 40
1.529533141720935
 50
71.3287371945327777
 51
84.0915774380463148
  0
ARC
  5
D241
  8
0
 10
1242.6316744847310929
 20
190.2386342262207108
 30
0.0
 40
0.4240107355148737
 50
84.0915774380463148
 51
86.9626176540096054
  0
LINE
  5
D242
  8
0
 10
1242.1998533112368932
 20
190.6620493012239876
 30
0.0
 11
1242.1998533112368932
 21
190.1510087666619881
 31
0.0
  0
LINE
  5
D243
  8
0
 10
1242.6541417518510571
 20
190.6620493012239876
 30
0.0
 11
1242.1998533112368932
 21
190.6620493012239876
 31
0.0
  0
ARC
  5
D244
  8
0
 10
1237.8259280338559165
 20
191.4617433561288919
 30
0.0
 40
0.128479049506318
 50
39.0750474645080885
 51
83.2362069364512536
  0
ARC
  5
D245
  8
0
 10
1239.8090416849959183
 20
175.7553687023257964
 30
0.0
 40
15.8993026170084093
 50
93.289920001119043
 51
96.8030200244164689
  0
ARC
  5
D246
  8
0
 10
1238.993907050218013
 20
191.5745731730370096
 30
0.0
 40
0.1112299283585545
 50
95.4344000951944764
 51
151.0178925610269971
  0
ARC
  5
D247
  8
0
 10
1239.2955639288320526
 20
182.321111736634407
 30
0.0
 40
9.302797465592441
 50
69.633335928926229
 51
82.3549968699323074
  0
ARC
  5
D248
  8
0
 10
1239.4721734953409396
 20
182.8052498761344111
 30
0.0
 40
8.8497184749214437
 50
69.7640086894184464
 51
83.1142946662706379
  0
LINE
  5
D249
  8
0
 10
1240.5331606815359464
 20
191.5412199227421866
 30
0.0
 11
1240.5331579839610185
 21
191.5911379359878026
 31
0.0
  0
LINE
  5
D24A
  8
0
 10
1242.5331854346529781
 20
191.0423414475687025
 30
0.0
 11
1242.5331819196690049
 21
191.1087277325243008
 31
0.0
  0
LINE
  5
D24B
  8
0
 10
1242.49339308264598
 20
191.1232874626479088
 30
0.0
 11
1242.49339308264598
 21
191.0570106250634126
 31
0.0
  0
LINE
  5
D24C
  8
0
 10
1240.5720306548068947
 20
191.5359190261719107
 30
0.0
 11
1240.5720306548068947
 21
191.5863563732756916
 31
0.0
  0
ARC
  5
D24D
  8
0
 10
1239.9074160763509553
 20
184.7310854654944876
 30
0.0
 40
6.9107224510418837
 50
31.5009918663529511
 51
38.9085606241307502
  0
ARC
  5
D24E
  8
0
 10
1239.8164379024860864
 20
184.6462240746637917
 30
0.0
 40
7.0502176878781757
 50
31.6989545485331412
 51
38.9547235331478277
  0
ARC
  5
D24F
  8
0
 10
1245.1265777427870489
 20
188.9393471193691028
 30
0.0
 40
0.2217119508565068
 50
38.9547235331478277
 51
51.5580797799166035
  0
ARC
  5
D250
  8
0
 10
1245.2624876176669204
 20
189.1105652149267939
 30
0.0
 40
0.0031092739831874
 50
51.5580797799359303
 51
174.3410397882591951
  0
ARC
  5
D251
  8
0
 10
1245.410085443169919
 20
189.1810211555290948
 30
0.0
 40
0.1662197136585179
 50
204.9626789954737944
 51
221.184699588919301
  0
ARC
  5
D252
  8
0
 10
1245.9280013320189937
 20
188.4191678807268886
 30
0.0
 40
0.1496934199062623
 50
211.0178802361481019
 51
226.1474838137839072
  0
ARC
  5
D253
  8
0
 10
1245.8274723984659431
 20
188.3145352470974956
 30
0.0
 40
0.004593268379263
 50
226.1977154363534055
 51
11.1543099673047994
  0
ARC
  5
D254
  8
0
 10
1245.6913396301758894
 20
188.2693779097452023
 30
0.0
 40
0.1479852361342746
 50
18.1286740732691882
 51
33.3829447031433233
  0
ARC
  5
D255
  8
0
 10
1239.9284836074539271
 20
184.7458074715509895
 30
0.0
 40
6.9107224510418837
 50
31.5009918663529511
 51
38.9085606241307502
  0
ARC
  5
D256
  8
0
 10
1239.8375054335890582
 20
184.6609460807202936
 30
0.0
 40
7.0502176878781757
 50
31.6989545485331412
 51
38.9547235331478277
  0
ARC
  5
D257
  8
0
 10
1245.1476452738900207
 20
188.9540691254256046
 30
0.0
 40
0.2217119508565068
 50
38.9547235331478277
 51
51.5580797799166035
  0
ARC
  5
D258
  8
0
 10
1245.2835551487698922
 20
189.1252872209832105
 30
0.0
 40
0.0031092739831874
 50
51.5580797799359303
 51
174.3410397882591951
  0
ARC
  5
D259
  8
0
 10
1245.4311529742728908
 20
189.1957431615855114
 30
0.0
 40
0.1662197136585179
 50
204.9626789954737944
 51
221.184699588919301
  0
ARC
  5
D25A
  8
0
 10
1245.9490688631231023
 20
188.4338898867833905
 30
0.0
 40
0.1496934199062623
 50
211.0178802361481019
 51
226.1474838137839072
  0
ARC
  5
D25B
  8
0
 10
1245.8485399295689149
 20
188.3292572531539122
 30
0.0
 40
0.004593268379263
 50
226.1977154363534055
 51
11.1543099673047994
  0
ARC
  5
D25C
  8
0
 10
1245.7124071612790885
 20
188.2840999158015904
 30
0.0
 40
0.1479852361342746
 50
18.1286740732691882
 51
33.3829447031433233
  0
ARC
  5
D25D
  8
0
 10
1239.8200564155210941
 20
184.6054844022438033
 30
0.0
 40
7.106069531293949
 50
31.9851299292376794
 51
39.1866893304071127
  0
ARC
  5
D25E
  8
0
 10
1239.7548448227930749
 20
184.5422386669561092
 30
0.0
 40
7.2079972866406861
 50
32.1373942677555817
 51
39.2341178538311297
  0
ARC
  5
D25F
  8
0
 10
1239.7535802335719382
 20
184.530526743325396
 30
0.0
 40
7.2239577061516211
 50
32.2044327154759884
 51
39.2904608678887826
  0
ARC
  5
D260
  8
0
 10
1239.6073328346649305
 20
184.4135368166311935
 30
0.0
 40
7.4206466955606167
 50
32.3638269204077034
 51
39.2626071859887915
  0
ARC
  5
D261
  8
0
 10
1239.7259738184341131
 20
184.490744709097612
 30
0.0
 40
7.2860606118528457
 50
32.3481679448555681
 51
39.375146818993862
  0
ARC
  5
D262
  8
0
 10
1239.58259196435597
 20
184.3781136481626106
 30
0.0
 40
7.4757858229028944
 50
32.4868408354249425
 51
39.3358821458395482
  0
ARC
  5
D263
  8
0
 10
1239.6735637079559638
 20
184.4399614327055872
 30
0.0
 40
7.3709068508117612
 50
32.4594350411463779
 51
39.4063193017720508
  0
ARC
  5
D264
  8
0
 10
1239.5711556903729615
 20
184.3567614224760121
 30
0.0
 40
7.5083403407916371
 50
32.5736441226680498
 51
39.3938524789345124
  0
ARC
  5
D265
  8
0
 10
1245.6129367466730855
 20
189.3001164667485909
 30
0.0
 40
0.3508981223986646
 50
207.6699338460913964
 51
215.6806625537371929
  0
ARC
  5
D266
  8
0
 10
1245.1611414679759946
 20
188.9610747958853096
 30
0.0
 40
0.2256039141251616
 50
38.4069223736574372
 51
51.3098997107998471
  0
ARC
  5
D267
  8
0
 10
1245.7740687454740964
 20
189.4621418431750897
 30
0.0
 40
0.558545123030604
 50
214.9439270858424891
 51
219.7331505872668913
  0
ARC
  5
D268
  8
0
 10
1245.2311774642619184
 20
189.0092051987450077
 30
0.0
 40
0.1578793961331096
 50
39.4024840215267673
 51
57.4069851416262011
  0
ARC
  5
D269
  8
0
 10
1245.4547405376329152
 20
189.2052775664251101
 30
0.0
 40
0.1335842798207425
 50
205.0768520571290878
 51
223.6996888192531117
  0
ARC
  5
D26A
  8
0
 10
1245.2813246613679894
 20
189.0668640292207101
 30
0.0
 40
0.0971534246759848
 50
30.8993883446241604
 51
57.3441130152746226
  0
ARC
  5
D26B
  8
0
 10
1245.5705695159979314
 20
189.2633926283463097
 30
0.0
 40
0.2479920033798708
 50
205.9350747024276984
 51
215.7409877974820915
  0
ARC
  5
D26C
  8
0
 10
1245.1652466574898881
 20
188.9842587535665928
 30
0.0
 40
0.2497300803670647
 50
33.4498230316123824
 51
43.1125592074501398
  0
ARC
  5
D26D
  8
0
 10
1246.0808776476069397
 20
188.5343865979805003
 30
0.0
 40
0.2858580218961199
 50
215.2111358261182943
 51
223.7722474304246134
  0
ARC
  5
D26E
  8
0
 10
1245.7130913004320973
 20
188.2948662885594899
 30
0.0
 40
0.166686854353616
 50
14.5108415613941002
 51
29.3404463484719784
  0
ARC
  5
D26F
  8
0
 10
1246.8209009308700388
 20
189.1447896462750009
 30
0.0
 40
1.2230017417973971
 50
218.6784798952112112
 51
220.5681167464879024
  0
ARC
  5
D270
  8
0
 10
1245.7648017270150831
 20
188.3134533149901984
 30
0.0
 40
0.1320553903168393
 50
15.7995984239041096
 51
33.1998646321106179
  0
ARC
  5
D271
  8
0
 10
1246.1703068563199395
 20
188.5819455132395035
 30
0.0
 40
0.3473366745370904
 50
213.6966815942595872
 51
220.4154482112687958
  0
ARC
  5
D272
  8
0
 10
1245.7815560805470341
 20
188.3203946197891128
 30
0.0
 40
0.1295111451932626
 50
16.3065940448075501
 51
34.313247908870558
  0
ARC
  5
D273
  8
0
 10
1245.9980186826969657
 20
188.4576144021440882
 30
0.0
 40
0.1218510369246828
 50
210.4049795720472957
 51
228.8721992983518021
  0
ARC
  5
D274
  8
0
 10
1245.8184470063010849
 20
188.3301087214013023
 30
0.0
 40
0.1056477756734808
 50
19.7626357776331396
 51
40.7889582911472672
  0
ARC
  5
D275
  8
0
 10
1239.9902597302680078
 20
184.6001221805952071
 30
0.0
 40
6.9107224510418837
 50
23.8269420665089591
 51
31.2345108242772795
  0
ARC
  5
D276
  8
0
 10
1239.8887642123809201
 20
184.5281698100835968
 30
0.0
 40
7.0502176878781757
 50
24.0249047486880016
 51
31.2806737332978884
  0
ARC
  5
D277
  8
0
 10
1245.7246375138129224
 20
188.0737407669485037
 30
0.0
 40
0.2217119508565068
 50
31.2806737332978884
 51
43.8840299800647884
  0
ARC
  5
D278
  8
0
 10
1245.8821941591979794
 20
188.2252763529714912
 30
0.0
 40
0.0031092739831874
 50
43.8840299800946028
 51
166.6669899884115864
  0
ARC
  5
D279
  8
0
 10
1246.0378785653228988
 20
188.2753914539771074
 30
0.0
 40
0.1662197136585179
 50
197.2886291956249067
 51
213.5106497890733124
  0
ARC
  5
D27A
  8
0
 10
1246.4494200277729306
 20
187.4512003930367996
 30
0.0
 40
0.1496934199062623
 50
203.3438304363008911
 51
218.4734340139326889
  0
ARC
  5
D27B
  8
0
 10
1246.3358190897220084
 20
187.3609292383102911
 30
0.0
 40
0.004593268379263
 50
218.523665636501903
 51
3.4802601674544169
  0
ARC
  5
D27C
  8
0
 10
1246.194875365426924
 20
187.334355147531511
 30
0.0
 40
0.1479852361342746
 50
10.4546242734226809
 51
25.7088949032955014
  0
ARC
  5
D27D
  8
0
 10
1240.0131045134980923
 20
184.61189903111989
 30
0.0
 40
6.9107224510418837
 50
23.8269420665089591
 51
31.2345108242772795
  0
ARC
  5
D27E
  8
0
 10
1239.9116089956110045
 20
184.5399466606081944
 30
0.0
 40
7.0502176878781757
 50
24.0249047486880016
 51
31.2806737332978884
  0
ARC
  5
D27F
  8
0
 10
1245.7474822970439163
 20
188.0855176174731014
 30
0.0
 40
0.2217119508565068
 50
31.2806737332978884
 51
43.8840299800647884
  0
ARC
  5
D280
  8
0
 10
1245.9050389424280638
 20
188.2370532034962025
 30
0.0
 40
0.0031092739831874
 50
43.8840299800946028
 51
166.6669899884115864
  0
ARC
  5
D281
  8
0
 10
1246.0607233485529832
 20
188.2871683045017903
 30
0.0
 40
0.1662197136585179
 50
197.2886291956249067
 51
213.5106497890733124
  0
ARC
  5
D282
  8
0
 10
1246.472264811003015
 20
187.4629772435615109
 30
0.0
 40
0.1496934199062623
 50
203.3438304363008911
 51
218.4734340139326889
  0
ARC
  5
D283
  8
0
 10
1246.3586638729530023
 20
187.3727060888350024
 30
0.0
 40
0.004593268379263
 50
218.523665636501903
 51
3.4802601674544169
  0
ARC
  5
D284
  8
0
 10
1246.2177201486570084
 20
187.3461319980561086
 30
0.0
 40
0.1479852361342746
 50
10.4546242734226809
 51
25.7088949032955014
  0
ARC
  5
D285
  8
0
 10
1239.8869100497749969
 20
184.487311804423598
 30
0.0
 40
7.106069531293949
 50
24.311080129386589
 51
31.5126395305552407
  0
ARC
  5
D286
  8
0
 10
1239.8138368390470987
 20
184.4333406942620002
 30
0.0
 40
7.2079972866406861
 50
24.4633444679086907
 51
31.5600680539797906
  0
ARC
  5
D287
  8
0
 10
1239.8110195966439733
 20
184.4219025350450067
 30
0.0
 40
7.2239577061516211
 50
24.5303829156242585
 51
31.6164110680369213
  0
ARC
  5
D288
  8
0
 10
1239.6504594977200213
 20
184.325489884068304
 30
0.0
 40
7.4206466955606167
 50
24.6897771205640986
 51
31.5885573861409306
  0
ARC
  5
D289
  8
0
 10
1239.778348043565984
 20
184.3861632845838017
 30
0.0
 40
7.2860606118528457
 50
24.6741181450069789
 51
31.7010970191427788
  0
ARC
  5
D28A
  8
0
 10
1239.6212098963630979
 20
184.2936878031854917
 30
0.0
 40
7.4757858229028944
 50
24.8127910355786199
 51
31.6618323459913888
  0
ARC
  5
D28B
  8
0
 10
1239.7196258658300394
 20
184.3428335409504086
 30
0.0
 40
7.3709068508117612
 50
24.7853852412929001
 51
31.7322695019272594
  0
ARC
  5
D28C
  8
0
 10
1239.6070247287339043
 20
184.2740539822708001
 30
0.0
 40
7.5083403407916371
 50
24.8995943228162808
 51
31.7198026790853902
  0
ARC
  5
D28D
  8
0
 10
1246.2548167594170536
 20
188.3663318983942929
 30
0.0
 40
0.3508981223986646
 50
199.9958840462431056
 51
208.0066127538871115
  0
ARC
  5
D28E
  8
0
 10
1245.7617931348729599
 20
188.0906582977789014
 30
0.0
 40
0.2256039141251616
 50
30.732872573812319
 51
43.6358499109525368
  0
ARC
  5
D28F
  8
0
 10
1246.4361420626460131
 20
188.5053890019619018
 30
0.0
 40
0.558545123030604
 50
207.2698772859943119
 51
212.0591007874157015
  0
ARC
  5
D290
  8
0
 10
1245.8376290794799388
 20
188.1290052137015891
 30
0.0
 40
0.1578793961331096
 50
31.7284342216759185
 51
49.732935341774791
  0
ARC
  5
D291
  8
0
 10
1246.0853728556201077
 20
188.2934674966917896
 30
0.0
 40
0.1335842798207425
 50
197.4028022572780969
 51
216.0256390194049061
  0
ARC
  5
D292
  8
0
 10
1245.8950267541858921
 20
188.1794511158919079
 30
0.0
 40
0.0971534246759848
 50
23.2253385447756315
 51
49.6700632154295789
  0
ARC
  5
D293
  8
0
 10
1246.2079249752080159
 20
188.3355945739218953
 30
0.0
 40
0.2479920033798708
 50
198.2610249025792086
 51
208.0669379976378082
  0
ARC
  5
D294
  8
0
 10
1245.7689574814360185
 20
188.1130864188110934
 30
0.0
 40
0.2497300803670647
 50
25.7757732317677011
 51
35.4385094075986018
  0
ARC
  5
D295
  8
0
 10
1246.6163131507639719
 20
187.5449724900149135
 30
0.0
 40
0.2858580218961199
 50
207.5370860262673887
 51
216.098197630574191
  0
ARC
  5
D296
  8
0
 10
1246.2198358732809993
 20
187.3567105867170994
 30
0.0
 40
0.166686854353616
 50
6.8367917615465768
 51
21.6663965486223695
  0
ARC
  5
D297
  8
0
 10
1247.4312202234889355
 20
188.0510878957879015
 30
0.0
 40
1.2230017417973971
 50
211.0044300953676952
 51
212.8940669466344957
  0
ARC
  5
D298
  8
0
 10
1246.2735652320939153
 20
187.3682258709281996
 30
0.0
 40
0.1320553903168393
 50
8.1255486240534758
 51
25.5258148322658407
  0
ARC
  5
D299
  8
0
 10
1246.7112923030379079
 20
187.5801633187197979
 30
0.0
 40
0.3473366745370904
 50
206.0226317944103869
 51
212.741398411420505
  0
ARC
  5
D29A
  8
0
 10
1246.2910964533659808
 20
187.3728676761031977
 30
0.0
 40
0.1295111451932626
 50
8.6325442449555645
 51
26.6391981090207111
  0
ARC
  5
D29B
  8
0
 10
1246.5239443340049093
 20
187.4799526483492969
 30
0.0
 40
0.1218510369246828
 50
202.7309297721944006
 51
221.1981494985056997
  0
ARC
  5
D29C
  8
0
 10
1246.3289541712510982
 20
187.3775684600470015
 30
0.0
 40
0.1056477756734808
 50
12.0885859777853106
 51
33.1149084912986993
  0
LINE
  5
D29D
  8
0
 10
1246.9802826036550414
 20
186.0529252353364029
 30
0.0
 11
1246.8347211599379989
 21
186.0269522298233937
 31
0.0
  0
ARC
  5
D29E
  8
0
 10
1246.3740964327439542
 20
185.7497045140374041
 30
0.0
 40
0.677793832687032
 50
14.7239252376228897
 51
27.4429870826679014
  0
ARC
  5
D29F
  8
0
 10
1153.7559631515359797
 20
176.9055665414780094
 30
0.0
 40
93.9424273060275254
 50
4.2848494100590804
 51
4.4313863850337682
  0
ARC
  5
D2A0
  8
0
 10
1247.2803426097530064
 20
183.9196927069872913
 30
0.0
 40
0.0244821516167248
 50
201.3524676854808888
 51
255.3393124590996877
  0
ARC
  5
D2A1
  8
0
 10
1229.3821359549840508
 20
181.3188491524491894
 30
0.0
 40
18.0623421105993316
 50
8.2503739608466482
 51
14.9068761572921797
  0
ARC
  5
D2A2
  8
0
 10
1246.9352875101319569
 20
185.9991876624594056
 30
0.0
 40
0.1043286249896772
 50
158.4161682444365908
 51
198.9170686372112016
  0
LINE
  5
D2A3
  8
0
 10
1246.8382743739400667
 20
186.0375662163446862
 30
0.0
 11
1246.9756180325689456
 21
186.0620764791243005
 31
0.0
  0
LINE
  5
D2A4
  8
0
 10
1247.2741463188890521
 20
183.8960076541625028
 30
0.0
 11
1247.4358143381700756
 21
183.9244788360032885
 31
0.0
  0
LINE
  5
D2A5
  8
0
 10
1247.4350747282580869
 20
183.9343432731961059
 30
0.0
 11
1247.2617575957419831
 21
183.9037561765622115
 31
0.0
  0
ARC
  5
D2A6
  8
0
 10
1247.259373154747891
 20
184.2715314766657002
 30
0.0
 40
0.0283904136561113
 50
290.1168962021599782
 51
8.7443984854821561
  0
ARC
  5
D2A7
  8
0
 10
1246.8001440289510811
 20
184.299920162204387
 30
0.0
 40
0.4878837823317566
 50
357.1718312679067253
 51
24.3741536730357993
  0
ARC
  5
D2A8
  8
0
 10
1247.2286778797649731
 20
184.4897056228712131
 30
0.0
 40
0.0196303318586165
 50
36.0816576777424274
 51
95.7152581821140274
  0
ARC
  5
D2A9
  8
0
 10
1247.5262108462559354
 20
184.4216628339013084
 30
0.0
 40
0.3120295599133628
 50
163.7001472234493917
 51
214.5135493589631892
  0
ARC
  5
D2AA
  8
0
 10
1247.2400715029430103
 20
184.4870029705921866
 30
0.0
 40
0.0124892511679984
 50
61.5900075777479401
 51
89.9832147385748016
  0
ARC
  5
D2AB
  8
0
 10
1247.5700341839010434
 20
184.4283852651471989
 30
0.0
 40
0.3375339323511613
 50
167.8386099328695025
 51
210.2737629000781112
  0
ARC
  5
D2AC
  8
0
 10
1247.2232254974060197
 20
184.2933492266546978
 30
0.0
 40
0.0655172148855436
 50
327.5794828652699948
 51
349.6884254402290821
  0
ARC
  5
D2AD
  8
0
 10
1247.3437809007070882
 20
184.2864739062885917
 30
0.0
 40
0.0283904136561113
 50
290.1168962021599782
 51
8.7443984854821561
  0
ARC
  5
D2AE
  8
0
 10
1246.8845517749100509
 20
184.3148625918271932
 30
0.0
 40
0.4878837823317566
 50
357.1718312679067253
 51
24.3741536730357993
  0
ARC
  5
D2AF
  8
0
 10
1247.3130856257239429
 20
184.5046480524941046
 30
0.0
 40
0.0196303318586165
 50
36.0816576777424274
 51
95.7152581821140274
  0
ARC
  5
D2B0
  8
0
 10
1247.6106185922149052
 20
184.4366052635240862
 30
0.0
 40
0.3120295599133628
 50
163.7001472234493917
 51
214.5135493589631892
  0
ARC
  5
D2B1
  8
0
 10
1247.3244792489010706
 20
184.5019454002151065
 30
0.0
 40
0.0124892511679984
 50
61.5900075777479401
 51
89.9832147385748016
  0
ARC
  5
D2B2
  8
0
 10
1247.6544419298600133
 20
184.4433276947700904
 30
0.0
 40
0.3375339323511613
 50
167.8386099328695025
 51
210.2737629000781112
  0
ARC
  5
D2B3
  8
0
 10
1247.3076332433649895
 20
184.3082916562775893
 30
0.0
 40
0.0655172148855436
 50
327.5794828652699948
 51
349.6884254402290821
  0
ARC
  5
D2B4
  8
0
 10
1247.1504328588089265
 20
184.8724216351920973
 30
0.0
 40
0.0283904136561113
 50
290.1168962021599782
 51
8.7443984854821561
  0
ARC
  5
D2B5
  8
0
 10
1246.6912037330118892
 20
184.9008103207308125
 30
0.0
 40
0.4878837823317566
 50
357.1718312679067253
 51
24.3741536730357993
  0
ARC
  5
D2B6
  8
0
 10
1247.1197375838269181
 20
185.0905957813976102
 30
0.0
 40
0.0196303318586165
 50
36.0816576777424274
 51
95.7152581821140274
  0
ARC
  5
D2B7
  8
0
 10
1247.4172705503169709
 20
185.0225529924275918
 30
0.0
 40
0.3120295599133628
 50
163.7001472234493917
 51
214.5135493589631892
  0
ARC
  5
D2B8
  8
0
 10
1247.1311312070040458
 20
185.087893129118612
 30
0.0
 40
0.0124892511679984
 50
61.5900075777479401
 51
89.9832147385748016
  0
ARC
  5
D2B9
  8
0
 10
1247.461093887962079
 20
185.0292754236735959
 30
0.0
 40
0.3375339323511613
 50
167.8386099328695025
 51
210.2737629000781112
  0
ARC
  5
D2BA
  8
0
 10
1247.1142852014670552
 20
184.8942393851810948
 30
0.0
 40
0.0655172148855436
 50
327.5794828652699948
 51
349.6884254402290821
  0
ARC
  5
D2BB
  8
0
 10
1247.2269928856931074
 20
184.8863995500288979
 30
0.0
 40
0.0283904136561113
 50
290.1168962021599782
 51
8.7443984854821561
  0
ARC
  5
D2BC
  8
0
 10
1246.76776375989607
 20
184.9147882355676131
 30
0.0
 40
0.4878837823317566
 50
357.1718312679067253
 51
24.3741536730357993
  0
ARC
  5
D2BD
  8
0
 10
1247.196297610711099
 20
185.1045736962344108
 30
0.0
 40
0.0196303318586165
 50
36.0816576777424274
 51
95.7152581821140274
  0
ARC
  5
D2BE
  8
0
 10
1247.4938305772009244
 20
185.0365309072645061
 30
0.0
 40
0.3120295599133628
 50
163.7001472234493917
 51
214.5135493589631892
  0
ARC
  5
D2BF
  8
0
 10
1247.2076912338870898
 20
185.1018710439554127
 30
0.0
 40
0.0124892511679984
 50
61.5900075777479401
 51
89.9832147385748016
  0
ARC
  5
D2C0
  8
0
 10
1247.5376539148460324
 20
185.0432533385103966
 30
0.0
 40
0.3375339323511613
 50
167.8386099328695025
 51
210.2737629000781112
  0
ARC
  5
D2C1
  8
0
 10
1247.1908452283500992
 20
184.9082173000178955
 30
0.0
 40
0.0655172148855436
 50
327.5794828652699948
 51
349.6884254402290821
  0
LINE
  5
D2C2
  8
0
 10
1239.9829180105000432
 20
191.7734029564269918
 30
0.0
 11
1240.5164692550529253
 21
191.7734029564269918
 31
0.0
  0
LINE
  5
D2C3
  8
0
 10
1240.5164692550529253
 20
191.7734029564269918
 30
0.0
 11
1240.5164692550529253
 21
191.6121655431674924
 31
0.0
  0
LINE
  5
D2C4
  8
0
 10
1239.9829180105000432
 20
191.6628398370370121
 30
0.0
 11
1239.9829180105000432
 21
191.7734029564269918
 31
0.0
  0
LINE
  5
D2C5
  8
0
 10
1236.4396258520689571
 20
191.4709394729823089
 30
0.0
 11
1236.9731589570189954
 21
191.4709394729823089
 31
0.0
  0
LINE
  5
D2C6
  8
0
 10
1236.9731589570189954
 20
191.4709394729823089
 30
0.0
 11
1236.9731589570189954
 21
191.4238443684020012
 31
0.0
  0
LINE
  5
D2C7
  8
0
 10
1236.4396258520689571
 20
191.2775211822772121
 30
0.0
 11
1236.4396258520689571
 21
191.4709394729823089
 31
0.0
  0
ENDSEC
  0
EOF
