  0
SECTION
  2
HEADER
  9
$ACADVER
  1
AC1009
  9
$INSBASE
 10
2288.9349196037860565
 20
407.0519223101616149
 30
0.0
  9
$EXTMIN
 10
2270.2966859349421611
 20
407.032444996801587
 30
-0.0000000000000058
  9
$EXTMAX
 10
2307.4436635828728868
 20
446.8506875116498804
 30
0.0000000000000104
  9
$LIMMIN
 10
0.0
 20
0.0
  9
$LIMMAX
 10
11.6929133858000007
 20
8.2677165353999982
  9
$ORTHOMODE
 70
     1
  9
$REGENMODE
 70
     1
  9
$FILLMODE
 70
     1
  9
$QTEXTMODE
 70
     0
  9
$MIRRTEXT
 70
     0
  9
$DRAGMODE
 70
     2
  9
$LTSCALE
 40
0.6431102362
  9
$OSMODE
 70
  4095
  9
$ATTMODE
 70
     1
  9
$TEXTSIZE
 40
0.2
  9
$TRACEWID
 40
0.05
  9
$TEXTSTYLE
  7
STANDARD
  9
$CLAYER
  8
0
  9
$CELTYPE
  6
BYLAYER
  9
$CECOLOR
 62
   256
  9
$DIMSCALE
 40
1.0
  9
$DIMASZ
 40
0.1875
  9
$DIMEXO
 40
0.0625
  9
$DIMDLI
 40
0.4443307087
  9
$DIMRND
 40
0.0
  9
$DIMDLE
 40
0.0
  9
$DIMEXE
 40
0.125
  9
$DIMTP
 40
0.01
  9
$DIMTM
 40
0.01
  9
$DIMTXT
 40
1.0
  9
$DIMCEN
 40
0.1052362205
  9
$DIMTSZ
 40
0.0
  9
$DIMTOL
 70
     1
  9
$DIMLIM
 70
     0
  9
$DIMTIH
 70
     0
  9
$DIMTOH
 70
     1
  9
$DIMSE1
 70
     0
  9
$DIMSE2
 70
     0
  9
$DIMTAD
 70
     0
  9
$DIMZIN
 70
     0
  9
$DIMBLK
  1

  9
$DIMASO
 70
     1
  9
$DIMSHO
 70
     1
  9
$DIMPOST
  1
\X
  9
$DIMAPOST
  1

  9
$DIMALT
 70
     1
  9
$DIMALTD
 70
     2
  9
$DIMALTF
 40
25.3999999999999986
  9
$DIMLFAC
 40
1.0
  9
$DIMTOFL
 70
     0
  9
$DIMTVP
 40
0.0
  9
$DIMTIX
 70
     0
  9
$DIMSOXD
 70
     0
  9
$DIMSAH
 70
     0
  9
$DIMBLK1
  1

  9
$DIMBLK2
  1

  9
$DIMSTYLE
  2
STANDARD
  9
$DIMCLRD
 70
     0
  9
$DIMCLRE
 70
     0
  9
$DIMCLRT
 70
     0
  9
$DIMTFAC
 40
1.0
  9
$DIMGAP
 40
0.09
  9
$LUNITS
 70
     2
  9
$LUPREC
 70
     4
  9
$SKETCHINC
 40
0.1
  9
$FILLETRAD
 40
0.0
  9
$AUNITS
 70
     0
  9
$AUPREC
 70
     0
  9
$MENU
  1
.
  9
$ELEVATION
 40
0.0
  9
$PELEVATION
 40
0.0
  9
$THICKNESS
 40
0.0
  9
$LIMCHECK
 70
     0
  9
$BLIPMODE
 70
     0
  9
$CHAMFERA
 40
0.0
  9
$CHAMFERB
 40
0.0
  9
$SKPOLY
 70
     0
  9
$TDCREATE
 40
2458172.5207638889551163
  9
$TDUPDATE
 40
2460944.0319212968461215
  9
$TDINDWG
 40
0.5446071991
  9
$TDUSRTIMER
 40
0.5446071991
  9
$USRTIMER
 70
     1
  9
$ANGBASE
 50
0.0
  9
$ANGDIR
 70
     0
  9
$PDMODE
 70
     0
  9
$PDSIZE
 40
0.3125
  9
$PLINEWID
 40
0.0
  9
$COORDS
 70
     1
  9
$SPLFRAME
 70
     0
  9
$SPLINETYPE
 70
     6
  9
$SPLINESEGS
 70
     8
  9
$ATTDIA
 70
     1
  9
$ATTREQ
 70
     1
  9
$HANDLING
 70
     1
  9
$HANDSEED
  5
1354E
  9
$SURFTAB1
 70
     6
  9
$SURFTAB2
 70
     6
  9
$SURFTYPE
 70
     6
  9
$SURFU
 70
     6
  9
$SURFV
 70
     6
  9
$UCSNAME
  2

  9
$UCSORG
 10
0.0
 20
0.0
 30
0.0
  9
$UCSXDIR
 10
1.0
 20
0.0
 30
0.0
  9
$UCSYDIR
 10
0.0
 20
1.0
 30
0.0
  9
$PUCSNAME
  2

  9
$PUCSORG
 10
0.0
 20
0.0
 30
0.0
  9
$PUCSXDIR
 10
1.0
 20
0.0
 30
0.0
  9
$PUCSYDIR
 10
0.0
 20
1.0
 30
0.0
  9
$USERI1
 70
     0
  9
$USERI2
 70
     0
  9
$USERI3
 70
     0
  9
$USERI4
 70
     0
  9
$USERI5
 70
     0
  9
$USERR1
 40
0.0
  9
$USERR2
 40
0.0
  9
$USERR3
 40
0.0
  9
$USERR4
 40
0.0
  9
$USERR5
 40
0.0
  9
$WORLDVIEW
 70
     1
  9
$SHADEDGE
 70
     3
  9
$SHADEDIF
 70
    70
  9
$TILEMODE
 70
     1
  9
$MAXACTVP
 70
    64
  9
$PLIMCHECK
 70
     0
  9
$PEXTMIN
 10
1.0000000000000000E+20
 20
1.0000000000000000E+20
 30
1.0000000000000000E+20
  9
$PEXTMAX
 10
-1.0000000000000000E+20
 20
-1.0000000000000000E+20
 30
-1.0000000000000000E+20
  9
$PLIMMIN
 10
0.0
 20
0.0
  9
$PLIMMAX
 10
12.0
 20
9.0
  9
$UNITMODE
 70
     0
  9
$VISRETAIN
 70
     1
  9
$PLINEGEN
 70
     0
  9
$PSLTSCALE
 70
     1
  0
ENDSEC
  0
SECTION
  2
TABLES
  0
TABLE
  2
VPORT
 70
     1
  0
VPORT
  2
*ACTIVE
 70
     0
 10
0.0
 20
0.0
 11
1.0
 21
1.0
 12
1822.127973051077106
 22
337.8084191342960025
 13
0.0
 23
0.0
 14
1.0
 24
1.0
 15
0.0
 25
0.0
 16
0.0
 26
0.0
 36
24.1179433675886514
 17
466.74220170783002
 27
89.133147119929788
 37
0.0
 40
40.1143425018513327
 41
2.204387990762124
 42
50.0
 43
0.0
 44
0.0
 50
0.0
 51
0.0
 71
     0
 72
   100
 73
     1
 74
     1
 75
     0
 76
     0
 77
     0
 78
     0
  0
ENDTAB
  0
TABLE
  2
LTYPE
 70
     2
  0
LTYPE
  2
CONTINUOUS
 70
     0
  3
Solid line
 72
    65
 73
     0
 40
0.0
  0
LTYPE
  2
PHANTOM2
 70
     0
  3
___ _ _ ___ _ _ ___ _ _ ___ _ _
 72
    65
 73
     6
 40
1.25
 49
0.625
 49
-0.125
 49
0.125
 49
-0.125
 49
0.125
 49
-0.125
  0
ENDTAB
  0
TABLE
  2
LAYER
 70
     2
  0
LAYER
  2
0
 70
     0
 62
   255
  6
CONTINUOUS
  0
LAYER
  2
DEFPOINTS
 70
     0
 62
     7
  6
CONTINUOUS
  0
ENDTAB
  0
TABLE
  2
STYLE
 70
     1
  0
STYLE
  2
STANDARD
 70
     0
 40
0.0
 41
0.8
 50
0.0
 71
     0
 42
0.2
  3
txt
  4

  0
ENDTAB
  0
TABLE
  2
VIEW
 70
     0
  0
ENDTAB
  0
TABLE
  2
UCS
 70
     0
  0
ENDTAB
  0
TABLE
  2
APPID
 70
    11
  0
APPID
  2
ACAD
 70
     0
  0
APPID
  2
ACAD_MLEADERVER
 70
     0
  0
APPID
  2
ACAD_EXEMPT_FROM_CAD_STANDARDS
 70
     0
  0
APPID
  2
ACAD_DSTYLE_DIMJAG
 70
     0
  0
APPID
  2
ACAD_DSTYLE_DIMTALN
 70
     0
  0
APPID
  2
ACAD_NAV_VCDISPLAY
 70
     0
  0
APPID
  2
ACAECLAYERSTANDARD
 70
     0
  0
APPID
  2
ACCMTRANSPARENCY
 70
     0
  0
APPID
  2
DCO15
 70
     0
  0
APPID
  2
ACDBATTR
 70
     0
  0
APPID
  2
ACADANNOTATIVE
 70
     0
  0
ENDTAB
  0
TABLE
  2
DIMSTYLE
 70
     1
  0
DIMSTYLE
  2
STANDARD
 70
     0
  3

  4

  5

  6

  7

 40
1.0
 41
0.1875
 42
0.0625
 43
0.38
 44
0.125
 45
0.0
 46
0.0
 47
0.01
 48
0.01
140
0.15625
141
0.09
142
0.0
143
25.3999999999999986
144
1.0
145
0.0
146
1.0
147
0.09
 71
     1
 72
     0
 73
     1
 74
     1
 75
     0
 76
     0
 77
     0
 78
     4
170
     0
171
     2
172
     0
173
     0
174
     0
175
     0
176
     0
177
     0
178
     0
  0
ENDTAB
  0
ENDSEC
  0
SECTION
  2
BLOCKS
  0
BLOCK
  8
0
  2
$MODEL_SPACE
 70
     0
 10
0.0
 20
0.0
 30
0.0
  3
$MODEL_SPACE
  1

  0
ENDBLK
  5
21
  8
0
  0
BLOCK
 67
     1
  8
0
  2
$PAPER_SPACE
 70
     0
 10
0.0
 20
0.0
 30
0.0
  3
$PAPER_SPACE
  1

  0
ENDBLK
  5
1D
 67
     1
  8
0
  0
BLOCK
  8
0
  2
_FILLED
 70
     0
 10
0.0
 20
0.0
 30
0.0
  3
_FILLED
  1

  0
SOLID
  5
DBD5
  8
0
  6
BYBLOCK
 62
     0
 10
0.0
 20
0.0
 30
0.0
 11
-1.0
 21
0.1666666667
 31
0.0
 12
-1.0
 22
-0.1666666667
 32
0.0
 13
-1.0
 23
-0.1666666667
 33
0.0
  0
ENDBLK
  5
DBD6
  8
0
  6
BYBLOCK
 62
     0
  0
BLOCK
  8
0
  2
A$CF46DDDAC
 70
     0
 10
0.0
 20
0.0
 30
0.0
  3
A$CF46DDDAC
  1

  0
LINE
  5
10043
  8
0
 10
280.2472970062942181
 20
161.8421897169214958
 30
0.0
 11
280.2072970062941977
 21
161.8021897169215038
 31
0.0
  0
LINE
  5
10044
  8
0
 10
280.2072970062941977
 20
161.8021897169215038
 30
0.0
 11
305.1285568487941759
 21
161.8021897169215038
 31
0.0
  0
LINE
  5
10045
  8
0
 10
305.1285568487941759
 20
161.8021897169215038
 30
0.0
 11
305.0885568487942123
 21
161.8421897169214958
 31
0.0
  0
LINE
  5
10046
  8
0
 10
305.0885568487942123
 20
161.8421897169214958
 30
0.0
 11
280.2472970062942181
 21
161.8421897169214958
 31
0.0
  0
LINE
  5
10047
  8
0
 10
280.2069269274941803
 20
157.8264416854215142
 30
0.0
 11
280.167926927494193
 21
157.7874416854214985
 31
0.0
  0
LINE
  5
10048
  8
0
 10
280.167926927494193
 20
157.7874416854214985
 30
0.0
 11
280.167926927494193
 21
156.6843393232215078
 31
0.0
  0
LINE
  5
10049
  8
0
 10
280.167926927494193
 20
156.6843393232215078
 30
0.0
 11
280.2069269274941803
 21
156.6453393232214921
 31
0.0
  0
LINE
  5
1004A
  8
0
 10
280.2069269274941803
 20
156.6453393232214921
 30
0.0
 11
305.1289269274942058
 21
156.6453393232214921
 31
0.0
  0
LINE
  5
1004B
  8
0
 10
305.1289269274942058
 20
156.6453393232214921
 30
0.0
 11
305.167926927494193
 21
156.6843393232215078
 31
0.0
  0
LINE
  5
1004C
  8
0
 10
305.167926927494193
 20
156.6843393232215078
 30
0.0
 11
305.167926927494193
 21
157.7874416854214985
 31
0.0
  0
LINE
  5
1004D
  8
0
 10
305.167926927494193
 20
157.7874416854214985
 30
0.0
 11
305.1289269274942058
 21
157.8264416854215142
 31
0.0
  0
LINE
  5
1004E
  8
0
 10
305.1289269274942058
 20
157.8264416854215142
 30
0.0
 11
280.2069269274941803
 21
157.8264416854215142
 31
0.0
  0
LINE
  5
1004F
  8
0
 10
280.2072970062941977
 20
161.8021897169215038
 30
0.0
 11
280.2072970062941977
 21
157.8264416854215142
 31
0.0
  0
LINE
  5
10050
  8
0
 10
305.1285568487941759
 20
161.8021897169215038
 30
0.0
 11
305.1285568487941759
 21
157.8264416854215142
 31
0.0
  0
LINE
  5
10051
  8
0
 10
280.206926820446995
 20
157.7874416854214985
 30
0.0
 11
305.1289268204470204
 21
157.7874416854214985
 31
0.0
  0
LINE
  5
10052
  8
0
 10
305.1289268204470204
 20
157.7874416854214985
 30
0.0
 11
305.1289268204470204
 21
156.6843393232215078
 31
0.0
  0
LINE
  5
10053
  8
0
 10
305.1289268204470204
 20
156.6843393232215078
 30
0.0
 11
280.206926820446995
 21
156.6843393232215078
 31
0.0
  0
LINE
  5
10054
  8
0
 10
280.206926820446995
 20
156.6843393232215078
 30
0.0
 11
280.206926820446995
 21
157.7874416854214985
 31
0.0
  0
LINE
  5
10055
  8
0
 10
305.1289268204470204
 20
156.6843393232215078
 30
0.0
 11
305.1484268739706067
 21
156.6648392696978931
 31
0.0
  0
LINE
  5
10056
  8
0
 10
305.1289268204470204
 20
157.7874416854214985
 30
0.0
 11
305.1484269274941994
 21
157.8069416854214921
 31
0.0
  0
LINE
  5
10057
  8
0
 10
280.206926820446995
 20
157.7874416854214985
 30
0.0
 11
280.187426873970594
 21
157.8069416318978995
 31
0.0
  0
LINE
  5
10058
  8
0
 10
280.206926820446995
 20
156.6843393232215078
 30
0.0
 11
280.187426873970594
 21
156.6648393767451068
 31
0.0
  0
LINE
  5
10059
  8
0
 10
280.6600528047470107
 20
156.6453393232214921
 30
0.0
 11
280.6600528047470107
 21
122.2752603468214971
 31
0.0
  0
LINE
  5
1005A
  8
0
 10
282.6679268204470077
 20
156.6453393232214921
 30
0.0
 11
282.6679268204470077
 21
122.2752603468214971
 31
0.0
  0
LINE
  5
1005B
  8
0
 10
280.6600528047470107
 20
122.2752603468214971
 30
0.0
 11
282.6679268204470077
 21
122.2752603468214971
 31
0.0
  0
LINE
  5
1005C
  8
0
 10
280.7781628047470122
 20
122.1571503468214956
 30
0.0
 11
282.5498168204470062
 21
122.1571503468214956
 31
0.0
  0
LINE
  5
1005D
  8
0
 10
280.6600528047470107
 20
122.2752603468214971
 30
0.0
 11
280.7781628047470122
 21
122.1571503468214956
 31
0.0
  0
LINE
  5
1005E
  8
0
 10
282.5498168204470062
 20
122.1571503468214956
 30
0.0
 11
282.6679268204470077
 21
122.2752603468214971
 31
0.0
  0
LINE
  5
1005F
  8
0
 10
281.2703087241080766
 20
122.0768353842132967
 30
0.0
 11
282.0576709144469874
 21
122.0768353842132967
 31
0.0
  0
LINE
  5
10060
  8
0
 10
281.2703087241080766
 20
122.0768353842132967
 30
0.0
 11
281.2703087241080766
 21
122.1571503468214956
 31
0.0
  0
LINE
  5
10061
  8
0
 10
281.2706422033081139
 20
122.1571503468214956
 30
0.0
 11
281.2706422033081139
 21
122.0768353842132967
 31
0.0
  0
LINE
  5
10062
  8
0
 10
281.2710542974082273
 20
122.0768353842132967
 30
0.0
 11
281.2710542974082273
 21
122.1571503468214956
 31
0.0
  0
LINE
  5
10063
  8
0
 10
281.2720538210082282
 20
122.1571503468214956
 30
0.0
 11
281.2720538210082282
 21
122.0768353842132967
 31
0.0
  0
LINE
  5
10064
  8
0
 10
281.2728768797080079
 20
122.0768353842132967
 30
0.0
 11
281.2728768797080079
 21
122.1571503468214956
 31
0.0
  0
LINE
  5
10065
  8
0
 10
281.2745397080082057
 20
122.1571503468214956
 30
0.0
 11
281.2745397080082057
 21
122.0768353842132967
 31
0.0
  0
LINE
  5
10066
  8
0
 10
281.275771475408078
 20
122.0768353842132967
 30
0.0
 11
281.275771475408078
 21
122.1571503468214956
 31
0.0
  0
LINE
  5
10067
  8
0
 10
281.2780930507079802
 20
122.1571503468214956
 30
0.0
 11
281.2780930507079802
 21
122.0768353842132967
 31
0.0
  0
LINE
  5
10068
  8
0
 10
281.2797301507081897
 20
122.0768353842132967
 30
0.0
 11
281.2797301507081897
 21
122.1571503468214956
 31
0.0
  0
LINE
  5
10069
  8
0
 10
281.2827041097082201
 20
122.1571503468214956
 30
0.0
 11
281.2827041097082201
 21
122.0768353842132967
 31
0.0
  0
LINE
  5
1006A
  8
0
 10
281.2847099525080807
 20
122.1571503468214956
 30
0.0
 11
281.2847099525080807
 21
122.0768353842132967
 31
0.0
  0
LINE
  5
1006B
  8
0
 10
281.2883602463081729
 20
122.1571503468214956
 30
0.0
 11
281.2883602463081729
 21
122.0768353842132967
 31
0.0
  0
LINE
  5
1006C
  8
0
 10
281.2907934510080281
 20
122.0768353842132967
 30
0.0
 11
281.2907934510080281
 21
122.1571503468214956
 31
0.0
  0
LINE
  5
1006D
  8
0
 10
281.2950459575080799
 20
122.1571503468214956
 30
0.0
 11
281.2950459575080799
 21
122.0768353842132967
 31
0.0
  0
LINE
  5
1006E
  8
0
 10
281.2978677524080808
 20
122.0768353842132967
 30
0.0
 11
281.2978677524080808
 21
122.1571503468214956
 31
0.0
  0
LINE
  5
1006F
  8
0
 10
281.3027429182080823
 20
122.1571503468214956
 30
0.0
 11
281.3027429182080823
 21
122.0768353842132967
 31
0.0
  0
LINE
  5
10070
  8
0
 10
281.3059455689081005
 20
122.0768353842132967
 30
0.0
 11
281.3059455689081005
 21
122.1571503468214956
 31
0.0
  0
LINE
  5
10071
  8
0
 10
281.3114300315082232
 20
122.1571503468214956
 30
0.0
 11
281.3114300315082232
 21
122.0768353842132967
 31
0.0
  0
LINE
  5
10072
  8
0
 10
281.3150047599079926
 20
122.0768353842132967
 30
0.0
 11
281.3150047599079926
 21
122.1571503468214956
 31
0.0
  0
LINE
  5
10073
  8
0
 10
281.3210834868081065
 20
122.1571503468214956
 30
0.0
 11
281.3210834868081065
 21
122.0768353842132967
 31
0.0
  0
LINE
  5
10074
  8
0
 10
281.3244759874082206
 20
122.0768353842132967
 30
0.0
 11
281.3244759874082206
 21
122.1571503468214956
 31
0.0
  0
LINE
  5
10075
  8
0
 10
281.3250204947079851
 20
122.0768353842132967
 30
0.0
 11
281.3250204947079851
 21
122.1571503468214956
 31
0.0
  0
LINE
  5
10076
  8
0
 10
281.3316768245081221
 20
122.1571503468214956
 30
0.0
 11
281.3316768245081221
 21
122.0768353842132967
 31
0.0
  0
LINE
  5
10077
  8
0
 10
281.3349621674079799
 20
122.0768353842132967
 30
0.0
 11
281.3349621674079799
 21
122.1571503468214956
 31
0.0
  0
LINE
  5
10078
  8
0
 10
281.3359653208080999
 20
122.0768353842132967
 30
0.0
 11
281.3359653208080999
 21
122.1571503468214956
 31
0.0
  0
LINE
  5
10079
  8
0
 10
281.3431810090082195
 20
122.1571503468214956
 30
0.0
 11
281.3431810090082195
 21
122.0768353842132967
 31
0.0
  0
LINE
  5
1007A
  8
0
 10
281.3463501893081116
 20
122.0768353842132967
 30
0.0
 11
281.3463501893081116
 21
122.1571503468214956
 31
0.0
  0
LINE
  5
1007B
  8
0
 10
281.3478092393081056
 20
122.0768353842132967
 30
0.0
 11
281.3478092393081056
 21
122.1571503468214956
 31
0.0
  0
LINE
  5
1007C
  8
0
 10
281.3555645082079764
 20
122.1571503468214956
 30
0.0
 11
281.3555645082079764
 21
122.0768353842132967
 31
0.0
  0
LINE
  5
1007D
  8
0
 10
281.3586088394080775
 20
122.0768353842132967
 30
0.0
 11
281.3586088394080775
 21
122.1571503468214956
 31
0.0
  0
LINE
  5
1007E
  8
0
 10
281.3605197868081973
 20
122.0768353842132967
 30
0.0
 11
281.3605197868081973
 21
122.1571503468214956
 31
0.0
  0
LINE
  5
1007F
  8
0
 10
281.3687933797082223
 20
122.1571503468214956
 30
0.0
 11
281.3687933797082223
 21
122.0768353842132967
 31
0.0
  0
LINE
  5
10080
  8
0
 10
281.3717045176081228
 20
122.0768353842132967
 30
0.0
 11
281.3717045176081228
 21
122.1571503468214956
 31
0.0
  0
LINE
  5
10081
  8
0
 10
281.3740621247080753
 20
122.0768353842132967
 30
0.0
 11
281.3740621247080753
 21
122.1571503468214956
 31
0.0
  0
LINE
  5
10082
  8
0
 10
281.382831364208073
 20
122.1571503468214956
 30
0.0
 11
281.382831364208073
 21
122.0768353842132967
 31
0.0
  0
LINE
  5
10083
  8
0
 10
281.385601329408189
 20
122.0768353842132967
 30
0.0
 11
281.385601329408189
 21
122.1571503468214956
 31
0.0
  0
LINE
  5
10084
  8
0
 10
281.3883991341079991
 20
122.0768353842132967
 30
0.0
 11
281.3883991341079991
 21
122.1571503468214956
 31
0.0
  0
LINE
  5
10085
  8
0
 10
281.3976399845082028
 20
122.1571503468214956
 30
0.0
 11
281.3976399845082028
 21
122.0768353842132967
 31
0.0
  0
LINE
  5
10086
  8
0
 10
281.4002611848080733
 20
122.0768353842132967
 30
0.0
 11
281.4002611848080733
 21
122.1571503468214956
 31
0.0
  0
LINE
  5
10087
  8
0
 10
281.4034915186081776
 20
122.0768353842132967
 30
0.0
 11
281.4034915186081776
 21
122.1571503468214956
 31
0.0
  0
LINE
  5
10088
  8
0
 10
281.4131786512082272
 20
122.1571503468214956
 30
0.0
 11
281.4131786512082272
 21
122.0768353842132967
 31
0.0
  0
LINE
  5
10089
  8
0
 10
281.4156439020081848
 20
122.0768353842132967
 30
0.0
 11
281.4156439020081848
 21
122.1571503468214956
 31
0.0
  0
LINE
  5
1008A
  8
0
 10
281.4192979107079964
 20
122.0768353842132967
 30
0.0
 11
281.4192979107079964
 21
122.1571503468214956
 31
0.0
  0
LINE
  5
1008B
  8
0
 10
281.4294047739080042
 20
122.1571503468214956
 30
0.0
 11
281.4294047739080042
 21
122.0768353842132967
 31
0.0
  0
LINE
  5
1008C
  8
0
 10
281.4317073182082254
 20
122.0768353842132967
 30
0.0
 11
281.4317073182082254
 21
122.1571503468214956
 31
0.0
  0
LINE
  5
1008D
  8
0
 10
281.4357749864082052
 20
122.0768353842132967
 30
0.0
 11
281.4357749864082052
 21
122.1571503468214956
 31
0.0
  0
LINE
  5
1008E
  8
0
 10
281.4462738779080837
 20
122.1571503468214956
 30
0.0
 11
281.4462738779080837
 21
122.0768353842132967
 31
0.0
  0
LINE
  5
1008F
  8
0
 10
281.4484074045080888
 20
122.0768353842132967
 30
0.0
 11
281.4484074045080888
 21
122.1571503468214956
 31
0.0
  0
LINE
  5
10090
  8
0
 10
281.4528775831080907
 20
122.0768353842132967
 30
0.0
 11
281.4528775831080907
 21
122.1571503468214956
 31
0.0
  0
LINE
  5
10091
  8
0
 10
281.4637397262080754
 20
122.1571503468214956
 30
0.0
 11
281.4637397262080754
 21
122.0768353842132967
 31
0.0
  0
LINE
  5
10092
  8
0
 10
281.4656983873080094
 20
122.0768353842132967
 30
0.0
 11
281.4656983873080094
 21
122.1571503468214956
 31
0.0
  0
LINE
  5
10093
  8
0
 10
281.4704546259080757
 20
122.1571503468214956
 30
0.0
 11
281.4704546259080757
 21
122.0768353842132967
 31
0.0
  0
LINE
  5
10094
  8
0
 10
281.481754446108198
 20
122.1571503468214956
 30
0.0
 11
281.481754446108198
 21
122.0768353842132967
 31
0.0
  0
LINE
  5
10095
  8
0
 10
281.4835328732081052
 20
122.0768353842132967
 30
0.0
 11
281.4835328732081052
 21
122.1571503468214956
 31
0.0
  0
LINE
  5
10096
  8
0
 10
281.4887702455081921
 20
122.0768353842132967
 30
0.0
 11
281.4887702455081921
 21
122.1571503468214956
 31
0.0
  0
LINE
  5
10097
  8
0
 10
281.5002686605081976
 20
122.1571503468214956
 30
0.0
 11
281.5002686605081976
 21
122.0768353842132967
 31
0.0
  0
LINE
  5
10098
  8
0
 10
281.5018619790081971
 20
122.0768353842132967
 30
0.0
 11
281.5018619790081971
 21
122.1571503468214956
 31
0.0
  0
LINE
  5
10099
  8
0
 10
281.5074619318081091
 20
122.0768353842132967
 30
0.0
 11
281.5074619318081091
 21
122.1571503468214956
 31
0.0
  0
LINE
  5
1009A
  8
0
 10
281.5192316232082135
 20
122.1571503468214956
 30
0.0
 11
281.5192316232082135
 21
122.0768353842132967
 31
0.0
  0
LINE
  5
1009B
  8
0
 10
281.5206354660081161
 20
122.0768353842132967
 30
0.0
 11
281.5206354660081161
 21
122.1571503468214956
 31
0.0
  0
LINE
  5
1009C
  8
0
 10
281.5265826502081268
 20
122.0768353842132967
 30
0.0
 11
281.5265826502081268
 21
122.1571503468214956
 31
0.0
  0
LINE
  5
1009D
  8
0
 10
281.5385913581080217
 20
122.1571503468214956
 30
0.0
 11
281.5385913581080217
 21
122.0768353842132967
 31
0.0
  0
LINE
  5
1009E
  8
0
 10
281.5398018773079798
 20
122.0768353842132967
 30
0.0
 11
281.5398018773079798
 21
122.1571503468214956
 31
0.0
  0
LINE
  5
1009F
  8
0
 10
281.5460799921081048
 20
122.0768353842132967
 30
0.0
 11
281.5460799921081048
 21
122.1571503468214956
 31
0.0
  0
LINE
  5
100A0
  8
0
 10
281.5582948015079978
 20
122.1571503468214956
 30
0.0
 11
281.5582948015079978
 21
122.0768353842132967
 31
0.0
  0
LINE
  5
100A1
  8
0
 10
281.5593086791081987
 20
122.0768353842132967
 30
0.0
 11
281.5593086791081987
 21
122.1571503468214956
 31
0.0
  0
LINE
  5
100A2
  8
0
 10
281.5659005167080977
 20
122.0768353842132967
 30
0.0
 11
281.5659005167080977
 21
122.1571503468214956
 31
0.0
  0
LINE
  5
100A3
  8
0
 10
281.578287947608203
 20
122.1571503468214956
 30
0.0
 11
281.578287947608203
 21
122.0768353842132967
 31
0.0
  0
LINE
  5
100A4
  8
0
 10
281.5791024047081805
 20
122.0768353842132967
 30
0.0
 11
281.5791024047081805
 21
122.1571503468214956
 31
0.0
  0
LINE
  5
100A5
  8
0
 10
281.5859898972079804
 20
122.0768353842132967
 30
0.0
 11
281.5859898972079804
 21
122.1571503468214956
 31
0.0
  0
LINE
  5
100A6
  8
0
 10
281.5985159966080005
 20
122.1571503468214956
 30
0.0
 11
281.5985159966080005
 21
122.0768353842132967
 31
0.0
  0
LINE
  5
100A7
  8
0
 10
281.5991288008079891
 20
122.0768353842132967
 30
0.0
 11
281.5991288008079891
 21
122.1571503468214956
 31
0.0
  0
LINE
  5
100A8
  8
0
 10
281.6062930701082223
 20
122.0768353842132967
 30
0.0
 11
281.6062930701082223
 21
122.1571503468214956
 31
0.0
  0
LINE
  5
100A9
  8
0
 10
281.6189235048080945
 20
122.1571503468214956
 30
0.0
 11
281.6189235048080945
 21
122.0768353842132967
 31
0.0
  0
LINE
  5
100AA
  8
0
 10
281.6193329765080193
 20
122.0768353842132967
 30
0.0
 11
281.6193329765080193
 21
122.1571503468214956
 31
0.0
  0
LINE
  5
100AB
  8
0
 10
281.6267543859079865
 20
122.0768353842132967
 30
0.0
 11
281.6267543859079865
 21
122.1571503468214956
 31
0.0
  0
LINE
  5
100AC
  8
0
 10
281.639454536708115
 20
122.1571503468214956
 30
0.0
 11
281.639454536708115
 21
122.0768353842132967
 31
0.0
  0
LINE
  5
100AD
  8
0
 10
281.6473177614080896
 20
122.0768353842132967
 30
0.0
 11
281.6473177614080896
 21
122.1571503468214956
 31
0.0
  0
LINE
  5
100AE
  8
0
 10
281.6600528181081131
 20
122.1571503468214956
 30
0.0
 11
281.6600528181081131
 21
122.0768353842132967
 31
0.0
  0
LINE
  5
100AF
  8
0
 10
281.6679268338082238
 20
122.0768353842132967
 30
0.0
 11
281.6679268338082238
 21
122.1571503468214956
 31
0.0
  0
LINE
  5
100B0
  8
0
 10
281.6806618905080768
 20
122.1571503468214956
 30
0.0
 11
281.6806618905080768
 21
122.0768353842132967
 31
0.0
  0
LINE
  5
100B1
  8
0
 10
281.6885251152082219
 20
122.0768353842132967
 30
0.0
 11
281.6885251152082219
 21
122.1571503468214956
 31
0.0
  0
LINE
  5
100B2
  8
0
 10
281.7012252660081231
 20
122.1571503468214956
 30
0.0
 11
281.7012252660081231
 21
122.0768353842132967
 31
0.0
  0
LINE
  5
100B3
  8
0
 10
281.7086466754079765
 20
122.0768353842132967
 30
0.0
 11
281.7086466754079765
 21
122.1571503468214956
 31
0.0
  0
LINE
  5
100B4
  8
0
 10
281.7090561471080719
 20
122.0768353842132967
 30
0.0
 11
281.7090561471080719
 21
122.1571503468214956
 31
0.0
  0
LINE
  5
100B5
  8
0
 10
281.7216865817081271
 20
122.1571503468214956
 30
0.0
 11
281.7216865817081271
 21
122.0768353842132967
 31
0.0
  0
LINE
  5
100B6
  8
0
 10
281.7288508511080067
 20
122.0768353842132967
 30
0.0
 11
281.7288508511080067
 21
122.1571503468214956
 31
0.0
  0
LINE
  5
100B7
  8
0
 10
281.7294636553079954
 20
122.0768353842132967
 30
0.0
 11
281.7294636553079954
 21
122.1571503468214956
 31
0.0
  0
LINE
  5
100B8
  8
0
 10
281.7419897547080723
 20
122.1571503468214956
 30
0.0
 11
281.7419897547080723
 21
122.0768353842132967
 31
0.0
  0
LINE
  5
100B9
  8
0
 10
281.7488772472080996
 20
122.0768353842132967
 30
0.0
 11
281.7488772472080996
 21
122.1571503468214956
 31
0.0
  0
LINE
  5
100BA
  8
0
 10
281.7496917043080771
 20
122.0768353842132967
 30
0.0
 11
281.7496917043080771
 21
122.1571503468214956
 31
0.0
  0
LINE
  5
100BB
  8
0
 10
281.7620791352080118
 20
122.1571503468214956
 30
0.0
 11
281.7620791352080118
 21
122.0768353842132967
 31
0.0
  0
LINE
  5
100BC
  8
0
 10
281.7686709728080814
 20
122.0768353842132967
 30
0.0
 11
281.7686709728080814
 21
122.1571503468214956
 31
0.0
  0
LINE
  5
100BD
  8
0
 10
281.7695695947081163
 20
122.1571503468214956
 30
0.0
 11
281.7695695947081163
 21
122.0768353842132967
 31
0.0
  0
LINE
  5
100BE
  8
0
 10
281.7818996598081753
 20
122.1571503468214956
 30
0.0
 11
281.7818996598081753
 21
122.0768353842132967
 31
0.0
  0
LINE
  5
100BF
  8
0
 10
281.7881777746080729
 20
122.0768353842132967
 30
0.0
 11
281.7881777746080729
 21
122.1571503468214956
 31
0.0
  0
LINE
  5
100C0
  8
0
 10
281.7893882938079742
 20
122.0768353842132967
 30
0.0
 11
281.7893882938079742
 21
122.1571503468214956
 31
0.0
  0
LINE
  5
100C1
  8
0
 10
281.8013970017080965
 20
122.1571503468214956
 30
0.0
 11
281.8013970017080965
 21
122.0768353842132967
 31
0.0
  0
LINE
  5
100C2
  8
0
 10
281.8073441859082209
 20
122.0768353842132967
 30
0.0
 11
281.8073441859082209
 21
122.1571503468214956
 31
0.0
  0
LINE
  5
100C3
  8
0
 10
281.8087480287081235
 20
122.0768353842132967
 30
0.0
 11
281.8087480287081235
 21
122.1571503468214956
 31
0.0
  0
LINE
  5
100C4
  8
0
 10
281.8205177201082279
 20
122.1571503468214956
 30
0.0
 11
281.8205177201082279
 21
122.0768353842132967
 31
0.0
  0
LINE
  5
100C5
  8
0
 10
281.826117672908083
 20
122.0768353842132967
 30
0.0
 11
281.826117672908083
 21
122.1571503468214956
 31
0.0
  0
LINE
  5
100C6
  8
0
 10
281.8277109914080825
 20
122.0768353842132967
 30
0.0
 11
281.8277109914080825
 21
122.1571503468214956
 31
0.0
  0
LINE
  5
100C7
  8
0
 10
281.8392094064080879
 20
122.1571503468214956
 30
0.0
 11
281.8392094064080879
 21
122.0768353842132967
 31
0.0
  0
LINE
  5
100C8
  8
0
 10
281.8444467787080043
 20
122.0768353842132967
 30
0.0
 11
281.8444467787080043
 21
122.1571503468214956
 31
0.0
  0
LINE
  5
100C9
  8
0
 10
281.8462252058080821
 20
122.0768353842132967
 30
0.0
 11
281.8462252058080821
 21
122.1571503468214956
 31
0.0
  0
LINE
  5
100CA
  8
0
 10
281.8574208280081166
 20
122.1571503468214956
 30
0.0
 11
281.8574208280081166
 21
122.0768353842132967
 31
0.0
  0
LINE
  5
100CB
  8
0
 10
281.8622812645079989
 20
122.0768353842132967
 30
0.0
 11
281.8622812645079989
 21
122.1571503468214956
 31
0.0
  0
LINE
  5
100CC
  8
0
 10
281.8642399257082047
 20
122.0768353842132967
 30
0.0
 11
281.8642399257082047
 21
122.1571503468214956
 31
0.0
  0
LINE
  5
100CD
  8
0
 10
281.8751020687082018
 20
122.1571503468214956
 30
0.0
 11
281.8751020687082018
 21
122.0768353842132967
 31
0.0
  0
LINE
  5
100CE
  8
0
 10
281.8795722473082037
 20
122.0768353842132967
 30
0.0
 11
281.8795722473082037
 21
122.1571503468214956
 31
0.0
  0
LINE
  5
100CF
  8
0
 10
281.8817057740080827
 20
122.0768353842132967
 30
0.0
 11
281.8817057740080827
 21
122.1571503468214956
 31
0.0
  0
LINE
  5
100D0
  8
0
 10
281.8922046654080873
 20
122.1571503468214956
 30
0.0
 11
281.8922046654080873
 21
122.0768353842132967
 31
0.0
  0
LINE
  5
100D1
  8
0
 10
281.8962723337079979
 20
122.0768353842132967
 30
0.0
 11
281.8962723337079979
 21
122.1571503468214956
 31
0.0
  0
LINE
  5
100D2
  8
0
 10
281.898574878008219
 20
122.0768353842132967
 30
0.0
 11
281.898574878008219
 21
122.1571503468214956
 31
0.0
  0
LINE
  5
100D3
  8
0
 10
281.9086817411081825
 20
122.1571503468214956
 30
0.0
 11
281.9086817411081825
 21
122.0768353842132967
 31
0.0
  0
LINE
  5
100D4
  8
0
 10
281.9123357499080953
 20
122.0768353842132967
 30
0.0
 11
281.9123357499080953
 21
122.1571503468214956
 31
0.0
  0
LINE
  5
100D5
  8
0
 10
281.9148010007081098
 20
122.0768353842132967
 30
0.0
 11
281.9148010007081098
 21
122.1571503468214956
 31
0.0
  0
LINE
  5
100D6
  8
0
 10
281.9244881333081025
 20
122.1571503468214956
 30
0.0
 11
281.9244881333081025
 21
122.0768353842132967
 31
0.0
  0
LINE
  5
100D7
  8
0
 10
281.9277184671080931
 20
122.0768353842132967
 30
0.0
 11
281.9277184671080931
 21
122.1571503468214956
 31
0.0
  0
LINE
  5
100D8
  8
0
 10
281.9303396674080773
 20
122.0768353842132967
 30
0.0
 11
281.9303396674080773
 21
122.1571503468214956
 31
0.0
  0
LINE
  5
100D9
  8
0
 10
281.9395805177081797
 20
122.1571503468214956
 30
0.0
 11
281.9395805177081797
 21
122.0768353842132967
 31
0.0
  0
LINE
  5
100DA
  8
0
 10
281.9423783225080911
 20
122.0768353842132967
 30
0.0
 11
281.9423783225080911
 21
122.1571503468214956
 31
0.0
  0
LINE
  5
100DB
  8
0
 10
281.9451482877080934
 20
122.0768353842132967
 30
0.0
 11
281.9451482877080934
 21
122.1571503468214956
 31
0.0
  0
LINE
  5
100DC
  8
0
 10
281.9539175272080911
 20
122.1571503468214956
 30
0.0
 11
281.9539175272080911
 21
122.0768353842132967
 31
0.0
  0
LINE
  5
100DD
  8
0
 10
281.9562751343082141
 20
122.0768353842132967
 30
0.0
 11
281.9562751343082141
 21
122.1571503468214956
 31
0.0
  0
LINE
  5
100DE
  8
0
 10
281.959186272108127
 20
122.0768353842132967
 30
0.0
 11
281.959186272108127
 21
122.1571503468214956
 31
0.0
  0
LINE
  5
100DF
  8
0
 10
281.9674598516469928
 20
122.1571503468214956
 30
0.0
 11
281.9674598516469928
 21
122.0768353842132967
 31
0.0
  0
LINE
  5
100E0
  8
0
 10
281.9693707991469864
 20
122.0768353842132967
 30
0.0
 11
281.9693707991469864
 21
122.1571503468214956
 31
0.0
  0
LINE
  5
100E1
  8
0
 10
281.9724151437080764
 20
122.0768353842132967
 30
0.0
 11
281.9724151437080764
 21
122.1571503468214956
 31
0.0
  0
LINE
  5
100E2
  8
0
 10
281.9801703992470152
 20
122.0768353842132967
 30
0.0
 11
281.9801703992470152
 21
122.1571503468214956
 31
0.0
  0
LINE
  5
100E3
  8
0
 10
281.9816294491470217
 20
122.0768353842132967
 30
0.0
 11
281.9816294491470217
 21
122.1571503468214956
 31
0.0
  0
LINE
  5
100E4
  8
0
 10
281.984798629547015
 20
122.0768353842132967
 30
0.0
 11
281.984798629547015
 21
122.1571503468214956
 31
0.0
  0
LINE
  5
100E5
  8
0
 10
281.9920143177470209
 20
122.0768353842132967
 30
0.0
 11
281.9920143177470209
 21
122.1571503468214956
 31
0.0
  0
LINE
  5
100E6
  8
0
 10
281.9930174711469135
 20
122.0768353842132967
 30
0.0
 11
281.9930174711469135
 21
122.1571503468214956
 31
0.0
  0
LINE
  5
100E7
  8
0
 10
281.9963028140469987
 20
122.0768353842132967
 30
0.0
 11
281.9963028140469987
 21
122.1571503468214956
 31
0.0
  0
LINE
  5
100E8
  8
0
 10
282.002959143847022
 20
122.0768353842132967
 30
0.0
 11
282.002959143847022
 21
122.1571503468214956
 31
0.0
  0
LINE
  5
100E9
  8
0
 10
282.0035036510470263
 20
122.0768353842132967
 30
0.0
 11
282.0035036510470263
 21
122.1571503468214956
 31
0.0
  0
LINE
  5
100EA
  8
0
 10
282.0068373535469846
 20
122.0768353842132967
 30
0.0
 11
282.0068373535469846
 21
122.1571503468214956
 31
0.0
  0
LINE
  5
100EB
  8
0
 10
282.0129748786470145
 20
122.0768353842132967
 30
0.0
 11
282.0129748786470145
 21
122.1571503468214956
 31
0.0
  0
LINE
  5
100EC
  8
0
 10
282.0165496069470237
 20
122.0768353842132967
 30
0.0
 11
282.0165496069470237
 21
122.1571503468214956
 31
0.0
  0
LINE
  5
100ED
  8
0
 10
282.0220340695469758
 20
122.0768353842132967
 30
0.0
 11
282.0220340695469758
 21
122.1571503468214956
 31
0.0
  0
LINE
  5
100EE
  8
0
 10
282.0252367203469817
 20
122.0768353842132967
 30
0.0
 11
282.0252367203469817
 21
122.1571503468214956
 31
0.0
  0
LINE
  5
100EF
  8
0
 10
282.0301118861469831
 20
122.0768353842132967
 30
0.0
 11
282.0301118861469831
 21
122.1571503468214956
 31
0.0
  0
LINE
  5
100F0
  8
0
 10
282.032933681046984
 20
122.0768353842132967
 30
0.0
 11
282.032933681046984
 21
122.1571503468214956
 31
0.0
  0
LINE
  5
100F1
  8
0
 10
282.037186187546979
 20
122.0768353842132967
 30
0.0
 11
282.037186187546979
 21
122.1571503468214956
 31
0.0
  0
LINE
  5
100F2
  8
0
 10
282.0396193922470047
 20
122.0768353842132967
 30
0.0
 11
282.0396193922470047
 21
122.1571503468214956
 31
0.0
  0
LINE
  5
100F3
  8
0
 10
282.0432375835470111
 20
122.0768353842132967
 30
0.0
 11
282.0432375835470111
 21
122.1571503468214956
 31
0.0
  0
LINE
  5
100F4
  8
0
 10
282.0452755288470144
 20
122.0768353842132967
 30
0.0
 11
282.0452755288470144
 21
122.1571503468214956
 31
0.0
  0
LINE
  5
100F5
  8
0
 10
282.0482494878469879
 20
122.0768353842132967
 30
0.0
 11
282.0482494878469879
 21
122.1571503468214956
 31
0.0
  0
LINE
  5
100F6
  8
0
 10
282.0498865878469132
 20
122.0768353842132967
 30
0.0
 11
282.0498865878469132
 21
122.1571503468214956
 31
0.0
  0
LINE
  5
100F7
  8
0
 10
282.0522081630469984
 20
122.0768353842132967
 30
0.0
 11
282.0522081630469984
 21
122.1571503468214956
 31
0.0
  0
LINE
  5
100F8
  8
0
 10
282.0534399305469719
 20
122.0768353842132967
 30
0.0
 11
282.0534399305469719
 21
122.1571503468214956
 31
0.0
  0
LINE
  5
100F9
  8
0
 10
282.0551027588469992
 20
122.0768353842132967
 30
0.0
 11
282.0551027588469992
 21
122.1571503468214956
 31
0.0
  0
LINE
  5
100FA
  8
0
 10
282.0559258175470063
 20
122.0768353842132967
 30
0.0
 11
282.0559258175470063
 21
122.1571503468214956
 31
0.0
  0
LINE
  5
100FB
  8
0
 10
282.0569253411470072
 20
122.0768353842132967
 30
0.0
 11
282.0569253411470072
 21
122.1571503468214956
 31
0.0
  0
LINE
  5
100FC
  8
0
 10
282.0573374352470069
 20
122.0768353842132967
 30
0.0
 11
282.0573374352470069
 21
122.1571503468214956
 31
0.0
  0
LINE
  5
100FD
  8
0
 10
282.0576709144469874
 20
122.0768353842132967
 30
0.0
 11
282.0576709144469874
 21
122.1571503468214956
 31
0.0
  0
LINE
  5
100FE
  8
0
 10
281.3293443125469935
 20
122.0768353842132967
 30
0.0
 11
281.3293443125469935
 21
122.0571503468215013
 31
0.0
  0
LINE
  5
100FF
  8
0
 10
281.3293443125469935
 20
122.0571503468215013
 30
0.0
 11
281.9986353125469805
 21
122.0571503468215013
 31
0.0
  0
LINE
  5
10100
  8
0
 10
281.9986353125469805
 20
122.0571503468215013
 30
0.0
 11
281.9986353125469805
 21
122.0768353842132967
 31
0.0
  0
LINE
  5
10101
  8
0
 10
282.6679268204470077
 20
124.1250254910215034
 30
0.0
 11
285.187752463646973
 21
126.6448511342214971
 31
0.0
  0
LINE
  5
10102
  8
0
 10
282.6679268204470077
 20
126.6448511342214971
 30
0.0
 11
302.6679269238470056
 21
126.6448511342214971
 31
0.0
  0
LINE
  5
10103
  8
0
 10
282.6679268204470077
 20
128.2196542839214999
 30
0.0
 11
302.6679269238470056
 21
128.2196542839214999
 31
0.0
  0
LINE
  5
10104
  8
0
 10
282.7188793654469805
 20
128.2196542839214999
 30
0.0
 11
282.7188793654469805
 21
126.6448511342214971
 31
0.0
  0
LINE
  5
10105
  8
0
 10
282.7663520173470033
 20
128.3185676697214888
 30
0.0
 11
292.6088717023470167
 21
128.3185676697214888
 31
0.0
  0
LINE
  5
10106
  8
0
 10
292.6088717023470167
 20
128.3185676697214888
 30
0.0
 11
292.6088717023470167
 21
145.3658117642214904
 31
0.0
  0
LINE
  5
10107
  8
0
 10
292.6088717023470167
 20
145.3658117642214904
 30
0.0
 11
282.7663520173470033
 21
145.3658117642214904
 31
0.0
  0
LINE
  5
10108
  8
0
 10
282.7663520173470033
 20
145.3658117642214904
 30
0.0
 11
282.7663520173470033
 21
128.3185676697214888
 31
0.0
  0
LINE
  5
10109
  8
0
 10
282.6679268204470077
 20
146.2122684571214961
 30
0.0
 11
302.6679269238470056
 21
146.2122684571214961
 31
0.0
  0
LINE
  5
1010A
  8
0
 10
302.6679269238470056
 20
145.4642369610214985
 30
0.0
 11
282.6679268204470077
 21
145.4642369610214985
 31
0.0
  0
LINE
  5
1010B
  8
0
 10
282.7072968992470123
 20
146.2122684571214961
 30
0.0
 11
282.7072968992470123
 21
145.4642369610214985
 31
0.0
  0
LINE
  5
1010C
  8
0
 10
302.56950172694701
 20
154.9721109768215115
 30
0.0
 11
282.7663520173470033
 21
154.9721109768215115
 31
0.0
  0
LINE
  5
1010D
  8
0
 10
282.7663520173470033
 20
154.9721109768215115
 30
0.0
 11
282.7663520173470033
 21
146.3106936539215042
 31
0.0
  0
LINE
  5
1010E
  8
0
 10
282.7663520173470033
 20
146.3106936539215042
 30
0.0
 11
302.56950172694701
 21
146.3106936539215042
 31
0.0
  0
LINE
  5
1010F
  8
0
 10
288.2981630409469744
 20
151.0348117642215016
 30
0.0
 11
297.0576905999470227
 21
151.0348117642215016
 31
0.0
  0
LINE
  5
10110
  8
0
 10
297.0576905999470227
 20
150.2474101894214868
 30
0.0
 11
288.2981630409469744
 21
150.2474101894214868
 31
0.0
  0
ARC
  5
10111
  8
0
 10
288.2981630409469744
 20
150.2674101894214971
 30
0.0
 40
0.02
 50
180.0
 51
270.0
  0
LINE
  5
10112
  8
0
 10
288.2781630409469926
 20
150.2674101894214971
 30
0.0
 11
288.2781630409469926
 21
151.0148117642214913
 31
0.0
  0
ARC
  5
10113
  8
0
 10
288.2981630409469744
 20
151.0148117642214913
 30
0.0
 40
0.02
 50
90.0
 51
180.0
  0
LINE
  5
10114
  8
0
 10
282.6679268204470077
 20
155.0705361736214911
 30
0.0
 11
302.6679269238470056
 21
155.0705361736214911
 31
0.0
  0
LINE
  5
10115
  8
0
 10
282.7079268204469145
 20
156.6453393232214921
 30
0.0
 11
282.7079268204469145
 21
155.0705361736214911
 31
0.0
  0
LINE
  5
10116
  8
0
 10
284.3951940640263842
 20
155.0705361736214911
 30
0.0
 11
284.4375391427926729
 21
154.9721109768215115
 31
0.0
  0
LINE
  5
10117
  8
0
 10
290.6994228834470277
 20
155.0705361736214911
 30
0.0
 11
290.6994228834470277
 21
154.9721109768215115
 31
0.0
  0
LINE
  5
10118
  8
0
 10
282.6888499015469165
 20
152.1000155771714901
 30
0.0
 11
282.6888498921467772
 21
152.0999260507715007
 31
0.0
  0
LINE
  5
10119
  8
0
 10
282.6733001747472258
 20
152.9019087546215019
 30
0.0
 11
282.6733001747469984
 21
151.7480509185214999
 31
0.0
  0
ARC
  5
1011A
  8
0
 10
282.6425915133469857
 20
152.3025877610714929
 30
0.0
 40
0.2078740157
 50
282.8577248726061839
 51
306.5385160655008008
  0
ARC
  5
1011B
  8
0
 10
282.6425915133469857
 20
152.3473719138715126
 30
0.0
 40
0.2078740157
 50
53.4614839344991495
 51
77.1422751273938019
  0
ARC
  5
1011C
  8
0
 10
282.6933001747469802
 20
152.56953221347149
 30
0.0
 40
0.02
 50
180.0
 51
257.1423612970027079
  0
ARC
  5
1011D
  8
0
 10
282.6933001747469802
 20
152.080427461471487
 30
0.0
 40
0.02
 50
102.8576387029972068
 51
180.0
  0
ARC
  5
1011E
  8
0
 10
282.6633001747470075
 20
152.9019087563214896
 30
0.0
 40
0.0099999999999875
 50
359.9999902596454149
 51
62.4408185552748876
  0
ARC
  5
1011F
  8
0
 10
282.6633001747476897
 20
151.748050918520903
 30
0.0
 40
0.0099999999990867
 50
297.5591814403642843
 51
0.0000000036436434
  0
LINE
  5
10120
  8
0
 10
285.3277299700424123
 20
146.2122684571214961
 30
0.0
 11
285.3277299700844196
 21
146.2581361844214882
 31
0.0
  0
ARC
  5
10121
  8
0
 10
285.332729776952192
 20
146.2581361844169123
 30
0.0
 40
0.0049998068677759
 50
109.5229742572690981
 51
179.9999999475519132
  0
ARC
  5
10122
  8
0
 10
285.327709928813988
 20
146.2722937544810122
 30
0.0
 40
0.0100213670360832
 50
289.5229742572727218
 51
356.8615605392661791
  0
ARC
  5
10123
  8
0
 10
310.1094516685103031
 20
144.9134872728542121
 30
0.0
 40
24.8089447417186904
 50
176.8415247883060886
 51
176.8615605392662076
  0
ARC
  5
10124
  8
0
 10
285.3987396799229828
 20
146.2770663555033934
 30
0.0
 40
0.0606390442057716
 50
146.3203693702922976
 51
176.841524788304298
  0
ARC
  5
10125
  8
0
 10
286.0039312887848837
 20
146.2782135174259963
 30
0.0
 40
0.1260262112477246
 50
165.0648709129494875
 51
179.1209780121288873
  0
ARC
  5
10126
  8
0
 10
429.2674094105822178
 20
143.4180506787151899
 30
0.0
 40
143.4180507971611007
 50
178.8565112928075109
 51
178.8599730630986926
  0
ARC
  5
10127
  8
0
 10
285.8557658914348849
 20
146.270516452135098
 30
0.0
 40
0.0220026114695956
 50
325.7594030829142184
 51
2.5188326816200961
  0
LINE
  5
10128
  8
0
 10
285.873955056346972
 20
146.2122684571214961
 30
0.0
 11
285.873955056547004
 21
146.2581362589214962
 31
0.0
  0
ARC
  5
10129
  8
0
 10
285.868506784344504
 20
146.2574065685309108
 30
0.0
 40
0.0054969189605103
 50
7.6282641133595162
 51
81.9009155125137056
  0
LINE
  5
1012A
  8
0
 10
285.8692812200404205
 20
146.2628486607214882
 30
0.0
 11
285.3310589174470238
 21
146.2628485402215119
 31
0.0
  0
LINE
  5
1012B
  8
0
 10
286.094197351646983
 20
146.2122684571214961
 30
0.0
 11
286.094197351646983
 21
146.3106936539215042
 31
0.0
  0
LINE
  5
1012C
  8
0
 10
286.0641973516470102
 20
146.3106936539215042
 30
0.0
 11
286.0641973516470102
 21
146.2122684571214961
 31
0.0
  0
LINE
  5
1012D
  8
0
 10
286.0641973516470102
 20
146.2408197595214858
 30
0.0
 11
286.094197351646983
 21
146.2408197595214858
 31
0.0
  0
LINE
  5
1012E
  8
0
 10
286.0277299700470053
 20
146.2848097381215098
 30
0.0
 11
286.0641973516470102
 21
146.2848097381215098
 31
0.0
  0
LINE
  5
1012F
  8
0
 10
286.0277299700470053
 20
146.3106936539215042
 30
0.0
 11
286.0277299700470053
 21
146.2122684571214961
 31
0.0
  0
LINE
  5
10130
  8
0
 10
286.0199376097011736
 20
146.2972684571215041
 30
0.0
 11
286.0199376097011736
 21
146.2972684571215041
 31
0.0
  0
LINE
  5
10131
  8
0
 10
286.0277299700470053
 20
146.2972684571215041
 30
0.0
 11
285.8994660491470086
 21
146.2972684571215041
 31
0.0
  0
LINE
  5
10132
  8
0
 10
285.8879283565034939
 20
146.2122684571214961
 30
0.0
 11
285.8879341793182789
 21
146.2422922185214986
 31
0.0
  0
ARC
  5
10133
  8
0
 10
285.7835332371608956
 20
146.2704943175594963
 30
0.0
 40
0.1081430308133828
 50
344.8833433553331815
 51
358.2906377959390056
  0
ARC
  5
10134
  8
0
 10
286.0140945184451766
 20
146.2694624202644889
 30
0.0
 40
0.122486024849896
 50
171.6411792587468881
 51
181.026333832259013
  0
ARC
  5
10135
  8
0
 10
285.9156049337790932
 20
146.2829610632365984
 30
0.0
 40
0.023100419036449
 50
152.0722437505930031
 51
169.2535079261558053
  0
ARC
  5
10136
  8
0
 10
285.9006079777162199
 20
146.2915110218758059
 30
0.0
 40
0.0058695878446662
 50
101.2184395783952056
 51
157.2556004483579102
  0
LINE
  5
10137
  8
0
 10
285.8879341793182789
 20
146.2422922185214986
 30
0.0
 11
286.0077299700470235
 21
146.2422774168215085
 31
0.0
  0
LINE
  5
10138
  8
0
 10
286.0077299700470235
 20
146.2122684571214961
 30
0.0
 11
286.0077299700470235
 21
146.2422774168215085
 31
0.0
  0
ARC
  5
10139
  8
0
 10
285.9674101010842264
 20
146.27239432453581
 30
0.0
 40
0.0503261359876927
 50
323.2421243388026255
 51
356.8759566243834911
  0
ARC
  5
1013A
  8
0
 10
287.3594137748364119
 20
146.201504070264491
 30
0.0
 40
1.3434818210750421
 50
176.7224636378890068
 51
177.0924462708759108
  0
ARC
  5
1013B
  8
0
 10
286.0380737068468875
 20
146.277245469521489
 30
0.0
 40
0.0199728577999689
 50
121.1908011139721992
 51
176.932026151330291
  0
LINE
  5
1013C
  8
0
 10
286.0179436273479041
 20
146.274997246521508
 30
0.0
 11
286.0277299700470053
 21
146.274997246521508
 31
0.0
  0
LINE
  5
1013D
  8
0
 10
285.9269463776785756
 20
146.2696509664214943
 30
0.0
 11
286.0176614090245266
 21
146.2696509664214943
 31
0.0
  0
LINE
  5
1013E
  8
0
 10
285.8916281442470222
 20
146.2672684571215029
 30
0.0
 11
285.9152299700469939
 21
146.2672684571215029
 31
0.0
  0
ARC
  5
1013F
  8
0
 10
285.9152299700469939
 20
146.2972684571957984
 30
0.0
 40
0.0300000000742955
 50
270.0000000000032969
 51
340.5287792651819814
  0
ARC
  5
10140
  8
0
 10
285.9576563770519897
 20
146.2822684570649017
 30
0.0
 40
0.015000000095553
 50
90.0
 51
160.5287792651803898
  0
LINE
  5
10141
  8
0
 10
287.3577299700576191
 20
146.2122684571214961
 30
0.0
 11
287.3577299700156118
 21
146.2581361844214882
 31
0.0
  0
ARC
  5
10142
  8
0
 10
287.3527301631478963
 20
146.2581361844169123
 30
0.0
 40
0.0049998068677759
 50
0.00000005244811
 51
70.4770257427309303
  0
ARC
  5
10143
  8
0
 10
287.3577500112859866
 20
146.2722937544810122
 30
0.0
 40
0.0100213670360832
 50
183.1384394607337924
 51
250.4770257427273066
  0
ARC
  5
10144
  8
0
 10
262.5760082715897283
 20
144.9134872728542121
 30
0.0
 40
24.8089447417186904
 50
3.1384394607338328
 51
3.158475211693879
  0
ARC
  5
10145
  8
0
 10
287.2867202601771055
 20
146.2770663555033934
 30
0.0
 40
0.0606390442057716
 50
3.1584752116956838
 51
33.6796306297076526
  0
ARC
  5
10146
  8
0
 10
286.6815286513091223
 20
146.2782135174259963
 30
0.0
 40
0.1260262112477246
 50
0.8790219878711184
 51
14.9351290870504307
  0
ARC
  5
10147
  8
0
 10
143.418050529511703
 20
143.4180506787151899
 30
0.0
 40
143.4180507971611007
 50
1.140026936901265
 51
1.143488707192458
  0
ARC
  5
10148
  8
0
 10
286.8296940486591211
 20
146.270516452135098
 30
0.0
 40
0.0220026114695956
 50
177.481167318379903
 51
214.24059691708581
  0
LINE
  5
10149
  8
0
 10
286.8115048837469772
 20
146.2122684571214961
 30
0.0
 11
286.811504883547002
 21
146.2581362589214962
 31
0.0
  0
ARC
  5
1014A
  8
0
 10
286.8169531557493883
 20
146.2574065685309108
 30
0.0
 40
0.0054969189605103
 50
98.0990844874863086
 51
172.3717358866404936
  0
LINE
  5
1014B
  8
0
 10
286.8161787200535855
 20
146.2628486607214882
 30
0.0
 11
287.3544010226531213
 21
146.2628485402215119
 31
0.0
  0
LINE
  5
1014C
  8
0
 10
286.6241973516470125
 20
146.2122684571214961
 30
0.0
 11
286.6241973516470125
 21
146.3106936539215042
 31
0.0
  0
LINE
  5
1014D
  8
0
 10
286.6541973516469852
 20
146.3106936539215042
 30
0.0
 11
286.6541973516469852
 21
146.2122684571214961
 31
0.0
  0
LINE
  5
1014E
  8
0
 10
286.6541973516469852
 20
146.2408197595214858
 30
0.0
 11
286.6241973516470125
 21
146.2408197595214858
 31
0.0
  0
LINE
  5
1014F
  8
0
 10
286.6577299700470007
 20
146.2848097381215098
 30
0.0
 11
286.6541973516469852
 21
146.2848097381215098
 31
0.0
  0
LINE
  5
10150
  8
0
 10
286.6577299700470007
 20
146.3106936539215042
 30
0.0
 11
286.6577299700470007
 21
146.2122684571214961
 31
0.0
  0
LINE
  5
10151
  8
0
 10
286.6655223303927755
 20
146.2972684571215041
 30
0.0
 11
286.6655223303927755
 21
146.2972684571215041
 31
0.0
  0
LINE
  5
10152
  8
0
 10
286.6577299700470007
 20
146.2972684571215041
 30
0.0
 11
286.7859938909469975
 21
146.2972684571215041
 31
0.0
  0
LINE
  5
10153
  8
0
 10
286.7975315835903984
 20
146.2122684571214961
 30
0.0
 11
286.7975257607756134
 21
146.2422922185214986
 31
0.0
  0
ARC
  5
10154
  8
0
 10
286.9019267029329967
 20
146.2704943175594963
 30
0.0
 40
0.1081430308133828
 50
181.7093622040609944
 51
195.116656644665909
  0
ARC
  5
10155
  8
0
 10
286.6713654216487726
 20
146.2694624202644889
 30
0.0
 40
0.122486024849896
 50
358.973666167740987
 51
8.3588207412530728
  0
ARC
  5
10156
  8
0
 10
286.7698550063149128
 20
146.2829610632365984
 30
0.0
 40
0.023100419036449
 50
10.7464920738442107
 51
27.9277562494069684
  0
ARC
  5
10157
  8
0
 10
286.7848519623777861
 20
146.2915110218758059
 30
0.0
 40
0.0058695878446662
 50
22.7443995516421005
 51
78.7815604216047944
  0
LINE
  5
10158
  8
0
 10
286.7975257607756134
 20
146.2422922185214986
 30
0.0
 11
286.6777299700469825
 21
146.2422774168215085
 31
0.0
  0
LINE
  5
10159
  8
0
 10
286.6777299700469825
 20
146.2122684571214961
 30
0.0
 11
286.6777299700469825
 21
146.2422774168215085
 31
0.0
  0
ARC
  5
1015A
  8
0
 10
286.7180498390097796
 20
146.27239432453581
 30
0.0
 40
0.0503261359876927
 50
183.1240433756163952
 51
216.7578756611974029
  0
ARC
  5
1015B
  8
0
 10
285.3260461652577078
 20
146.201504070264491
 30
0.0
 40
1.3434818210750421
 50
2.90755372912413
 51
3.277536362110943
  0
ARC
  5
1015C
  8
0
 10
286.6473862332470048
 20
146.277245469521489
 30
0.0
 40
0.0199728577999689
 50
3.0679738486696562
 51
58.8091988860277866
  0
LINE
  5
1015D
  8
0
 10
286.6675163127461019
 20
146.274997246521508
 30
0.0
 11
286.6577299700470007
 21
146.274997246521508
 31
0.0
  0
LINE
  5
1015E
  8
0
 10
286.7585135624153736
 20
146.2696509664214943
 30
0.0
 11
286.6677985310694794
 21
146.2696509664214943
 31
0.0
  0
LINE
  5
1015F
  8
0
 10
286.7938317958469838
 20
146.2672684571215029
 30
0.0
 11
286.7702299700470121
 21
146.2672684571215029
 31
0.0
  0
ARC
  5
10160
  8
0
 10
286.7702299700470121
 20
146.2972684571957984
 30
0.0
 40
0.0300000000742955
 50
199.4712207348179902
 51
269.9999999999968168
  0
ARC
  5
10161
  8
0
 10
286.7278035630419026
 20
146.2822684570649017
 30
0.0
 40
0.015000000095553
 50
19.4712207348195392
 51
90.0
  0
LINE
  5
10162
  8
0
 10
291.8014701275467928
 20
141.4287015279714979
 30
0.0
 11
291.132808710248014
 21
141.4287015279714979
 31
0.0
  0
LINE
  5
10163
  8
0
 10
291.8014701275467928
 20
136.6649220003714902
 30
0.0
 11
291.132808710248014
 21
136.6649220003714902
 31
0.0
  0
LINE
  5
10164
  8
0
 10
291.1128087102479185
 20
141.4087015279714876
 30
0.0
 11
291.1128087102479185
 21
136.6849220003715004
 31
0.0
  0
LINE
  5
10165
  8
0
 10
291.821470127547002
 20
141.4087015279714876
 30
0.0
 11
291.821470127547002
 21
136.6849220003715004
 31
0.0
  0
ARC
  5
10166
  8
0
 10
291.132808710248014
 20
141.4087015279714876
 30
0.0
 40
0.02
 50
90.0
 51
179.9999999999967031
  0
ARC
  5
10167
  8
0
 10
291.8014701275467928
 20
141.4087015279714876
 30
0.0
 40
0.02
 50
359.9999999999968168
 51
90.0
  0
ARC
  5
10168
  8
0
 10
291.132808710248014
 20
136.6849220003715004
 30
0.0
 40
0.02
 50
180.0
 51
270.0
  0
ARC
  5
10169
  8
0
 10
291.8014701275467928
 20
136.6849220003715004
 30
0.0
 40
0.02
 50
270.0
 51
0.0
  0
LINE
  5
1016A
  8
0
 10
282.6679268204470077
 20
143.2662605831058897
 30
0.0
 11
282.7137945477469998
 21
143.2662605830639109
 31
0.0
  0
ARC
  5
1016B
  8
0
 10
282.7137945477423955
 20
143.2612607761961101
 30
0.0
 40
0.0049998068677759
 50
19.5229742572677587
 51
89.9999999475510748
  0
ARC
  5
1016C
  8
0
 10
282.7279521178065238
 20
143.2662806243343141
 30
0.0
 40
0.0100213670360832
 50
199.5229742572726934
 51
266.8615605392661791
  0
ARC
  5
1016D
  8
0
 10
281.3691456361797236
 20
118.484538884637999
 30
0.0
 40
24.8089447417186904
 50
86.8415247883060175
 51
86.8615605392662076
  0
ARC
  5
1016E
  8
0
 10
282.7327247188288766
 20
143.1952508732252056
 30
0.0
 40
0.0606390442057716
 50
56.3203693702914592
 51
86.8415247883060175
  0
ARC
  5
1016F
  8
0
 10
282.7338718807515079
 20
142.59005926436339
 30
0.0
 40
0.1260262112477246
 50
75.0648709129499139
 51
89.1209780121296831
  0
ARC
  5
10170
  8
0
 10
282.7261748154605812
 20
142.7382246617133887
 30
0.0
 40
0.0220026114695956
 50
235.7594030829129963
 51
272.5188326816194149
  0
LINE
  5
10171
  8
0
 10
282.6679268204470077
 20
142.7200354968013016
 30
0.0
 11
282.7137946222470077
 21
142.7200354966012981
 31
0.0
  0
ARC
  5
10172
  8
0
 10
282.7130649318564224
 20
142.7254837688037981
 30
0.0
 40
0.0054969189605103
 50
277.6282641133597053
 51
351.9009155125136772
  0
LINE
  5
10173
  8
0
 10
282.7185070240470282
 20
142.72470933310791
 30
0.0
 11
282.7185069035469951
 21
143.2629316357013067
 31
0.0
  0
LINE
  5
10174
  8
0
 10
282.6679268204470077
 20
142.4997932015012907
 30
0.0
 11
282.7663520172470157
 21
142.4997932015012907
 31
0.0
  0
LINE
  5
10175
  8
0
 10
282.7663520172470157
 20
142.5297932015012918
 30
0.0
 11
282.6679268204470077
 21
142.5297932015012918
 31
0.0
  0
LINE
  5
10176
  8
0
 10
282.6964781228469974
 20
142.5297932015012918
 30
0.0
 11
282.6964781228469974
 21
142.4997932015012907
 31
0.0
  0
LINE
  5
10177
  8
0
 10
282.7404681014469929
 20
142.5662605831012968
 30
0.0
 11
282.7404681014469929
 21
142.5297932015012918
 31
0.0
  0
LINE
  5
10178
  8
0
 10
282.7663520172470157
 20
142.5662605831012968
 30
0.0
 11
282.6679268204470077
 21
142.5662605831012968
 31
0.0
  0
LINE
  5
10179
  8
0
 10
282.7529268204469872
 20
142.5740529434471
 30
0.0
 11
282.7529268204469872
 21
142.5740529434471
 31
0.0
  0
LINE
  5
1017A
  8
0
 10
282.7529268204469872
 20
142.5662605831012968
 30
0.0
 11
282.7529268204469872
 21
142.6945245040012935
 31
0.0
  0
LINE
  5
1017B
  8
0
 10
282.6679268204470077
 20
142.7060621966448082
 30
0.0
 11
282.6979505818470102
 21
142.7060563738299095
 31
0.0
  0
ARC
  5
1017C
  8
0
 10
282.7261526808849794
 20
142.8104573159872928
 30
0.0
 40
0.1081430308133828
 50
254.8833433553348016
 51
268.290637795937414
  0
ARC
  5
1017D
  8
0
 10
282.7251207835900004
 20
142.579896034703097
 30
0.0
 40
0.122486024849896
 50
81.6411792587486644
 51
91.0263338322581887
  0
ARC
  5
1017E
  8
0
 10
282.7386194265620816
 20
142.6783856193692088
 30
0.0
 40
0.023100419036449
 50
62.0722437505933797
 51
79.2535079261562885
  0
ARC
  5
1017F
  8
0
 10
282.7471693852011754
 20
142.6933825754321106
 30
0.0
 40
0.0058695878446662
 50
11.2184395783953708
 51
67.2556004483574554
  0
LINE
  5
10180
  8
0
 10
282.6979505818470102
 20
142.7060563738299095
 30
0.0
 11
282.6979357801470201
 21
142.586260583101307
 31
0.0
  0
LINE
  5
10181
  8
0
 10
282.6679268204470077
 20
142.586260583101307
 30
0.0
 11
282.6979357801470201
 21
142.586260583101307
 31
0.0
  0
ARC
  5
10182
  8
0
 10
282.7280526878612932
 20
142.6265804520641041
 30
0.0
 40
0.0503261359876927
 50
233.2421243388008065
 51
266.8759566243834911
  0
ARC
  5
10183
  8
0
 10
282.6571624335899742
 20
141.2345767783118902
 30
0.0
 40
1.3434818210750421
 50
86.7224636378882536
 51
87.0924462708742055
  0
ARC
  5
10184
  8
0
 10
282.7329038328470006
 20
142.5559168463013009
 30
0.0
 40
0.0199728577999689
 50
31.19080111397178
 51
86.9320261513296231
  0
LINE
  5
10185
  8
0
 10
282.7306556098470196
 20
142.576046925800398
 30
0.0
 11
282.7306556098470196
 21
142.5662605831012968
 31
0.0
  0
LINE
  5
10186
  8
0
 10
282.7253093297470059
 20
142.6670441754696981
 30
0.0
 11
282.7253093297470059
 21
142.5763291441238039
 31
0.0
  0
LINE
  5
10187
  8
0
 10
282.7229268204470145
 20
142.7023624089013083
 30
0.0
 11
282.7229268204470145
 21
142.6787605831013082
 31
0.0
  0
ARC
  5
10188
  8
0
 10
282.7529268205212816
 20
142.6787605831013082
 30
0.0
 40
0.0300000000742955
 50
180.0000000000015916
 51
250.5287792651826919
  0
ARC
  5
10189
  8
0
 10
282.7379268203903848
 20
142.6363341760961987
 30
0.0
 40
0.015000000095553
 50
0.0
 51
70.5287792651794234
  0
LINE
  5
1018A
  8
0
 10
282.6679268204470077
 20
141.2362605830907114
 30
0.0
 11
282.7137945477469998
 21
141.236260583132605
 31
0.0
  0
ARC
  5
1018B
  8
0
 10
282.7137945477423955
 20
141.2412603900004058
 30
0.0
 40
0.0049998068677759
 50
270.000000052448911
 51
340.4770257427322235
  0
ARC
  5
1018C
  8
0
 10
282.7279521178065238
 20
141.2362405418622018
 30
0.0
 40
0.0100213670360832
 50
93.1384394607337924
 51
160.4770257427273066
  0
ARC
  5
1018D
  8
0
 10
281.3691456361797236
 20
166.0179822815584885
 30
0.0
 40
24.8089447417186904
 50
273.1384394607338209
 51
273.1584752116939967
  0
ARC
  5
1018E
  8
0
 10
282.7327247188288766
 20
141.3072702929713103
 30
0.0
 40
0.0606390442057716
 50
273.1584752116939967
 51
303.6796306297085835
  0
ARC
  5
1018F
  8
0
 10
282.7338718807515079
 20
141.9124619018392082
 30
0.0
 40
0.1260262112477246
 50
270.8790219878703169
 51
284.9351290870500861
  0
ARC
  5
10190
  8
0
 10
282.7261748154605812
 20
141.7642965044892094
 30
0.0
 40
0.0220026114695956
 50
87.4811673183806846
 51
124.2405969170870037
  0
LINE
  5
10191
  8
0
 10
282.6679268204470077
 20
141.7824856694012965
 30
0.0
 11
282.7137946222470077
 21
141.7824856696013001
 31
0.0
  0
ARC
  5
10192
  8
0
 10
282.7130649318564224
 20
141.7770373973988001
 30
0.0
 40
0.0054969189605103
 50
8.0990844874863033
 51
82.3717358866403657
  0
LINE
  5
10193
  8
0
 10
282.7185070240470282
 20
141.7778118330946882
 30
0.0
 11
282.7185069035469951
 21
141.2395895304952091
 31
0.0
  0
LINE
  5
10194
  8
0
 10
282.6679268204470077
 20
141.9697932015012896
 30
0.0
 11
282.7663520172470157
 21
141.9697932015012896
 31
0.0
  0
LINE
  5
10195
  8
0
 10
282.7663520172470157
 20
141.9397932015012884
 30
0.0
 11
282.6679268204470077
 21
141.9397932015012884
 31
0.0
  0
LINE
  5
10196
  8
0
 10
282.6964781228469974
 20
141.9397932015012884
 30
0.0
 11
282.6964781228469974
 21
141.9697932015012896
 31
0.0
  0
LINE
  5
10197
  8
0
 10
282.7404681014469929
 20
141.9362605831013013
 30
0.0
 11
282.7404681014469929
 21
141.9397932015012884
 31
0.0
  0
LINE
  5
10198
  8
0
 10
282.7663520172470157
 20
141.9362605831013013
 30
0.0
 11
282.6679268204470077
 21
141.9362605831013013
 31
0.0
  0
LINE
  5
10199
  8
0
 10
282.7529268204469872
 20
141.9284682227554981
 30
0.0
 11
282.7529268204469872
 21
141.9284682227554981
 31
0.0
  0
LINE
  5
1019A
  8
0
 10
282.7529268204469872
 20
141.9362605831013013
 30
0.0
 11
282.7529268204469872
 21
141.8079966622013046
 31
0.0
  0
LINE
  5
1019B
  8
0
 10
282.6679268204470077
 20
141.7964589695577899
 30
0.0
 11
282.6979505818470102
 21
141.7964647923726886
 31
0.0
  0
ARC
  5
1019C
  8
0
 10
282.7261526808849794
 20
141.6920638502153054
 30
0.0
 40
0.1081430308133828
 50
91.7093622040593601
 51
105.1166566446651984
  0
ARC
  5
1019D
  8
0
 10
282.7251207835900004
 20
141.9226251314995011
 30
0.0
 40
0.122486024849896
 50
268.9736661677417828
 51
278.3588207412512929
  0
ARC
  5
1019E
  8
0
 10
282.7386194265620816
 20
141.8241355468333893
 30
0.0
 40
0.023100419036449
 50
280.7464920738436831
 51
297.9277562494066274
  0
ARC
  5
1019F
  8
0
 10
282.7471693852011754
 20
141.8091385907704876
 30
0.0
 40
0.0058695878446662
 50
292.744399551642573
 51
348.7815604216045813
  0
LINE
  5
101A0
  8
0
 10
282.6979505818470102
 20
141.7964647923726886
 30
0.0
 11
282.6979357801470201
 21
141.9162605831012911
 31
0.0
  0
LINE
  5
101A1
  8
0
 10
282.6679268204470077
 20
141.9162605831012911
 30
0.0
 11
282.6979357801470201
 21
141.9162605831012911
 31
0.0
  0
ARC
  5
101A2
  8
0
 10
282.7280526878612932
 20
141.8759407141384941
 30
0.0
 40
0.0503261359876927
 50
93.1240433756165658
 51
126.7578756611991935
  0
ARC
  5
101A3
  8
0
 10
282.6571624335899742
 20
143.2679443878905943
 30
0.0
 40
1.3434818210750421
 50
272.9075537291225828
 51
273.2775363621116753
  0
ARC
  5
101A4
  8
0
 10
282.7329038328470006
 20
141.946604319901212
 30
0.0
 40
0.0199728577999689
 50
273.0679738486704196
 51
328.8091988860282981
  0
LINE
  5
101A5
  8
0
 10
282.7306556098470196
 20
141.9264742404020865
 30
0.0
 11
282.7306556098470196
 21
141.9362605831013013
 31
0.0
  0
LINE
  5
101A6
  8
0
 10
282.7253093297470059
 20
141.8354769907329
 30
0.0
 11
282.7253093297470059
 21
141.926192022078709
 31
0.0
  0
LINE
  5
101A7
  8
0
 10
282.7229268204470145
 20
141.8001587573012898
 30
0.0
 11
282.7229268204470145
 21
141.82376058310129
 31
0.0
  0
ARC
  5
101A8
  8
0
 10
282.7529268205212816
 20
141.82376058310129
 30
0.0
 40
0.0300000000742955
 50
109.4712207348171944
 51
179.9999999999974989
  0
ARC
  5
101A9
  8
0
 10
282.7379268203903848
 20
141.8661869901063994
 30
0.0
 40
0.015000000095553
 50
289.4712207348205766
 51
0.0
  0
LINE
  5
101AA
  8
0
 10
290.6994228834470277
 20
145.4642369610214985
 30
0.0
 11
290.6994228834470277
 21
145.3658117642214904
 31
0.0
  0
LINE
  5
101AB
  8
0
 10
292.6088717023470167
 20
144.8736857799214874
 30
0.0
 11
292.7269820419469966
 21
144.8736857799214874
 31
0.0
  0
LINE
  5
101AC
  8
0
 10
292.6088717023470167
 20
137.0382054650214911
 30
0.0
 11
292.7269820419469966
 21
137.0382054650214911
 31
0.0
  0
LINE
  5
101AD
  8
0
 10
292.6088717023470167
 20
136.4476542838214925
 30
0.0
 11
292.7269820419469966
 21
136.4476542838214925
 31
0.0
  0
LINE
  5
101AE
  8
0
 10
292.6088717023470167
 20
135.4634023153215026
 30
0.0
 11
292.7269820419469966
 21
135.4634023153215026
 31
0.0
  0
LINE
  5
101AF
  8
0
 10
282.7271417810470098
 20
141.7862778577012932
 30
0.0
 11
282.7358052773470263
 21
141.7864505218012994
 31
0.0
  0
LINE
  5
101B0
  8
0
 10
282.7271417810470098
 20
142.7162433085013049
 30
0.0
 11
282.7358052773470263
 21
142.7160706444012988
 31
0.0
  0
LINE
  5
101B1
  8
0
 10
282.6679268204470077
 20
132.517874756357287
 30
0.0
 11
282.7137945477469998
 21
132.5178747563153081
 31
0.0
  0
ARC
  5
101B2
  8
0
 10
282.7137945477423955
 20
132.5128749494475926
 30
0.0
 40
0.0049998068677759
 50
19.5229742572677587
 51
89.9999999475510748
  0
ARC
  5
101B3
  8
0
 10
282.7279521178065238
 20
132.5178947975857966
 30
0.0
 40
0.0100213670360832
 50
199.5229742572726934
 51
266.8615605392661791
  0
ARC
  5
101B4
  8
0
 10
281.3691456361797236
 20
107.7361530578893962
 30
0.0
 40
24.8089447417186904
 50
86.8415247883060175
 51
86.8615605392662076
  0
ARC
  5
101B5
  8
0
 10
282.7327247188288766
 20
132.4468650464766881
 30
0.0
 40
0.0606390442057716
 50
56.3203693702914592
 51
86.8415247883060175
  0
ARC
  5
101B6
  8
0
 10
282.7338718807515079
 20
131.8416734376149009
 30
0.0
 40
0.1260262112477246
 50
75.0648709129499139
 51
89.1209780121296831
  0
ARC
  5
101B7
  8
0
 10
282.7261748154605812
 20
131.9898388349648997
 30
0.0
 40
0.0220026114695956
 50
235.7594030829129963
 51
272.5188326816194149
  0
LINE
  5
101B8
  8
0
 10
282.6679268204470077
 20
131.9716496700528126
 30
0.0
 11
282.7137946222470077
 21
131.971649669852809
 31
0.0
  0
ARC
  5
101B9
  8
0
 10
282.7130649318564224
 20
131.9770979420551953
 30
0.0
 40
0.0054969189605103
 50
277.6282641133597053
 51
351.9009155125136772
  0
LINE
  5
101BA
  8
0
 10
282.7185070240470282
 20
131.9763235063593072
 30
0.0
 11
282.7185069035469951
 21
132.5145458089527892
 31
0.0
  0
LINE
  5
101BB
  8
0
 10
282.6679268204470077
 20
131.7514073747528016
 30
0.0
 11
282.7663520172470157
 21
131.7514073747528016
 31
0.0
  0
LINE
  5
101BC
  8
0
 10
282.7663520172470157
 20
131.7814073747528028
 30
0.0
 11
282.6679268204470077
 21
131.7814073747528028
 31
0.0
  0
LINE
  5
101BD
  8
0
 10
282.6964781228469974
 20
131.7814073747528028
 30
0.0
 11
282.6964781228469974
 21
131.7514073747528016
 31
0.0
  0
LINE
  5
101BE
  8
0
 10
282.7404681014469929
 20
131.8178747563528077
 30
0.0
 11
282.7404681014469929
 21
131.7814073747528028
 31
0.0
  0
LINE
  5
101BF
  8
0
 10
282.7663520172470157
 20
131.8178747563528077
 30
0.0
 11
282.6679268204470077
 21
131.8178747563528077
 31
0.0
  0
LINE
  5
101C0
  8
0
 10
282.7529268204469872
 20
131.8256671166986109
 30
0.0
 11
282.7529268204469872
 21
131.8256671166986109
 31
0.0
  0
LINE
  5
101C1
  8
0
 10
282.7529268204469872
 20
131.8178747563528077
 30
0.0
 11
282.7529268204469872
 21
131.9461386772528044
 31
0.0
  0
LINE
  5
101C2
  8
0
 10
282.6679268204470077
 20
131.9576763698962907
 30
0.0
 11
282.6979505818470102
 21
131.957670547081392
 31
0.0
  0
ARC
  5
101C3
  8
0
 10
282.7261526808849794
 20
132.0620714892388037
 30
0.0
 40
0.1081430308133828
 50
254.8833433553348016
 51
268.290637795937414
  0
ARC
  5
101C4
  8
0
 10
282.7251207835900004
 20
131.8315102079546079
 30
0.0
 40
0.122486024849896
 50
81.6411792587486644
 51
91.0263338322581887
  0
ARC
  5
101C5
  8
0
 10
282.7386194265620816
 20
131.9299997926206913
 30
0.0
 40
0.023100419036449
 50
62.0722437505933797
 51
79.2535079261562885
  0
ARC
  5
101C6
  8
0
 10
282.7471693852011754
 20
131.9449967486835078
 30
0.0
 40
0.0058695878446662
 50
11.2184395783953708
 51
67.2556004483574554
  0
LINE
  5
101C7
  8
0
 10
282.6979505818470102
 20
131.957670547081392
 30
0.0
 11
282.6979357801470201
 21
131.8378747563527895
 31
0.0
  0
LINE
  5
101C8
  8
0
 10
282.6679268204470077
 20
131.8378747563527895
 30
0.0
 11
282.6979357801470201
 21
131.8378747563527895
 31
0.0
  0
ARC
  5
101C9
  8
0
 10
282.7280526878612932
 20
131.8781946253155866
 30
0.0
 40
0.0503261359876927
 50
233.2421243388008065
 51
266.8759566243834911
  0
ARC
  5
101CA
  8
0
 10
282.6571624335899742
 20
130.4861909515634011
 30
0.0
 40
1.3434818210750421
 50
86.7224636378882536
 51
87.0924462708742055
  0
ARC
  5
101CB
  8
0
 10
282.7329038328470006
 20
131.8075310195528118
 30
0.0
 40
0.0199728577999689
 50
31.19080111397178
 51
86.9320261513296231
  0
LINE
  5
101CC
  8
0
 10
282.7306556098470196
 20
131.8276610990519089
 30
0.0
 11
282.7306556098470196
 21
131.8178747563528077
 31
0.0
  0
LINE
  5
101CD
  8
0
 10
282.7253093297470059
 20
131.918658348721209
 30
0.0
 11
282.7253093297470059
 21
131.8279433173752864
 31
0.0
  0
LINE
  5
101CE
  8
0
 10
282.7229268204470145
 20
131.9539765821527908
 30
0.0
 11
282.7229268204470145
 21
131.9303747563527907
 31
0.0
  0
ARC
  5
101CF
  8
0
 10
282.7529268205212816
 20
131.9303747563527907
 30
0.0
 40
0.0300000000742955
 50
180.0000000000015916
 51
250.5287792651826919
  0
ARC
  5
101D0
  8
0
 10
282.7379268203903848
 20
131.8879483493477096
 30
0.0
 40
0.015000000095553
 50
0.0
 51
70.5287792651794234
  0
LINE
  5
101D1
  8
0
 10
282.6679268204470077
 20
130.4878747563421086
 30
0.0
 11
282.7137945477469998
 21
130.4878747563840875
 31
0.0
  0
ARC
  5
101D2
  8
0
 10
282.7137945477423955
 20
130.4928745632518883
 30
0.0
 40
0.0049998068677759
 50
270.000000052448911
 51
340.4770257427322235
  0
ARC
  5
101D3
  8
0
 10
282.7279521178065238
 20
130.4878547151137127
 30
0.0
 40
0.0100213670360832
 50
93.1384394607337924
 51
160.4770257427273066
  0
ARC
  5
101D4
  8
0
 10
281.3691456361797236
 20
155.2695964548099994
 30
0.0
 40
24.8089447417186904
 50
273.1384394607338209
 51
273.1584752116939967
  0
ARC
  5
101D5
  8
0
 10
282.7327247188288766
 20
130.5588844662227075
 30
0.0
 40
0.0606390442057716
 50
273.1584752116939967
 51
303.6796306297085835
  0
ARC
  5
101D6
  8
0
 10
282.7338718807515079
 20
131.1640760750906907
 30
0.0
 40
0.1260262112477246
 50
270.8790219878703169
 51
284.9351290870500861
  0
ARC
  5
101D7
  8
0
 10
282.7261748154605812
 20
131.0159106777406066
 30
0.0
 40
0.0220026114695956
 50
87.4811673183806846
 51
124.2405969170870037
  0
LINE
  5
101D8
  8
0
 10
282.6679268204470077
 20
131.0340998426528074
 30
0.0
 11
282.7137946222470077
 21
131.034099842852811
 31
0.0
  0
ARC
  5
101D9
  8
0
 10
282.7130649318564224
 20
131.028651570650311
 30
0.0
 40
0.0054969189605103
 50
8.0990844874863033
 51
82.3717358866403657
  0
LINE
  5
101DA
  8
0
 10
282.7185070240470282
 20
131.0294260063461991
 30
0.0
 11
282.7185069035469951
 21
130.4912037037466916
 31
0.0
  0
LINE
  5
101DB
  8
0
 10
282.6679268204470077
 20
131.2214073747528005
 30
0.0
 11
282.7663520172470157
 21
131.2214073747528005
 31
0.0
  0
LINE
  5
101DC
  8
0
 10
282.7663520172470157
 20
131.1914073747527993
 30
0.0
 11
282.6679268204470077
 21
131.1914073747527993
 31
0.0
  0
LINE
  5
101DD
  8
0
 10
282.6964781228469974
 20
131.1914073747527993
 30
0.0
 11
282.6964781228469974
 21
131.2214073747528005
 31
0.0
  0
LINE
  5
101DE
  8
0
 10
282.7404681014469929
 20
131.1878747563528123
 30
0.0
 11
282.7404681014469929
 21
131.1914073747527993
 31
0.0
  0
LINE
  5
101DF
  8
0
 10
282.7663520172470157
 20
131.1878747563528123
 30
0.0
 11
282.6679268204470077
 21
131.1878747563528123
 31
0.0
  0
LINE
  5
101E0
  8
0
 10
282.7529268204469872
 20
131.180082396007009
 30
0.0
 11
282.7529268204469872
 21
131.180082396007009
 31
0.0
  0
LINE
  5
101E1
  8
0
 10
282.7529268204469872
 20
131.1878747563528123
 30
0.0
 11
282.7529268204469872
 21
131.0596108354527871
 31
0.0
  0
LINE
  5
101E2
  8
0
 10
282.6679268204470077
 20
131.0480731428093009
 30
0.0
 11
282.6979505818470102
 21
131.0480789656241996
 31
0.0
  0
ARC
  5
101E3
  8
0
 10
282.7261526808849794
 20
130.9436780234667026
 30
0.0
 40
0.1081430308133828
 50
91.7093622040593601
 51
105.1166566446651984
  0
ARC
  5
101E4
  8
0
 10
282.7251207835900004
 20
131.174239304751012
 30
0.0
 40
0.122486024849896
 50
268.9736661677417828
 51
278.3588207412512929
  0
ARC
  5
101E5
  8
0
 10
282.7386194265620816
 20
131.0757497200849002
 30
0.0
 40
0.023100419036449
 50
280.7464920738436831
 51
297.9277562494066274
  0
ARC
  5
101E6
  8
0
 10
282.7471693852011754
 20
131.0607527640219985
 30
0.0
 40
0.0058695878446662
 50
292.744399551642573
 51
348.7815604216045813
  0
LINE
  5
101E7
  8
0
 10
282.6979505818470102
 20
131.0480789656241996
 30
0.0
 11
282.6979357801470201
 21
131.167874756352802
 31
0.0
  0
LINE
  5
101E8
  8
0
 10
282.6679268204470077
 20
131.167874756352802
 30
0.0
 11
282.6979357801470201
 21
131.167874756352802
 31
0.0
  0
ARC
  5
101E9
  8
0
 10
282.7280526878612932
 20
131.127554887390005
 30
0.0
 40
0.0503261359876927
 50
93.1240433756165658
 51
126.7578756611991935
  0
ARC
  5
101EA
  8
0
 10
282.6571624335899742
 20
132.5195585611421052
 30
0.0
 40
1.3434818210750421
 50
272.9075537291225828
 51
273.2775363621116753
  0
ARC
  5
101EB
  8
0
 10
282.7329038328470006
 20
131.1982184931526945
 30
0.0
 40
0.0199728577999689
 50
273.0679738486704196
 51
328.8091988860282981
  0
LINE
  5
101EC
  8
0
 10
282.7306556098470196
 20
131.1780884136535974
 30
0.0
 11
282.7306556098470196
 21
131.1878747563528123
 31
0.0
  0
LINE
  5
101ED
  8
0
 10
282.7253093297470059
 20
131.087091163984411
 30
0.0
 11
282.7253093297470059
 21
131.1778061953301915
 31
0.0
  0
LINE
  5
101EE
  8
0
 10
282.7229268204470145
 20
131.0517729305528007
 30
0.0
 11
282.7229268204470145
 21
131.0753747563528009
 31
0.0
  0
ARC
  5
101EF
  8
0
 10
282.7529268205212816
 20
131.0753747563528009
 30
0.0
 40
0.0300000000742955
 50
109.4712207348171944
 51
179.9999999999974989
  0
ARC
  5
101F0
  8
0
 10
282.7379268203903848
 20
131.1178011633577967
 30
0.0
 40
0.015000000095553
 50
289.4712207348205766
 51
0.0
  0
LINE
  5
101F1
  8
0
 10
282.7271417810470098
 20
131.0378920309528041
 30
0.0
 11
282.7358052773470263
 21
131.0380646950528103
 31
0.0
  0
LINE
  5
101F2
  8
0
 10
282.7271417810470098
 20
131.9678574817527874
 30
0.0
 11
282.7358052773470263
 21
131.9676848176528097
 31
0.0
  0
LINE
  5
101F3
  8
0
 10
282.6679268204470077
 20
129.2432763311215069
 30
0.0
 11
282.7663520173470033
 21
129.2432763311215069
 31
0.0
  0
LINE
  5
101F4
  8
0
 10
304.6758009395470026
 20
156.6453393232214921
 30
0.0
 11
304.6758009395470026
 21
122.2752603468214971
 31
0.0
  0
LINE
  5
101F5
  8
0
 10
302.6679269238470056
 20
156.6453393232214921
 30
0.0
 11
302.6679269238470056
 21
122.2752603468214971
 31
0.0
  0
LINE
  5
101F6
  8
0
 10
304.6758009395470026
 20
122.2752603468214971
 30
0.0
 11
302.6679269238470056
 21
122.2752603468214971
 31
0.0
  0
LINE
  5
101F7
  8
0
 10
304.5576909395470011
 20
122.1571503468214956
 30
0.0
 11
302.7860369238470071
 21
122.1571503468214956
 31
0.0
  0
LINE
  5
101F8
  8
0
 10
304.6758009395470026
 20
122.2752603468214971
 30
0.0
 11
304.5576909395470011
 21
122.1571503468214956
 31
0.0
  0
LINE
  5
101F9
  8
0
 10
302.7860369238470071
 20
122.1571503468214956
 30
0.0
 11
302.6679269238470056
 21
122.2752603468214971
 31
0.0
  0
LINE
  5
101FA
  8
0
 10
304.065545020185823
 20
122.0768353842132967
 30
0.0
 11
303.2781828298470259
 21
122.0768353842132967
 31
0.0
  0
LINE
  5
101FB
  8
0
 10
304.065545020185823
 20
122.0768353842132967
 30
0.0
 11
304.065545020185823
 21
122.1571503468214956
 31
0.0
  0
LINE
  5
101FC
  8
0
 10
304.0652115409858993
 20
122.1571503468214956
 30
0.0
 11
304.0652115409858993
 21
122.0768353842132967
 31
0.0
  0
LINE
  5
101FD
  8
0
 10
304.064799446885786
 20
122.0768353842132967
 30
0.0
 11
304.064799446885786
 21
122.1571503468214956
 31
0.0
  0
LINE
  5
101FE
  8
0
 10
304.0637999232857283
 20
122.1571503468214956
 30
0.0
 11
304.0637999232857283
 21
122.0768353842132967
 31
0.0
  0
LINE
  5
101FF
  8
0
 10
304.0629768645858917
 20
122.0768353842132967
 30
0.0
 11
304.0629768645858917
 21
122.1571503468214956
 31
0.0
  0
LINE
  5
10200
  8
0
 10
304.0613140362858076
 20
122.1571503468214956
 30
0.0
 11
304.0613140362858076
 21
122.0768353842132967
 31
0.0
  0
LINE
  5
10201
  8
0
 10
304.0600822688858216
 20
122.0768353842132967
 30
0.0
 11
304.0600822688858216
 21
122.1571503468214956
 31
0.0
  0
LINE
  5
10202
  8
0
 10
304.0577606935859194
 20
122.1571503468214956
 30
0.0
 11
304.0577606935859194
 21
122.0768353842132967
 31
0.0
  0
LINE
  5
10203
  8
0
 10
304.0561235935858235
 20
122.0768353842132967
 30
0.0
 11
304.0561235935858235
 21
122.1571503468214956
 31
0.0
  0
LINE
  5
10204
  8
0
 10
304.0531496345857931
 20
122.1571503468214956
 30
0.0
 11
304.0531496345857931
 21
122.0768353842132967
 31
0.0
  0
LINE
  5
10205
  8
0
 10
304.0511437917858757
 20
122.1571503468214956
 30
0.0
 11
304.0511437917858757
 21
122.0768353842132967
 31
0.0
  0
LINE
  5
10206
  8
0
 10
304.0474934979857835
 20
122.1571503468214956
 30
0.0
 11
304.0474934979857835
 21
122.0768353842132967
 31
0.0
  0
LINE
  5
10207
  8
0
 10
304.0450602932859283
 20
122.0768353842132967
 30
0.0
 11
304.0450602932859283
 21
122.1571503468214956
 31
0.0
  0
LINE
  5
10208
  8
0
 10
304.0408077867858765
 20
122.1571503468214956
 30
0.0
 11
304.0408077867858765
 21
122.0768353842132967
 31
0.0
  0
LINE
  5
10209
  8
0
 10
304.0379859918858756
 20
122.0768353842132967
 30
0.0
 11
304.0379859918858756
 21
122.1571503468214956
 31
0.0
  0
LINE
  5
1020A
  8
0
 10
304.0331108260858173
 20
122.1571503468214956
 30
0.0
 11
304.0331108260858173
 21
122.0768353842132967
 31
0.0
  0
LINE
  5
1020B
  8
0
 10
304.0299081753859127
 20
122.0768353842132967
 30
0.0
 11
304.0299081753859127
 21
122.1571503468214956
 31
0.0
  0
LINE
  5
1020C
  8
0
 10
304.0244237127856763
 20
122.1571503468214956
 30
0.0
 11
304.0244237127856763
 21
122.0768353842132967
 31
0.0
  0
LINE
  5
1020D
  8
0
 10
304.020848984385907
 20
122.0768353842132967
 30
0.0
 11
304.020848984385907
 21
122.1571503468214956
 31
0.0
  0
LINE
  5
1020E
  8
0
 10
304.0147702574857931
 20
122.1571503468214956
 30
0.0
 11
304.0147702574857931
 21
122.0768353842132967
 31
0.0
  0
LINE
  5
1020F
  8
0
 10
304.0113777568857927
 20
122.0768353842132967
 30
0.0
 11
304.0113777568857927
 21
122.1571503468214956
 31
0.0
  0
LINE
  5
10210
  8
0
 10
304.0108332495860282
 20
122.0768353842132967
 30
0.0
 11
304.0108332495860282
 21
122.1571503468214956
 31
0.0
  0
LINE
  5
10211
  8
0
 10
304.0041769197858912
 20
122.1571503468214956
 30
0.0
 11
304.0041769197858912
 21
122.0768353842132967
 31
0.0
  0
LINE
  5
10212
  8
0
 10
304.0008915768859197
 20
122.0768353842132967
 30
0.0
 11
304.0008915768859197
 21
122.1571503468214956
 31
0.0
  0
LINE
  5
10213
  8
0
 10
303.9998884234859133
 20
122.0768353842132967
 30
0.0
 11
303.9998884234859133
 21
122.1571503468214956
 31
0.0
  0
LINE
  5
10214
  8
0
 10
303.9926727352856801
 20
122.1571503468214956
 30
0.0
 11
303.9926727352856801
 21
122.0768353842132967
 31
0.0
  0
LINE
  5
10215
  8
0
 10
303.9895035549859017
 20
122.0768353842132967
 30
0.0
 11
303.9895035549859017
 21
122.1571503468214956
 31
0.0
  0
LINE
  5
10216
  8
0
 10
303.988044504985794
 20
122.0768353842132967
 30
0.0
 11
303.988044504985794
 21
122.1571503468214956
 31
0.0
  0
LINE
  5
10217
  8
0
 10
303.9802892360859232
 20
122.1571503468214956
 30
0.0
 11
303.9802892360859232
 21
122.0768353842132967
 31
0.0
  0
LINE
  5
10218
  8
0
 10
303.9772449048858789
 20
122.0768353842132967
 30
0.0
 11
303.9772449048858789
 21
122.1571503468214956
 31
0.0
  0
LINE
  5
10219
  8
0
 10
303.975333957485816
 20
122.0768353842132967
 30
0.0
 11
303.975333957485816
 21
122.1571503468214956
 31
0.0
  0
LINE
  5
1021A
  8
0
 10
303.9670603645857909
 20
122.1571503468214956
 30
0.0
 11
303.9670603645857909
 21
122.0768353842132967
 31
0.0
  0
LINE
  5
1021B
  8
0
 10
303.9641492266858904
 20
122.0768353842132967
 30
0.0
 11
303.9641492266858904
 21
122.1571503468214956
 31
0.0
  0
LINE
  5
1021C
  8
0
 10
303.9617916195858243
 20
122.0768353842132967
 30
0.0
 11
303.9617916195858243
 21
122.1571503468214956
 31
0.0
  0
LINE
  5
1021D
  8
0
 10
303.9530223800858266
 20
122.1571503468214956
 30
0.0
 11
303.9530223800858266
 21
122.0768353842132967
 31
0.0
  0
LINE
  5
1021E
  8
0
 10
303.9502524148858242
 20
122.0768353842132967
 30
0.0
 11
303.9502524148858242
 21
122.1571503468214956
 31
0.0
  0
LINE
  5
1021F
  8
0
 10
303.9474546101859005
 20
122.0768353842132967
 30
0.0
 11
303.9474546101859005
 21
122.1571503468214956
 31
0.0
  0
LINE
  5
10220
  8
0
 10
303.9382137597858105
 20
122.1571503468214956
 30
0.0
 11
303.9382137597858105
 21
122.0768353842132967
 31
0.0
  0
LINE
  5
10221
  8
0
 10
303.9355925594858263
 20
122.0768353842132967
 30
0.0
 11
303.9355925594858263
 21
122.1571503468214956
 31
0.0
  0
LINE
  5
10222
  8
0
 10
303.9323622256857789
 20
122.0768353842132967
 30
0.0
 11
303.9323622256857789
 21
122.1571503468214956
 31
0.0
  0
LINE
  5
10223
  8
0
 10
303.9226750930857861
 20
122.1571503468214956
 30
0.0
 11
303.9226750930857861
 21
122.0768353842132967
 31
0.0
  0
LINE
  5
10224
  8
0
 10
303.9202098422857716
 20
122.0768353842132967
 30
0.0
 11
303.9202098422857716
 21
122.1571503468214956
 31
0.0
  0
LINE
  5
10225
  8
0
 10
303.9165558335859032
 20
122.0768353842132967
 30
0.0
 11
303.9165558335859032
 21
122.1571503468214956
 31
0.0
  0
LINE
  5
10226
  8
0
 10
303.9064489703858953
 20
122.1571503468214956
 30
0.0
 11
303.9064489703858953
 21
122.0768353842132967
 31
0.0
  0
LINE
  5
10227
  8
0
 10
303.9041464260856742
 20
122.0768353842132967
 30
0.0
 11
303.9041464260856742
 21
122.1571503468214956
 31
0.0
  0
LINE
  5
10228
  8
0
 10
303.900078757885808
 20
122.0768353842132967
 30
0.0
 11
303.900078757885808
 21
122.1571503468214956
 31
0.0
  0
LINE
  5
10229
  8
0
 10
303.8895798663858159
 20
122.1571503468214956
 30
0.0
 11
303.8895798663858159
 21
122.0768353842132967
 31
0.0
  0
LINE
  5
1022A
  8
0
 10
303.8874463397859245
 20
122.0768353842132967
 30
0.0
 11
303.8874463397859245
 21
122.1571503468214956
 31
0.0
  0
LINE
  5
1022B
  8
0
 10
303.8829761611859226
 20
122.0768353842132967
 30
0.0
 11
303.8829761611859226
 21
122.1571503468214956
 31
0.0
  0
LINE
  5
1022C
  8
0
 10
303.8721140180858811
 20
122.1571503468214956
 30
0.0
 11
303.8721140180858811
 21
122.0768353842132967
 31
0.0
  0
LINE
  5
1022D
  8
0
 10
303.8701553569858902
 20
122.0768353842132967
 30
0.0
 11
303.8701553569858902
 21
122.1571503468214956
 31
0.0
  0
LINE
  5
1022E
  8
0
 10
303.8653991183858807
 20
122.1571503468214956
 30
0.0
 11
303.8653991183858807
 21
122.0768353842132967
 31
0.0
  0
LINE
  5
1022F
  8
0
 10
303.8540992981858153
 20
122.1571503468214956
 30
0.0
 11
303.8540992981858153
 21
122.0768353842132967
 31
0.0
  0
LINE
  5
10230
  8
0
 10
303.852320871085908
 20
122.0768353842132967
 30
0.0
 11
303.852320871085908
 21
122.1571503468214956
 31
0.0
  0
LINE
  5
10231
  8
0
 10
303.8470834987858211
 20
122.0768353842132967
 30
0.0
 11
303.8470834987858211
 21
122.1571503468214956
 31
0.0
  0
LINE
  5
10232
  8
0
 10
303.8355850837858156
 20
122.1571503468214956
 30
0.0
 11
303.8355850837858156
 21
122.0768353842132967
 31
0.0
  0
LINE
  5
10233
  8
0
 10
303.8339917652858162
 20
122.0768353842132967
 30
0.0
 11
303.8339917652858162
 21
122.1571503468214956
 31
0.0
  0
LINE
  5
10234
  8
0
 10
303.8283918124859042
 20
122.0768353842132967
 30
0.0
 11
303.8283918124859042
 21
122.1571503468214956
 31
0.0
  0
LINE
  5
10235
  8
0
 10
303.8166221210856861
 20
122.1571503468214956
 30
0.0
 11
303.8166221210856861
 21
122.0768353842132967
 31
0.0
  0
LINE
  5
10236
  8
0
 10
303.8152182782858972
 20
122.0768353842132967
 30
0.0
 11
303.8152182782858972
 21
122.1571503468214956
 31
0.0
  0
LINE
  5
10237
  8
0
 10
303.8092710940857728
 20
122.0768353842132967
 30
0.0
 11
303.8092710940857728
 21
122.1571503468214956
 31
0.0
  0
LINE
  5
10238
  8
0
 10
303.7972623861858779
 20
122.1571503468214956
 30
0.0
 11
303.7972623861858779
 21
122.0768353842132967
 31
0.0
  0
LINE
  5
10239
  8
0
 10
303.7960518669859766
 20
122.0768353842132967
 30
0.0
 11
303.7960518669859766
 21
122.1571503468214956
 31
0.0
  0
LINE
  5
1023A
  8
0
 10
303.7897737521859085
 20
122.0768353842132967
 30
0.0
 11
303.7897737521859085
 21
122.1571503468214956
 31
0.0
  0
LINE
  5
1023B
  8
0
 10
303.7775589427860155
 20
122.1571503468214956
 30
0.0
 11
303.7775589427860155
 21
122.0768353842132967
 31
0.0
  0
LINE
  5
1023C
  8
0
 10
303.7765450651858146
 20
122.0768353842132967
 30
0.0
 11
303.7765450651858146
 21
122.1571503468214956
 31
0.0
  0
LINE
  5
1023D
  8
0
 10
303.7699532275859156
 20
122.0768353842132967
 30
0.0
 11
303.7699532275859156
 21
122.1571503468214956
 31
0.0
  0
LINE
  5
1023E
  8
0
 10
303.7575657966858103
 20
122.1571503468214956
 30
0.0
 11
303.7575657966858103
 21
122.0768353842132967
 31
0.0
  0
LINE
  5
1023F
  8
0
 10
303.7567513395857759
 20
122.0768353842132967
 30
0.0
 11
303.7567513395857759
 21
122.1571503468214956
 31
0.0
  0
LINE
  5
10240
  8
0
 10
303.749863847085976
 20
122.0768353842132967
 30
0.0
 11
303.749863847085976
 21
122.1571503468214956
 31
0.0
  0
LINE
  5
10241
  8
0
 10
303.7373377476860128
 20
122.1571503468214956
 30
0.0
 11
303.7373377476860128
 21
122.0768353842132967
 31
0.0
  0
LINE
  5
10242
  8
0
 10
303.7367249434859104
 20
122.0768353842132967
 30
0.0
 11
303.7367249434859104
 21
122.1571503468214956
 31
0.0
  0
LINE
  5
10243
  8
0
 10
303.729560674185791
 20
122.0768353842132967
 30
0.0
 11
303.729560674185791
 21
122.1571503468214956
 31
0.0
  0
LINE
  5
10244
  8
0
 10
303.716930239485805
 20
122.1571503468214956
 30
0.0
 11
303.716930239485805
 21
122.0768353842132967
 31
0.0
  0
LINE
  5
10245
  8
0
 10
303.7165207677858803
 20
122.0768353842132967
 30
0.0
 11
303.7165207677858803
 21
122.1571503468214956
 31
0.0
  0
LINE
  5
10246
  8
0
 10
303.7090993583860268
 20
122.0768353842132967
 30
0.0
 11
303.7090993583860268
 21
122.1571503468214956
 31
0.0
  0
LINE
  5
10247
  8
0
 10
303.6963992075857846
 20
122.1571503468214956
 30
0.0
 11
303.6963992075857846
 21
122.0768353842132967
 31
0.0
  0
LINE
  5
10248
  8
0
 10
303.68853598288581
 20
122.0768353842132967
 30
0.0
 11
303.68853598288581
 21
122.1571503468214956
 31
0.0
  0
LINE
  5
10249
  8
0
 10
303.6758009261859002
 20
122.1571503468214956
 30
0.0
 11
303.6758009261859002
 21
122.0768353842132967
 31
0.0
  0
LINE
  5
1024A
  8
0
 10
303.6679269104857894
 20
122.0768353842132967
 30
0.0
 11
303.6679269104857894
 21
122.1571503468214956
 31
0.0
  0
LINE
  5
1024B
  8
0
 10
303.6551918537858228
 20
122.1571503468214956
 30
0.0
 11
303.6551918537858228
 21
122.0768353842132967
 31
0.0
  0
LINE
  5
1024C
  8
0
 10
303.6473286290857914
 20
122.0768353842132967
 30
0.0
 11
303.6473286290857914
 21
122.1571503468214956
 31
0.0
  0
LINE
  5
1024D
  8
0
 10
303.6346284782858902
 20
122.1571503468214956
 30
0.0
 11
303.6346284782858902
 21
122.0768353842132967
 31
0.0
  0
LINE
  5
1024E
  8
0
 10
303.627207068885923
 20
122.0768353842132967
 30
0.0
 11
303.627207068885923
 21
122.1571503468214956
 31
0.0
  0
LINE
  5
1024F
  8
0
 10
303.6267975971858277
 20
122.0768353842132967
 30
0.0
 11
303.6267975971858277
 21
122.1571503468214956
 31
0.0
  0
LINE
  5
10250
  8
0
 10
303.6141671625858862
 20
122.1571503468214956
 30
0.0
 11
303.6141671625858862
 21
122.0768353842132967
 31
0.0
  0
LINE
  5
10251
  8
0
 10
303.6070028931860065
 20
122.0768353842132967
 30
0.0
 11
303.6070028931860065
 21
122.1571503468214956
 31
0.0
  0
LINE
  5
10252
  8
0
 10
303.6063900889859042
 20
122.0768353842132967
 30
0.0
 11
303.6063900889859042
 21
122.1571503468214956
 31
0.0
  0
LINE
  5
10253
  8
0
 10
303.5938639895858842
 20
122.1571503468214956
 30
0.0
 11
303.5938639895858842
 21
122.0768353842132967
 31
0.0
  0
LINE
  5
10254
  8
0
 10
303.5869764970859137
 20
122.0768353842132967
 30
0.0
 11
303.5869764970859137
 21
122.1571503468214956
 31
0.0
  0
LINE
  5
10255
  8
0
 10
303.5861620399858793
 20
122.0768353842132967
 30
0.0
 11
303.5861620399858793
 21
122.1571503468214956
 31
0.0
  0
LINE
  5
10256
  8
0
 10
303.5737746090858877
 20
122.1571503468214956
 30
0.0
 11
303.5737746090858877
 21
122.0768353842132967
 31
0.0
  0
LINE
  5
10257
  8
0
 10
303.5671827714858182
 20
122.0768353842132967
 30
0.0
 11
303.5671827714858182
 21
122.1571503468214956
 31
0.0
  0
LINE
  5
10258
  8
0
 10
303.566284149585897
 20
122.1571503468214956
 30
0.0
 11
303.566284149585897
 21
122.0768353842132967
 31
0.0
  0
LINE
  5
10259
  8
0
 10
303.5539540844857811
 20
122.1571503468214956
 30
0.0
 11
303.5539540844857811
 21
122.0768353842132967
 31
0.0
  0
LINE
  5
1025A
  8
0
 10
303.5476759696858835
 20
122.0768353842132967
 30
0.0
 11
303.5476759696858835
 21
122.1571503468214956
 31
0.0
  0
LINE
  5
1025B
  8
0
 10
303.5464654504859254
 20
122.0768353842132967
 30
0.0
 11
303.5464654504859254
 21
122.1571503468214956
 31
0.0
  0
LINE
  5
1025C
  8
0
 10
303.5344567425858031
 20
122.1571503468214956
 30
0.0
 11
303.5344567425858031
 21
122.0768353842132967
 31
0.0
  0
LINE
  5
1025D
  8
0
 10
303.5285095583856787
 20
122.0768353842132967
 30
0.0
 11
303.5285095583856787
 21
122.1571503468214956
 31
0.0
  0
LINE
  5
1025E
  8
0
 10
303.5271057155858898
 20
122.0768353842132967
 30
0.0
 11
303.5271057155858898
 21
122.1571503468214956
 31
0.0
  0
LINE
  5
1025F
  8
0
 10
303.5153360241857854
 20
122.1571503468214956
 30
0.0
 11
303.5153360241857854
 21
122.0768353842132967
 31
0.0
  0
LINE
  5
10260
  8
0
 10
303.5097360713858734
 20
122.0768353842132967
 30
0.0
 11
303.5097360713858734
 21
122.1571503468214956
 31
0.0
  0
LINE
  5
10261
  8
0
 10
303.508142752885874
 20
122.0768353842132967
 30
0.0
 11
303.508142752885874
 21
122.1571503468214956
 31
0.0
  0
LINE
  5
10262
  8
0
 10
303.4966443378859253
 20
122.1571503468214956
 30
0.0
 11
303.4966443378859253
 21
122.0768353842132967
 31
0.0
  0
LINE
  5
10263
  8
0
 10
303.4914069655858953
 20
122.0768353842132967
 30
0.0
 11
303.4914069655858953
 21
122.1571503468214956
 31
0.0
  0
LINE
  5
10264
  8
0
 10
303.4896285384858174
 20
122.0768353842132967
 30
0.0
 11
303.4896285384858174
 21
122.1571503468214956
 31
0.0
  0
LINE
  5
10265
  8
0
 10
303.4784329162858967
 20
122.1571503468214956
 30
0.0
 11
303.4784329162858967
 21
122.0768353842132967
 31
0.0
  0
LINE
  5
10266
  8
0
 10
303.4735724797859007
 20
122.0768353842132967
 30
0.0
 11
303.4735724797859007
 21
122.1571503468214956
 31
0.0
  0
LINE
  5
10267
  8
0
 10
303.4716138185856948
 20
122.0768353842132967
 30
0.0
 11
303.4716138185856948
 21
122.1571503468214956
 31
0.0
  0
LINE
  5
10268
  8
0
 10
303.4607516755858114
 20
122.1571503468214956
 30
0.0
 11
303.4607516755858114
 21
122.0768353842132967
 31
0.0
  0
LINE
  5
10269
  8
0
 10
303.4562814969858096
 20
122.0768353842132967
 30
0.0
 11
303.4562814969858096
 21
122.1571503468214956
 31
0.0
  0
LINE
  5
1026A
  8
0
 10
303.4541479702858169
 20
122.0768353842132967
 30
0.0
 11
303.4541479702858169
 21
122.1571503468214956
 31
0.0
  0
LINE
  5
1026B
  8
0
 10
303.443649078885926
 20
122.1571503468214956
 30
0.0
 11
303.443649078885926
 21
122.0768353842132967
 31
0.0
  0
LINE
  5
1026C
  8
0
 10
303.4395814105859017
 20
122.0768353842132967
 30
0.0
 11
303.4395814105859017
 21
122.1571503468214956
 31
0.0
  0
LINE
  5
1026D
  8
0
 10
303.4372788662856806
 20
122.0768353842132967
 30
0.0
 11
303.4372788662856806
 21
122.1571503468214956
 31
0.0
  0
LINE
  5
1026E
  8
0
 10
303.427172003185774
 20
122.1571503468214956
 30
0.0
 11
303.427172003185774
 21
122.0768353842132967
 31
0.0
  0
LINE
  5
1026F
  8
0
 10
303.423517994385918
 20
122.0768353842132967
 30
0.0
 11
303.423517994385918
 21
122.1571503468214956
 31
0.0
  0
LINE
  5
10270
  8
0
 10
303.4210527435857898
 20
122.0768353842132967
 30
0.0
 11
303.4210527435857898
 21
122.1571503468214956
 31
0.0
  0
LINE
  5
10271
  8
0
 10
303.411365610985797
 20
122.1571503468214956
 30
0.0
 11
303.411365610985797
 21
122.0768353842132967
 31
0.0
  0
LINE
  5
10272
  8
0
 10
303.4081352771858064
 20
122.0768353842132967
 30
0.0
 11
303.4081352771858064
 21
122.1571503468214956
 31
0.0
  0
LINE
  5
10273
  8
0
 10
303.4055140768858791
 20
122.0768353842132967
 30
0.0
 11
303.4055140768858791
 21
122.1571503468214956
 31
0.0
  0
LINE
  5
10274
  8
0
 10
303.3962732265857767
 20
122.1571503468214956
 30
0.0
 11
303.3962732265857767
 21
122.0768353842132967
 31
0.0
  0
LINE
  5
10275
  8
0
 10
303.3934754217859222
 20
122.0768353842132967
 30
0.0
 11
303.3934754217859222
 21
122.1571503468214956
 31
0.0
  0
LINE
  5
10276
  8
0
 10
303.3907054565858061
 20
122.0768353842132967
 30
0.0
 11
303.3907054565858061
 21
122.1571503468214956
 31
0.0
  0
LINE
  5
10277
  8
0
 10
303.3819362170858085
 20
122.1571503468214956
 30
0.0
 11
303.3819362170858085
 21
122.0768353842132967
 31
0.0
  0
LINE
  5
10278
  8
0
 10
303.3795786099857992
 20
122.0768353842132967
 30
0.0
 11
303.3795786099857992
 21
122.1571503468214956
 31
0.0
  0
LINE
  5
10279
  8
0
 10
303.3766674721858863
 20
122.0768353842132967
 30
0.0
 11
303.3766674721858863
 21
122.1571503468214956
 31
0.0
  0
LINE
  5
1027A
  8
0
 10
303.3683938926470205
 20
122.1571503468214956
 30
0.0
 11
303.3683938926470205
 21
122.0768353842132967
 31
0.0
  0
LINE
  5
1027B
  8
0
 10
303.3664829451470268
 20
122.0768353842132967
 30
0.0
 11
303.3664829451470268
 21
122.1571503468214956
 31
0.0
  0
LINE
  5
1027C
  8
0
 10
303.3634386005858801
 20
122.0768353842132967
 30
0.0
 11
303.3634386005858801
 21
122.1571503468214956
 31
0.0
  0
LINE
  5
1027D
  8
0
 10
303.3556833450469981
 20
122.0768353842132967
 30
0.0
 11
303.3556833450469981
 21
122.1571503468214956
 31
0.0
  0
LINE
  5
1027E
  8
0
 10
303.3542242951469916
 20
122.0768353842132967
 30
0.0
 11
303.3542242951469916
 21
122.1571503468214956
 31
0.0
  0
LINE
  5
1027F
  8
0
 10
303.3510551147469982
 20
122.0768353842132967
 30
0.0
 11
303.3510551147469982
 21
122.1571503468214956
 31
0.0
  0
LINE
  5
10280
  8
0
 10
303.3438394265469924
 20
122.0768353842132967
 30
0.0
 11
303.3438394265469924
 21
122.1571503468214956
 31
0.0
  0
LINE
  5
10281
  8
0
 10
303.3428362731469861
 20
122.0768353842132967
 30
0.0
 11
303.3428362731469861
 21
122.1571503468214956
 31
0.0
  0
LINE
  5
10282
  8
0
 10
303.3395509302470145
 20
122.0768353842132967
 30
0.0
 11
303.3395509302470145
 21
122.1571503468214956
 31
0.0
  0
LINE
  5
10283
  8
0
 10
303.3328946004469913
 20
122.0768353842132967
 30
0.0
 11
303.3328946004469913
 21
122.1571503468214956
 31
0.0
  0
LINE
  5
10284
  8
0
 10
303.3323500932469869
 20
122.0768353842132967
 30
0.0
 11
303.3323500932469869
 21
122.1571503468214956
 31
0.0
  0
LINE
  5
10285
  8
0
 10
303.3290163907469719
 20
122.0768353842132967
 30
0.0
 11
303.3290163907469719
 21
122.1571503468214956
 31
0.0
  0
LINE
  5
10286
  8
0
 10
303.3228788656469987
 20
122.0768353842132967
 30
0.0
 11
303.3228788656469987
 21
122.1571503468214956
 31
0.0
  0
LINE
  5
10287
  8
0
 10
303.3193041373469896
 20
122.0768353842132967
 30
0.0
 11
303.3193041373469896
 21
122.1571503468214956
 31
0.0
  0
LINE
  5
10288
  8
0
 10
303.3138196747469806
 20
122.0768353842132967
 30
0.0
 11
303.3138196747469806
 21
122.1571503468214956
 31
0.0
  0
LINE
  5
10289
  8
0
 10
303.3106170239469748
 20
122.0768353842132967
 30
0.0
 11
303.3106170239469748
 21
122.1571503468214956
 31
0.0
  0
LINE
  5
1028A
  8
0
 10
303.3057418581469733
 20
122.0768353842132967
 30
0.0
 11
303.3057418581469733
 21
122.1571503468214956
 31
0.0
  0
LINE
  5
1028B
  8
0
 10
303.3029200632469724
 20
122.0768353842132967
 30
0.0
 11
303.3029200632469724
 21
122.1571503468214956
 31
0.0
  0
LINE
  5
1028C
  8
0
 10
303.2986675567469774
 20
122.0768353842132967
 30
0.0
 11
303.2986675567469774
 21
122.1571503468214956
 31
0.0
  0
LINE
  5
1028D
  8
0
 10
303.2962343520470085
 20
122.0768353842132967
 30
0.0
 11
303.2962343520470085
 21
122.1571503468214956
 31
0.0
  0
LINE
  5
1028E
  8
0
 10
303.2926161607470021
 20
122.0768353842132967
 30
0.0
 11
303.2926161607470021
 21
122.1571503468214956
 31
0.0
  0
LINE
  5
1028F
  8
0
 10
303.2905782154469989
 20
122.0768353842132967
 30
0.0
 11
303.2905782154469989
 21
122.1571503468214956
 31
0.0
  0
LINE
  5
10290
  8
0
 10
303.2876042564470254
 20
122.0768353842132967
 30
0.0
 11
303.2876042564470254
 21
122.1571503468214956
 31
0.0
  0
LINE
  5
10291
  8
0
 10
303.2859671564469863
 20
122.0768353842132967
 30
0.0
 11
303.2859671564469863
 21
122.1571503468214956
 31
0.0
  0
LINE
  5
10292
  8
0
 10
303.2836455812470149
 20
122.0768353842132967
 30
0.0
 11
303.2836455812470149
 21
122.1571503468214956
 31
0.0
  0
LINE
  5
10293
  8
0
 10
303.2824138137469845
 20
122.0768353842132967
 30
0.0
 11
303.2824138137469845
 21
122.1571503468214956
 31
0.0
  0
LINE
  5
10294
  8
0
 10
303.280750985447014
 20
122.0768353842132967
 30
0.0
 11
303.280750985447014
 21
122.1571503468214956
 31
0.0
  0
LINE
  5
10295
  8
0
 10
303.2799279267470069
 20
122.0768353842132967
 30
0.0
 11
303.2799279267470069
 21
122.1571503468214956
 31
0.0
  0
LINE
  5
10296
  8
0
 10
303.2789284031470061
 20
122.0768353842132967
 30
0.0
 11
303.2789284031470061
 21
122.1571503468214956
 31
0.0
  0
LINE
  5
10297
  8
0
 10
303.2785163090470064
 20
122.0768353842132967
 30
0.0
 11
303.2785163090470064
 21
122.1571503468214956
 31
0.0
  0
LINE
  5
10298
  8
0
 10
303.2781828298470259
 20
122.0768353842132967
 30
0.0
 11
303.2781828298470259
 21
122.1571503468214956
 31
0.0
  0
LINE
  5
10299
  8
0
 10
304.0065094317470198
 20
122.0768353842132967
 30
0.0
 11
304.0065094317470198
 21
122.0571503468215013
 31
0.0
  0
LINE
  5
1029A
  8
0
 10
304.0065094317470198
 20
122.0571503468215013
 30
0.0
 11
303.337218431746976
 21
122.0571503468215013
 31
0.0
  0
LINE
  5
1029B
  8
0
 10
303.337218431746976
 20
122.0571503468215013
 30
0.0
 11
303.337218431746976
 21
122.0768353842132967
 31
0.0
  0
LINE
  5
1029C
  8
0
 10
302.6679269238470056
 20
124.1250254910215034
 30
0.0
 11
300.1481012806469835
 21
126.6448511342214971
 31
0.0
  0
LINE
  5
1029D
  8
0
 10
302.6169743788469759
 20
128.2196542839214999
 30
0.0
 11
302.6169743788469759
 21
126.6448511342214971
 31
0.0
  0
LINE
  5
1029E
  8
0
 10
302.56950172694701
 20
128.3185676697214888
 30
0.0
 11
292.7269820419469966
 21
128.3185676697214888
 31
0.0
  0
LINE
  5
1029F
  8
0
 10
292.7269820419469966
 20
128.3185676697214888
 30
0.0
 11
292.7269820419469966
 21
145.3658117642214904
 31
0.0
  0
LINE
  5
102A0
  8
0
 10
292.7269820419469966
 20
145.3658117642214904
 30
0.0
 11
302.56950172694701
 21
145.3658117642214904
 31
0.0
  0
LINE
  5
102A1
  8
0
 10
302.56950172694701
 20
145.3658117642214904
 30
0.0
 11
302.56950172694701
 21
128.3185676697214888
 31
0.0
  0
LINE
  5
102A2
  8
0
 10
302.6285568450470009
 20
146.2122684571214961
 30
0.0
 11
302.6285568450470009
 21
145.4642369610214985
 31
0.0
  0
LINE
  5
102A3
  8
0
 10
302.56950172694701
 20
154.9721109768215115
 30
0.0
 11
302.56950172694701
 21
146.3106936539215042
 31
0.0
  0
ARC
  5
102A4
  8
0
 10
297.037690703346982
 20
150.2674101894214971
 30
0.0
 40
0.02
 50
270.0
 51
0.0
  0
LINE
  5
102A5
  8
0
 10
297.0576907033470206
 20
150.2674101894214971
 30
0.0
 11
297.0576907033470206
 21
151.0148117642214913
 31
0.0
  0
ARC
  5
102A6
  8
0
 10
297.037690703346982
 20
151.0148117642214913
 30
0.0
 40
0.02
 50
0.0
 51
90.0
  0
LINE
  5
102A7
  8
0
 10
302.6279269238469851
 20
156.6453393232214921
 30
0.0
 11
302.6279269238469851
 21
155.0705361736214911
 31
0.0
  0
LINE
  5
102A8
  8
0
 10
300.9406596802675153
 20
155.0705361736214911
 30
0.0
 11
300.8983146015013972
 21
154.9721109768215115
 31
0.0
  0
LINE
  5
102A9
  8
0
 10
294.6364308608469855
 20
155.0705361736214911
 30
0.0
 11
294.6364308608469855
 21
154.9721109768215115
 31
0.0
  0
LINE
  5
102AA
  8
0
 10
302.6470038427470968
 20
152.1000155771714901
 30
0.0
 11
302.6470038521471793
 21
152.0999260507715007
 31
0.0
  0
LINE
  5
102AB
  8
0
 10
302.6625535695467875
 20
152.9019087546215019
 30
0.0
 11
302.6625535695470148
 21
151.7480509185214999
 31
0.0
  0
ARC
  5
102AC
  8
0
 10
302.6932622309470275
 20
152.3025877610714929
 30
0.0
 40
0.2078740157
 50
233.461483934499114
 51
257.1422751273938161
  0
ARC
  5
102AD
  8
0
 10
302.6932622309470275
 20
152.3473719138715126
 30
0.0
 40
0.2078740157
 50
102.8577248726061981
 51
126.5385160655008008
  0
ARC
  5
102AE
  8
0
 10
302.6425535695469762
 20
152.56953221347149
 30
0.0
 40
0.02
 50
282.8576387029971784
 51
0.0
  0
ARC
  5
102AF
  8
0
 10
302.6425535695469762
 20
152.080427461471487
 30
0.0
 40
0.02
 50
0.0
 51
77.1423612970027506
  0
ARC
  5
102B0
  8
0
 10
302.6725535695470057
 20
152.9019087563214896
 30
0.0
 40
0.0099999999999875
 50
117.5591814447250982
 51
180.0000097403544999
  0
ARC
  5
102B1
  8
0
 10
302.6725535695463236
 20
151.748050918520903
 30
0.0
 40
0.0099999999990867
 50
179.9999999963563084
 51
242.4408185596356873
  0
LINE
  5
102B2
  8
0
 10
300.0081237742516009
 20
146.2122684571214961
 30
0.0
 11
300.0081237742095936
 21
146.2581361844214882
 31
0.0
  0
ARC
  5
102B3
  8
0
 10
300.0031239673418213
 20
146.2581361844169123
 30
0.0
 40
0.0049998068677759
 50
0.00000005244811
 51
70.4770257427309303
  0
ARC
  5
102B4
  8
0
 10
300.0081438154800253
 20
146.2722937544810122
 30
0.0
 40
0.0100213670360832
 50
183.1384394607337924
 51
250.4770257427273066
  0
ARC
  5
102B5
  8
0
 10
275.2264020757837102
 20
144.9134872728542121
 30
0.0
 40
24.8089447417186904
 50
3.1384394607338328
 51
3.158475211693879
  0
ARC
  5
102B6
  8
0
 10
299.9371140643709737
 20
146.2770663555033934
 30
0.0
 40
0.0606390442057716
 50
3.1584752116956838
 51
33.6796306297076526
  0
ARC
  5
102B7
  8
0
 10
299.3319224555090159
 20
146.2782135174259963
 30
0.0
 40
0.1260262112477246
 50
0.8790219878711184
 51
14.9351290870504307
  0
ARC
  5
102B8
  8
0
 10
156.0684443337117102
 20
143.4180506787151899
 30
0.0
 40
143.4180507971611007
 50
1.140026936901265
 51
1.143488707192458
  0
ARC
  5
102B9
  8
0
 10
299.4800878528591284
 20
146.270516452135098
 30
0.0
 40
0.0220026114695956
 50
177.481167318379903
 51
214.2405969170852131
  0
LINE
  5
102BA
  8
0
 10
299.4618986879469844
 20
146.2122684571214961
 30
0.0
 11
299.4618986877470093
 21
146.2581362589214962
 31
0.0
  0
ARC
  5
102BB
  8
0
 10
299.4673469599493956
 20
146.2574065685309108
 30
0.0
 40
0.0054969189605103
 50
98.0990844874863086
 51
172.3717358866404936
  0
LINE
  5
102BC
  8
0
 10
299.4665725242535927
 20
146.2628486607214882
 30
0.0
 11
300.0047948268469895
 21
146.2628485402215119
 31
0.0
  0
LINE
  5
102BD
  8
0
 10
299.2416563926469735
 20
146.2122684571214961
 30
0.0
 11
299.2416563926469735
 21
146.3106936539215042
 31
0.0
  0
LINE
  5
102BE
  8
0
 10
299.271656392647003
 20
146.3106936539215042
 30
0.0
 11
299.271656392647003
 21
146.2122684571214961
 31
0.0
  0
LINE
  5
102BF
  8
0
 10
299.271656392647003
 20
146.2408197595214858
 30
0.0
 11
299.2416563926469735
 21
146.2408197595214858
 31
0.0
  0
LINE
  5
102C0
  8
0
 10
299.308123774247008
 20
146.2848097381215098
 30
0.0
 11
299.271656392647003
 21
146.2848097381215098
 31
0.0
  0
LINE
  5
102C1
  8
0
 10
299.308123774247008
 20
146.3106936539215042
 30
0.0
 11
299.308123774247008
 21
146.2122684571214961
 31
0.0
  0
LINE
  5
102C2
  8
0
 10
299.3159161345927828
 20
146.2972684571215041
 30
0.0
 11
299.3159161345927828
 21
146.2972684571215041
 31
0.0
  0
LINE
  5
102C3
  8
0
 10
299.308123774247008
 20
146.2972684571215041
 30
0.0
 11
299.4363876951470047
 21
146.2972684571215041
 31
0.0
  0
LINE
  5
102C4
  8
0
 10
299.4479253877905194
 20
146.2122684571214961
 30
0.0
 11
299.4479195649756207
 21
146.2422922185214986
 31
0.0
  0
ARC
  5
102C5
  8
0
 10
299.552320507133004
 20
146.2704943175594963
 30
0.0
 40
0.1081430308133828
 50
181.7093622040609944
 51
195.116656644665909
  0
ARC
  5
102C6
  8
0
 10
299.3217592258487798
 20
146.2694624202644889
 30
0.0
 40
0.122486024849896
 50
358.973666167740987
 51
8.3588207412530728
  0
ARC
  5
102C7
  8
0
 10
299.42024881051492
 20
146.2829610632365984
 30
0.0
 40
0.023100419036449
 50
10.7464920738442107
 51
27.9277562494069684
  0
ARC
  5
102C8
  8
0
 10
299.4352457665776797
 20
146.2915110218758059
 30
0.0
 40
0.0058695878446662
 50
22.7443995516421005
 51
78.7815604216047944
  0
LINE
  5
102C9
  8
0
 10
299.4479195649756207
 20
146.2422922185214986
 30
0.0
 11
299.3281237742469898
 21
146.2422774168215085
 31
0.0
  0
LINE
  5
102CA
  8
0
 10
299.3281237742469898
 20
146.2122684571214961
 30
0.0
 11
299.3281237742469898
 21
146.2422774168215085
 31
0.0
  0
ARC
  5
102CB
  8
0
 10
299.3684436432097868
 20
146.27239432453581
 30
0.0
 40
0.0503261359876927
 50
183.1240433756163952
 51
216.7578756611974029
  0
ARC
  5
102CC
  8
0
 10
297.9764399694577151
 20
146.201504070264491
 30
0.0
 40
1.3434818210750421
 50
2.90755372912413
 51
3.277536362110943
  0
ARC
  5
102CD
  8
0
 10
299.2977800374470121
 20
146.277245469521489
 30
0.0
 40
0.0199728577999689
 50
3.0679738486696562
 51
58.8091988860277866
  0
LINE
  5
102CE
  8
0
 10
299.3179101169461092
 20
146.274997246521508
 30
0.0
 11
299.308123774247008
 21
146.274997246521508
 31
0.0
  0
LINE
  5
102CF
  8
0
 10
299.4089073666153809
 20
146.2696509664214943
 30
0.0
 11
299.3181923352694866
 21
146.2696509664214943
 31
0.0
  0
LINE
  5
102D0
  8
0
 10
299.4442256000469911
 20
146.2672684571215029
 30
0.0
 11
299.4206237742470194
 21
146.2672684571215029
 31
0.0
  0
ARC
  5
102D1
  8
0
 10
299.4206237742470194
 20
146.2972684571957984
 30
0.0
 40
0.0300000000742955
 50
199.4712207348179902
 51
269.9999999999968168
  0
ARC
  5
102D2
  8
0
 10
299.3781973672419099
 20
146.2822684570649017
 30
0.0
 40
0.015000000095553
 50
19.4712207348195392
 51
90.0
  0
LINE
  5
102D3
  8
0
 10
297.9781237742362805
 20
146.2122684571214961
 30
0.0
 11
297.9781237742784015
 21
146.2581361844214882
 31
0.0
  0
ARC
  5
102D4
  8
0
 10
297.983123581146117
 20
146.2581361844169123
 30
0.0
 40
0.0049998068677759
 50
109.5229742572690981
 51
179.9999999475519132
  0
ARC
  5
102D5
  8
0
 10
297.978103733007913
 20
146.2722937544810122
 30
0.0
 40
0.0100213670360832
 50
289.5229742572727218
 51
356.8615605392661791
  0
ARC
  5
102D6
  8
0
 10
322.7598454727042281
 20
144.9134872728542121
 30
0.0
 40
24.8089447417186904
 50
176.8415247883060886
 51
176.8615605392662076
  0
ARC
  5
102D7
  8
0
 10
298.0491334841170215
 20
146.2770663555033934
 30
0.0
 40
0.0606390442057716
 50
146.3203693702922976
 51
176.841524788304298
  0
ARC
  5
102D8
  8
0
 10
298.6543250929848909
 20
146.2782135174259963
 30
0.0
 40
0.1260262112477246
 50
165.0648709129494875
 51
179.1209780121288873
  0
ARC
  5
102D9
  8
0
 10
441.917803214782225
 20
143.4180506787151899
 30
0.0
 40
143.4180507971611007
 50
178.8565112928075109
 51
178.8599730630986926
  0
ARC
  5
102DA
  8
0
 10
298.5061596956347785
 20
146.270516452135098
 30
0.0
 40
0.0220026114695956
 50
325.7594030829142184
 51
2.5188326816200961
  0
LINE
  5
102DB
  8
0
 10
298.5243488605469793
 20
146.2122684571214961
 30
0.0
 11
298.5243488607470113
 21
146.2581362589214962
 31
0.0
  0
ARC
  5
102DC
  8
0
 10
298.5189005885445113
 20
146.2574065685309108
 30
0.0
 40
0.0054969189605103
 50
7.6282641133595162
 51
81.9009155125137056
  0
LINE
  5
102DD
  8
0
 10
298.5196750242404278
 20
146.2628486607214882
 30
0.0
 11
297.9814527216408919
 21
146.2628485402215119
 31
0.0
  0
LINE
  5
102DE
  8
0
 10
298.7116563926470008
 20
146.2122684571214961
 30
0.0
 11
298.7116563926470008
 21
146.3106936539215042
 31
0.0
  0
LINE
  5
102DF
  8
0
 10
298.681656392647028
 20
146.3106936539215042
 30
0.0
 11
298.681656392647028
 21
146.2122684571214961
 31
0.0
  0
LINE
  5
102E0
  8
0
 10
298.681656392647028
 20
146.2408197595214858
 30
0.0
 11
298.7116563926470008
 21
146.2408197595214858
 31
0.0
  0
LINE
  5
102E1
  8
0
 10
298.6781237742470125
 20
146.2848097381215098
 30
0.0
 11
298.681656392647028
 21
146.2848097381215098
 31
0.0
  0
LINE
  5
102E2
  8
0
 10
298.6781237742470125
 20
146.3106936539215042
 30
0.0
 11
298.6781237742470125
 21
146.2122684571214961
 31
0.0
  0
LINE
  5
102E3
  8
0
 10
298.6703314139011809
 20
146.2972684571215041
 30
0.0
 11
298.6703314139011809
 21
146.2972684571215041
 31
0.0
  0
LINE
  5
102E4
  8
0
 10
298.6781237742470125
 20
146.2972684571215041
 30
0.0
 11
298.5498598533470158
 21
146.2972684571215041
 31
0.0
  0
LINE
  5
102E5
  8
0
 10
298.5383221607035011
 20
146.2122684571214961
 30
0.0
 11
298.5383279835183998
 21
146.2422922185214986
 31
0.0
  0
ARC
  5
102E6
  8
0
 10
298.4339270413610166
 20
146.2704943175594963
 30
0.0
 40
0.1081430308133828
 50
344.8833433553339773
 51
358.2906377959390056
  0
ARC
  5
102E7
  8
0
 10
298.6644883226451839
 20
146.2694624202644889
 30
0.0
 40
0.122486024849896
 50
171.6411792587468881
 51
181.026333832259013
  0
ARC
  5
102E8
  8
0
 10
298.5659987379791005
 20
146.2829610632365984
 30
0.0
 40
0.023100419036449
 50
152.0722437505930031
 51
169.2535079261558053
  0
ARC
  5
102E9
  8
0
 10
298.5510017819162272
 20
146.2915110218758059
 30
0.0
 40
0.0058695878446662
 50
101.2184395783952056
 51
157.2556004483579102
  0
LINE
  5
102EA
  8
0
 10
298.5383279835183998
 20
146.2422922185214986
 30
0.0
 11
298.6581237742469739
 21
146.2422774168215085
 31
0.0
  0
LINE
  5
102EB
  8
0
 10
298.6581237742469739
 20
146.2122684571214961
 30
0.0
 11
298.6581237742469739
 21
146.2422774168215085
 31
0.0
  0
ARC
  5
102EC
  8
0
 10
298.61780390528412
 20
146.27239432453581
 30
0.0
 40
0.0503261359876927
 50
323.2421243388026255
 51
356.8759566243834911
  0
ARC
  5
102ED
  8
0
 10
300.0098075790364192
 20
146.201504070264491
 30
0.0
 40
1.3434818210750421
 50
176.7224636378890068
 51
177.0924462708759108
  0
ARC
  5
102EE
  8
0
 10
298.6884675110470084
 20
146.277245469521489
 30
0.0
 40
0.0199728577999689
 50
121.1908011139721992
 51
176.932026151330291
  0
LINE
  5
102EF
  8
0
 10
298.6683374315479114
 20
146.274997246521508
 30
0.0
 11
298.6781237742470125
 21
146.274997246521508
 31
0.0
  0
LINE
  5
102F0
  8
0
 10
298.5773401818785828
 20
146.2696509664214943
 30
0.0
 11
298.668055213224477
 21
146.2696509664214943
 31
0.0
  0
LINE
  5
102F1
  8
0
 10
298.5420219484469726
 20
146.2672684571215029
 30
0.0
 11
298.5656237742470012
 21
146.2672684571215029
 31
0.0
  0
ARC
  5
102F2
  8
0
 10
298.5656237742470012
 20
146.2972684571957984
 30
0.0
 40
0.0300000000742955
 50
270.0000000000032969
 51
340.5287792651819814
  0
ARC
  5
102F3
  8
0
 10
298.6080501812521106
 20
146.2822684570649017
 30
0.0
 40
0.015000000095553
 50
90.0
 51
160.5287792651803898
  0
LINE
  5
102F4
  8
0
 10
293.5343836167472205
 20
141.4287015279714979
 30
0.0
 11
294.2030450340459993
 21
141.4287015279714979
 31
0.0
  0
LINE
  5
102F5
  8
0
 10
293.5343836167472205
 20
136.6649220003714902
 30
0.0
 11
294.2030450340459993
 21
136.6649220003714902
 31
0.0
  0
LINE
  5
102F6
  8
0
 10
294.2230450340459811
 20
141.4087015279714876
 30
0.0
 11
294.2230450340459811
 21
136.6849220003715004
 31
0.0
  0
LINE
  5
102F7
  8
0
 10
293.5143836167470113
 20
141.4087015279714876
 30
0.0
 11
293.5143836167470113
 21
136.6849220003715004
 31
0.0
  0
ARC
  5
102F8
  8
0
 10
294.2030450340459993
 20
141.4087015279714876
 30
0.0
 40
0.02
 50
0.0000000000032569
 51
90.0
  0
ARC
  5
102F9
  8
0
 10
293.5343836167472205
 20
141.4087015279714876
 30
0.0
 40
0.02
 50
90.0
 51
180.0000000000032117
  0
ARC
  5
102FA
  8
0
 10
294.2030450340459993
 20
136.6849220003715004
 30
0.0
 40
0.02
 50
270.0
 51
0.0
  0
ARC
  5
102FB
  8
0
 10
293.5343836167472205
 20
136.6849220003715004
 30
0.0
 40
0.02
 50
180.0
 51
270.0
  0
LINE
  5
102FC
  8
0
 10
302.6679269238470056
 20
143.2662605831058897
 30
0.0
 11
302.6220591965470135
 21
143.2662605830639109
 31
0.0
  0
ARC
  5
102FD
  8
0
 10
302.6220591965516178
 20
143.2612607761961101
 30
0.0
 40
0.0049998068677759
 50
90.0000000524489252
 51
160.4770257427321951
  0
ARC
  5
102FE
  8
0
 10
302.6079016264874895
 20
143.2662806243343141
 30
0.0
 40
0.0100213670360832
 50
273.1384394607338209
 51
340.4770257427272782
  0
ARC
  5
102FF
  8
0
 10
303.966708108114176
 20
118.484538884637999
 30
0.0
 40
24.8089447417186904
 50
93.1384394607337924
 51
93.1584752116939825
  0
ARC
  5
10300
  8
0
 10
302.6031290254650798
 20
143.1952508732252056
 30
0.0
 40
0.0606390442057716
 50
93.1584752116939825
 51
123.6796306297084982
  0
ARC
  5
10301
  8
0
 10
302.6019818635425054
 20
142.59005926436339
 30
0.0
 40
0.1260262112477246
 50
90.8790219878703027
 51
104.9351290870500009
  0
ARC
  5
10302
  8
0
 10
302.609678928833489
 20
142.7382246617133887
 30
0.0
 40
0.0220026114695956
 50
267.4811673183805851
 51
304.2405969170869753
  0
LINE
  5
10303
  8
0
 10
302.6679269238470056
 20
142.7200354968013016
 30
0.0
 11
302.6220591220470055
 21
142.7200354966012981
 31
0.0
  0
ARC
  5
10304
  8
0
 10
302.6227888124375909
 20
142.7254837688037981
 30
0.0
 40
0.0054969189605103
 50
188.0990844874862944
 51
262.3717358866404084
  0
LINE
  5
10305
  8
0
 10
302.6173467202469851
 20
142.72470933310791
 30
0.0
 11
302.6173468407470182
 21
143.2629316357013067
 31
0.0
  0
LINE
  5
10306
  8
0
 10
302.6679269238470056
 20
142.4997932015012907
 30
0.0
 11
302.5695017270469975
 21
142.4997932015012907
 31
0.0
  0
LINE
  5
10307
  8
0
 10
302.5695017270469975
 20
142.5297932015012918
 30
0.0
 11
302.6679269238470056
 21
142.5297932015012918
 31
0.0
  0
LINE
  5
10308
  8
0
 10
302.6393756214470159
 20
142.5297932015012918
 30
0.0
 11
302.6393756214470159
 21
142.4997932015012907
 31
0.0
  0
LINE
  5
10309
  8
0
 10
302.5953856428470203
 20
142.5662605831012968
 30
0.0
 11
302.5953856428470203
 21
142.5297932015012918
 31
0.0
  0
LINE
  5
1030A
  8
0
 10
302.5695017270469975
 20
142.5662605831012968
 30
0.0
 11
302.6679269238470056
 21
142.5662605831012968
 31
0.0
  0
LINE
  5
1030B
  8
0
 10
302.582926923847026
 20
142.5740529434471
 30
0.0
 11
302.582926923847026
 21
142.5740529434471
 31
0.0
  0
LINE
  5
1030C
  8
0
 10
302.582926923847026
 20
142.5662605831012968
 30
0.0
 11
302.582926923847026
 21
142.6945245040012935
 31
0.0
  0
LINE
  5
1030D
  8
0
 10
302.6679269238470056
 20
142.7060621966448082
 30
0.0
 11
302.6379031624470031
 21
142.7060563738299095
 31
0.0
  0
ARC
  5
1030E
  8
0
 10
302.609701063408977
 20
142.8104573159872928
 30
0.0
 40
0.1081430308133828
 50
271.709362204062586
 51
285.1166566446652268
  0
ARC
  5
1030F
  8
0
 10
302.6107329607040128
 20
142.579896034703097
 30
0.0
 40
0.122486024849896
 50
88.9736661677418113
 51
98.358820741251364
  0
ARC
  5
10310
  8
0
 10
302.5972343177318749
 20
142.6783856193692088
 30
0.0
 40
0.023100419036449
 50
100.7464920738436973
 51
117.927756249406599
  0
ARC
  5
10311
  8
0
 10
302.5886843590927242
 20
142.6933825754321106
 30
0.0
 40
0.0058695878446662
 50
112.7443995516425019
 51
168.7815604216046097
  0
LINE
  5
10312
  8
0
 10
302.6379031624470031
 20
142.7060563738299095
 30
0.0
 11
302.6379179641469932
 21
142.586260583101307
 31
0.0
  0
LINE
  5
10313
  8
0
 10
302.6679269238470056
 20
142.586260583101307
 30
0.0
 11
302.6379179641469932
 21
142.586260583101307
 31
0.0
  0
ARC
  5
10314
  8
0
 10
302.6078010564327201
 20
142.6265804520641041
 30
0.0
 40
0.0503261359876927
 50
273.1240433756166226
 51
306.7578756611991935
  0
ARC
  5
10315
  8
0
 10
302.6786913107039254
 20
141.2345767783118902
 30
0.0
 40
1.3434818210750421
 50
92.9075537291258087
 51
93.2775363621117748
  0
ARC
  5
10316
  8
0
 10
302.6029499114470127
 20
142.5559168463013009
 30
0.0
 40
0.0199728577999689
 50
93.0679738486703769
 51
148.8091988860282129
  0
LINE
  5
10317
  8
0
 10
302.6051981344469937
 20
142.576046925800398
 30
0.0
 11
302.6051981344469937
 21
142.5662605831012968
 31
0.0
  0
LINE
  5
10318
  8
0
 10
302.6105444145470074
 20
142.6670441754696981
 30
0.0
 11
302.6105444145470074
 21
142.5763291441238039
 31
0.0
  0
LINE
  5
10319
  8
0
 10
302.6129269238469988
 20
142.7023624089013083
 30
0.0
 11
302.6129269238469988
 21
142.6787605831013082
 31
0.0
  0
ARC
  5
1031A
  8
0
 10
302.5829269237726749
 20
142.6787605831013082
 30
0.0
 40
0.0300000000742955
 50
289.4712207348172228
 51
359.9999999999984084
  0
ARC
  5
1031B
  8
0
 10
302.5979269239035716
 20
142.6363341760961987
 30
0.0
 40
0.015000000095553
 50
109.471220734820605
 51
180.0
  0
LINE
  5
1031C
  8
0
 10
302.6679269238470056
 20
141.2362605830907114
 30
0.0
 11
302.6220591965470135
 21
141.236260583132605
 31
0.0
  0
ARC
  5
1031D
  8
0
 10
302.6220591965516178
 20
141.2412603900004058
 30
0.0
 40
0.0049998068677759
 50
199.5229742572676912
 51
269.999999947551089
  0
ARC
  5
1031E
  8
0
 10
302.6079016264874895
 20
141.2362405418622018
 30
0.0
 40
0.0100213670360832
 50
19.5229742572726899
 51
86.8615605392662076
  0
ARC
  5
1031F
  8
0
 10
303.966708108114176
 20
166.0179822815584885
 30
0.0
 40
24.8089447417186904
 50
266.841524788306117
 51
266.8615605392661791
  0
ARC
  5
10320
  8
0
 10
302.6031290254650798
 20
141.3072702929713103
 30
0.0
 40
0.0606390442057716
 50
236.3203693702915018
 51
266.8415247883028201
  0
ARC
  5
10321
  8
0
 10
302.6019818635425054
 20
141.9124619018392082
 30
0.0
 40
0.1260262112477246
 50
255.0648709129499991
 51
269.1209780121296831
  0
ARC
  5
10322
  8
0
 10
302.609678928833489
 20
141.7642965044892094
 30
0.0
 40
0.0220026114695956
 50
55.7594030829130105
 51
92.5188326816193154
  0
LINE
  5
10323
  8
0
 10
302.6679269238470056
 20
141.7824856694012965
 30
0.0
 11
302.6220591220470055
 21
141.7824856696013001
 31
0.0
  0
ARC
  5
10324
  8
0
 10
302.6227888124375909
 20
141.7770373973988001
 30
0.0
 40
0.0054969189605103
 50
97.6282641133596343
 51
171.9009155125137056
  0
LINE
  5
10325
  8
0
 10
302.6173467202469851
 20
141.7778118330946882
 30
0.0
 11
302.6173468407470182
 21
141.2395895304952091
 31
0.0
  0
LINE
  5
10326
  8
0
 10
302.6679269238470056
 20
141.9697932015012896
 30
0.0
 11
302.5695017270469975
 21
141.9697932015012896
 31
0.0
  0
LINE
  5
10327
  8
0
 10
302.5695017270469975
 20
141.9397932015012884
 30
0.0
 11
302.6679269238470056
 21
141.9397932015012884
 31
0.0
  0
LINE
  5
10328
  8
0
 10
302.6393756214470159
 20
141.9397932015012884
 30
0.0
 11
302.6393756214470159
 21
141.9697932015012896
 31
0.0
  0
LINE
  5
10329
  8
0
 10
302.5953856428470203
 20
141.9362605831013013
 30
0.0
 11
302.5953856428470203
 21
141.9397932015012884
 31
0.0
  0
LINE
  5
1032A
  8
0
 10
302.5695017270469975
 20
141.9362605831013013
 30
0.0
 11
302.6679269238470056
 21
141.9362605831013013
 31
0.0
  0
LINE
  5
1032B
  8
0
 10
302.582926923847026
 20
141.9284682227554981
 30
0.0
 11
302.582926923847026
 21
141.9284682227554981
 31
0.0
  0
LINE
  5
1032C
  8
0
 10
302.582926923847026
 20
141.9362605831013013
 30
0.0
 11
302.582926923847026
 21
141.8079966622013046
 31
0.0
  0
LINE
  5
1032D
  8
0
 10
302.6679269238470056
 20
141.7964589695577899
 30
0.0
 11
302.6379031624470031
 21
141.7964647923726886
 31
0.0
  0
ARC
  5
1032E
  8
0
 10
302.609701063408977
 20
141.6920638502153054
 30
0.0
 40
0.1081430308133828
 50
74.8833433553348016
 51
88.2906377959406541
  0
ARC
  5
1032F
  8
0
 10
302.6107329607040128
 20
141.9226251314995011
 30
0.0
 40
0.122486024849896
 50
261.6411792587487071
 51
271.0263338322582172
  0
ARC
  5
10330
  8
0
 10
302.5972343177318749
 20
141.8241355468333893
 30
0.0
 40
0.023100419036449
 50
242.072243750593401
 51
259.2535079261563169
  0
ARC
  5
10331
  8
0
 10
302.5886843590927242
 20
141.8091385907704876
 30
0.0
 40
0.0058695878446662
 50
191.218439578395305
 51
247.2556004483575123
  0
LINE
  5
10332
  8
0
 10
302.6379031624470031
 20
141.7964647923726886
 30
0.0
 11
302.6379179641469932
 21
141.9162605831012911
 31
0.0
  0
LINE
  5
10333
  8
0
 10
302.6679269238470056
 20
141.9162605831012911
 30
0.0
 11
302.6379179641469932
 21
141.9162605831012911
 31
0.0
  0
ARC
  5
10334
  8
0
 10
302.6078010564327201
 20
141.8759407141384941
 30
0.0
 40
0.0503261359876927
 50
53.2421243388008278
 51
86.8759566243834342
  0
ARC
  5
10335
  8
0
 10
302.6786913107039254
 20
143.2679443878905943
 30
0.0
 40
1.3434818210750421
 50
266.722463637888211
 51
267.0924462708774172
  0
ARC
  5
10336
  8
0
 10
302.6029499114470127
 20
141.946604319901212
 30
0.0
 40
0.0199728577999689
 50
211.1908011139717871
 51
266.9320261513295804
  0
LINE
  5
10337
  8
0
 10
302.6051981344469937
 20
141.9264742404020865
 30
0.0
 11
302.6051981344469937
 21
141.9362605831013013
 31
0.0
  0
LINE
  5
10338
  8
0
 10
302.6105444145470074
 20
141.8354769907329
 30
0.0
 11
302.6105444145470074
 21
141.926192022078709
 31
0.0
  0
LINE
  5
10339
  8
0
 10
302.6129269238469988
 20
141.8001587573012898
 30
0.0
 11
302.6129269238469988
 21
141.82376058310129
 31
0.0
  0
ARC
  5
1033A
  8
0
 10
302.5829269237726749
 20
141.82376058310129
 30
0.0
 40
0.0300000000742955
 50
0.0000000000024427
 51
70.528779265182763
  0
ARC
  5
1033B
  8
0
 10
302.5979269239035716
 20
141.8661869901063994
 30
0.0
 40
0.015000000095553
 50
180.0
 51
250.528779265179395
  0
LINE
  5
1033C
  8
0
 10
294.6364308608469855
 20
145.4642369610214985
 30
0.0
 11
294.6364308608469855
 21
145.3658117642214904
 31
0.0
  0
LINE
  5
1033D
  8
0
 10
302.6087119632470035
 20
141.7862778577012932
 30
0.0
 11
302.600048466946987
 21
141.7864505218012994
 31
0.0
  0
LINE
  5
1033E
  8
0
 10
302.6087119632470035
 20
142.7162433085013049
 30
0.0
 11
302.600048466946987
 21
142.7160706444012988
 31
0.0
  0
LINE
  5
1033F
  8
0
 10
302.6679269238470056
 20
132.517874756357287
 30
0.0
 11
302.6220591965470135
 21
132.5178747563153081
 31
0.0
  0
ARC
  5
10340
  8
0
 10
302.6220591965516178
 20
132.5128749494475926
 30
0.0
 40
0.0049998068677759
 50
90.0000000524489252
 51
160.4770257427329909
  0
ARC
  5
10341
  8
0
 10
302.6079016264874895
 20
132.5178947975857966
 30
0.0
 40
0.0100213670360832
 50
273.1384394607338209
 51
340.4770257427272782
  0
ARC
  5
10342
  8
0
 10
303.966708108114176
 20
107.7361530578893962
 30
0.0
 40
24.8089447417186904
 50
93.1384394607337924
 51
93.1584752116939825
  0
ARC
  5
10343
  8
0
 10
302.6031290254650798
 20
132.4468650464766881
 30
0.0
 40
0.0606390442057716
 50
93.1584752116939825
 51
123.6796306297084982
  0
ARC
  5
10344
  8
0
 10
302.6019818635425054
 20
131.8416734376149009
 30
0.0
 40
0.1260262112477246
 50
90.8790219878703027
 51
104.9351290870500009
  0
ARC
  5
10345
  8
0
 10
302.609678928833489
 20
131.9898388349648997
 30
0.0
 40
0.0220026114695956
 50
267.4811673183805851
 51
304.2405969170869753
  0
LINE
  5
10346
  8
0
 10
302.6679269238470056
 20
131.9716496700528126
 30
0.0
 11
302.6220591220470055
 21
131.971649669852809
 31
0.0
  0
ARC
  5
10347
  8
0
 10
302.6227888124375909
 20
131.9770979420551953
 30
0.0
 40
0.0054969189605103
 50
188.0990844874862944
 51
262.3717358866404084
  0
LINE
  5
10348
  8
0
 10
302.6173467202469851
 20
131.9763235063593072
 30
0.0
 11
302.6173468407470182
 21
132.5145458089527892
 31
0.0
  0
LINE
  5
10349
  8
0
 10
302.6679269238470056
 20
131.7514073747528016
 30
0.0
 11
302.5695017270469975
 21
131.7514073747528016
 31
0.0
  0
LINE
  5
1034A
  8
0
 10
302.5695017270469975
 20
131.7814073747528028
 30
0.0
 11
302.6679269238470056
 21
131.7814073747528028
 31
0.0
  0
LINE
  5
1034B
  8
0
 10
302.6393756214470159
 20
131.7814073747528028
 30
0.0
 11
302.6393756214470159
 21
131.7514073747528016
 31
0.0
  0
LINE
  5
1034C
  8
0
 10
302.5953856428470203
 20
131.8178747563528077
 30
0.0
 11
302.5953856428470203
 21
131.7814073747528028
 31
0.0
  0
LINE
  5
1034D
  8
0
 10
302.5695017270469975
 20
131.8178747563528077
 30
0.0
 11
302.6679269238470056
 21
131.8178747563528077
 31
0.0
  0
LINE
  5
1034E
  8
0
 10
302.582926923847026
 20
131.8256671166986109
 30
0.0
 11
302.582926923847026
 21
131.8256671166986109
 31
0.0
  0
LINE
  5
1034F
  8
0
 10
302.582926923847026
 20
131.8178747563528077
 30
0.0
 11
302.582926923847026
 21
131.9461386772528044
 31
0.0
  0
LINE
  5
10350
  8
0
 10
302.6679269238470056
 20
131.9576763698962907
 30
0.0
 11
302.6379031624470031
 21
131.957670547081392
 31
0.0
  0
ARC
  5
10351
  8
0
 10
302.609701063408977
 20
132.0620714892388037
 30
0.0
 40
0.1081430308133828
 50
271.709362204062586
 51
285.1166566446652268
  0
ARC
  5
10352
  8
0
 10
302.6107329607040128
 20
131.8315102079546079
 30
0.0
 40
0.122486024849896
 50
88.9736661677418113
 51
98.358820741251364
  0
ARC
  5
10353
  8
0
 10
302.5972343177318749
 20
131.9299997926206913
 30
0.0
 40
0.023100419036449
 50
100.7464920738436973
 51
117.927756249406599
  0
ARC
  5
10354
  8
0
 10
302.5886843590927242
 20
131.9449967486835078
 30
0.0
 40
0.0058695878446662
 50
112.7443995516425019
 51
168.7815604216046097
  0
LINE
  5
10355
  8
0
 10
302.6379031624470031
 20
131.957670547081392
 30
0.0
 11
302.6379179641469932
 21
131.8378747563527895
 31
0.0
  0
LINE
  5
10356
  8
0
 10
302.6679269238470056
 20
131.8378747563527895
 30
0.0
 11
302.6379179641469932
 21
131.8378747563527895
 31
0.0
  0
ARC
  5
10357
  8
0
 10
302.6078010564327201
 20
131.8781946253155866
 30
0.0
 40
0.0503261359876927
 50
273.1240433756166226
 51
306.7578756611991935
  0
ARC
  5
10358
  8
0
 10
302.6786913107039254
 20
130.4861909515634011
 30
0.0
 40
1.3434818210750421
 50
92.9075537291258087
 51
93.2775363621117748
  0
ARC
  5
10359
  8
0
 10
302.6029499114470127
 20
131.8075310195528118
 30
0.0
 40
0.0199728577999689
 50
93.0679738486703769
 51
148.8091988860282129
  0
LINE
  5
1035A
  8
0
 10
302.6051981344469937
 20
131.8276610990519089
 30
0.0
 11
302.6051981344469937
 21
131.8178747563528077
 31
0.0
  0
LINE
  5
1035B
  8
0
 10
302.6105444145470074
 20
131.918658348721209
 30
0.0
 11
302.6105444145470074
 21
131.8279433173752864
 31
0.0
  0
LINE
  5
1035C
  8
0
 10
302.6129269238469988
 20
131.9539765821527908
 30
0.0
 11
302.6129269238469988
 21
131.9303747563527907
 31
0.0
  0
ARC
  5
1035D
  8
0
 10
302.5829269237726749
 20
131.9303747563527907
 30
0.0
 40
0.0300000000742955
 50
289.4712207348172228
 51
359.9999999999984084
  0
ARC
  5
1035E
  8
0
 10
302.5979269239035716
 20
131.8879483493477096
 30
0.0
 40
0.015000000095553
 50
109.471220734820605
 51
180.0
  0
LINE
  5
1035F
  8
0
 10
302.6679269238470056
 20
130.4878747563421086
 30
0.0
 11
302.6220591965470135
 21
130.4878747563840875
 31
0.0
  0
ARC
  5
10360
  8
0
 10
302.6220591965516178
 20
130.4928745632518883
 30
0.0
 40
0.0049998068677759
 50
199.5229742572670091
 51
269.999999947551089
  0
ARC
  5
10361
  8
0
 10
302.6079016264874895
 20
130.4878547151137127
 30
0.0
 40
0.0100213670360832
 50
19.5229742572726899
 51
86.8615605392662076
  0
ARC
  5
10362
  8
0
 10
303.966708108114176
 20
155.2695964548099994
 30
0.0
 40
24.8089447417186904
 50
266.841524788306117
 51
266.8615605392661791
  0
ARC
  5
10363
  8
0
 10
302.6031290254650798
 20
130.5588844662227075
 30
0.0
 40
0.0606390442057716
 50
236.3203693702915018
 51
266.8415247883028201
  0
ARC
  5
10364
  8
0
 10
302.6019818635425054
 20
131.1640760750906907
 30
0.0
 40
0.1260262112477246
 50
255.0648709129499991
 51
269.1209780121296831
  0
ARC
  5
10365
  8
0
 10
302.609678928833489
 20
131.0159106777406066
 30
0.0
 40
0.0220026114695956
 50
55.7594030829130105
 51
92.5188326816193154
  0
LINE
  5
10366
  8
0
 10
302.6679269238470056
 20
131.0340998426528074
 30
0.0
 11
302.6220591220470055
 21
131.034099842852811
 31
0.0
  0
ARC
  5
10367
  8
0
 10
302.6227888124375909
 20
131.028651570650311
 30
0.0
 40
0.0054969189605103
 50
97.6282641133596343
 51
171.9009155125137056
  0
LINE
  5
10368
  8
0
 10
302.6173467202469851
 20
131.0294260063461991
 30
0.0
 11
302.6173468407470182
 21
130.4912037037466916
 31
0.0
  0
LINE
  5
10369
  8
0
 10
302.6679269238470056
 20
131.2214073747528005
 30
0.0
 11
302.5695017270469975
 21
131.2214073747528005
 31
0.0
  0
LINE
  5
1036A
  8
0
 10
302.5695017270469975
 20
131.1914073747527993
 30
0.0
 11
302.6679269238470056
 21
131.1914073747527993
 31
0.0
  0
LINE
  5
1036B
  8
0
 10
302.6393756214470159
 20
131.1914073747527993
 30
0.0
 11
302.6393756214470159
 21
131.2214073747528005
 31
0.0
  0
LINE
  5
1036C
  8
0
 10
302.5953856428470203
 20
131.1878747563528123
 30
0.0
 11
302.5953856428470203
 21
131.1914073747527993
 31
0.0
  0
LINE
  5
1036D
  8
0
 10
302.5695017270469975
 20
131.1878747563528123
 30
0.0
 11
302.6679269238470056
 21
131.1878747563528123
 31
0.0
  0
LINE
  5
1036E
  8
0
 10
302.582926923847026
 20
131.180082396007009
 30
0.0
 11
302.582926923847026
 21
131.180082396007009
 31
0.0
  0
LINE
  5
1036F
  8
0
 10
302.582926923847026
 20
131.1878747563528123
 30
0.0
 11
302.582926923847026
 21
131.0596108354527871
 31
0.0
  0
LINE
  5
10370
  8
0
 10
302.6679269238470056
 20
131.0480731428093009
 30
0.0
 11
302.6379031624470031
 21
131.0480789656241996
 31
0.0
  0
ARC
  5
10371
  8
0
 10
302.609701063408977
 20
130.9436780234667026
 30
0.0
 40
0.1081430308133828
 50
74.8833433553348016
 51
88.2906377959406541
  0
ARC
  5
10372
  8
0
 10
302.6107329607040128
 20
131.174239304751012
 30
0.0
 40
0.122486024849896
 50
261.6411792587487071
 51
271.0263338322582172
  0
ARC
  5
10373
  8
0
 10
302.5972343177318749
 20
131.0757497200849002
 30
0.0
 40
0.023100419036449
 50
242.072243750593401
 51
259.2535079261563169
  0
ARC
  5
10374
  8
0
 10
302.5886843590927242
 20
131.0607527640219985
 30
0.0
 40
0.0058695878446662
 50
191.218439578395305
 51
247.2556004483575123
  0
LINE
  5
10375
  8
0
 10
302.6379031624470031
 20
131.0480789656241996
 30
0.0
 11
302.6379179641469932
 21
131.167874756352802
 31
0.0
  0
LINE
  5
10376
  8
0
 10
302.6679269238470056
 20
131.167874756352802
 30
0.0
 11
302.6379179641469932
 21
131.167874756352802
 31
0.0
  0
ARC
  5
10377
  8
0
 10
302.6078010564327201
 20
131.127554887390005
 30
0.0
 40
0.0503261359876927
 50
53.2421243388008278
 51
86.8759566243834342
  0
ARC
  5
10378
  8
0
 10
302.6786913107039254
 20
132.5195585611421052
 30
0.0
 40
1.3434818210750421
 50
266.722463637888211
 51
267.0924462708774172
  0
ARC
  5
10379
  8
0
 10
302.6029499114470127
 20
131.1982184931526945
 30
0.0
 40
0.0199728577999689
 50
211.1908011139717871
 51
266.9320261513295804
  0
LINE
  5
1037A
  8
0
 10
302.6051981344469937
 20
131.1780884136535974
 30
0.0
 11
302.6051981344469937
 21
131.1878747563528123
 31
0.0
  0
LINE
  5
1037B
  8
0
 10
302.6105444145470074
 20
131.087091163984411
 30
0.0
 11
302.6105444145470074
 21
131.1778061953301915
 31
0.0
  0
LINE
  5
1037C
  8
0
 10
302.6129269238469988
 20
131.0517729305528007
 30
0.0
 11
302.6129269238469988
 21
131.0753747563528009
 31
0.0
  0
ARC
  5
1037D
  8
0
 10
302.5829269237726749
 20
131.0753747563528009
 30
0.0
 40
0.0300000000742955
 50
0.0000000000024427
 51
70.528779265182763
  0
ARC
  5
1037E
  8
0
 10
302.5979269239035716
 20
131.1178011633577967
 30
0.0
 40
0.015000000095553
 50
180.0
 51
250.528779265179395
  0
LINE
  5
1037F
  8
0
 10
302.6087119632470035
 20
131.0378920309528041
 30
0.0
 11
302.600048466946987
 21
131.0380646950528103
 31
0.0
  0
LINE
  5
10380
  8
0
 10
302.6087119632470035
 20
131.9678574817527874
 30
0.0
 11
302.600048466946987
 21
131.9676848176528097
 31
0.0
  0
LINE
  5
10381
  8
0
 10
302.6679269238470056
 20
129.2432763311215069
 30
0.0
 11
302.56950172694701
 21
129.2432763311215069
 31
0.0
  0
LINE
  5
10382
  8
0
 10
292.667926927494193
 20
122.0571503468215013
 30
0.0
 11
262.9510496173185174
 21
92.5575397979936554
 31
0.0
  0
ENDBLK
  5
10386
  8
0
  0
ENDSEC
  0
SECTION
  2
ENTITIES
  0
ATTDEF
  5
829
  8
DEFPOINTS
 10
2288.9298808508578986
 20
407.0508405943782009
 30
0.0
 40
0.001
  1
K-40639-BD1
  3

  2
MODELNUMBER
 70
     0
1001
ACDBATTR
1070
     0
1070
     1
  0
ATTDEF
  5
82A
  8
DEFPOINTS
 10
2288.9298808508578986
 20
407.0491739277114789
 30
0.0
 40
0.001
  1
KOHLER
  3

  2
BRANDNAME
 70
     0
1001
ACDBATTR
1070
     0
1070
     1
  0
ATTDEF
  5
82B
  8
DEFPOINTS
 10
2288.9298808508578986
 20
407.0475072610449274
 30
0.0
 40
0.001
  1
VANITY CABINET
  3

  2
PRODUCT
 70
     0
1001
ACDBATTR
1070
     0
1070
     1
  0
LINE
  5
12F67
  8
0
 10
2270.5300376825862259
 20
446.8369616802615951
 30
0.0
 11
2270.4900376825858075
 21
446.7969616802615747
 31
0.0
  0
LINE
  5
12F68
  8
0
 10
2270.4900376825858075
 20
446.7969616802615747
 30
0.0
 11
2307.3798015250849858
 21
446.7969616802615747
 31
0.0
  0
LINE
  5
12F69
  8
0
 10
2307.3798015250849858
 20
446.7969616802615747
 30
0.0
 11
2307.3398015250859316
 21
446.8369616802615951
 31
0.0
  0
LINE
  5
12F6A
  8
0
 10
2307.3398015250859316
 20
446.8369616802615951
 30
0.0
 11
2270.5300376825862259
 21
446.8369616802615951
 31
0.0
  0
LINE
  5
12F6B
  8
0
 10
2270.4889196037861439
 20
442.8212136487616135
 30
0.0
 11
2270.4499196037859292
 21
442.7822136487615126
 31
0.0
  0
LINE
  5
12F6C
  8
0
 10
2270.4499196037859292
 20
442.7822136487615126
 30
0.0
 11
2270.4499196037859292
 21
441.6791112865615787
 31
0.0
  0
LINE
  5
12F6D
  8
0
 10
2270.4499196037859292
 20
441.6791112865615787
 30
0.0
 11
2270.4889196037861439
 21
441.6401112865614778
 31
0.0
  0
LINE
  5
12F6E
  8
0
 10
2270.4889196037861439
 20
441.6401112865614778
 30
0.0
 11
2307.3809196037859692
 21
441.6401112865614778
 31
0.0
  0
LINE
  5
12F6F
  8
0
 10
2307.3809196037859692
 20
441.6401112865614778
 30
0.0
 11
2307.4199196037861839
 21
441.6791112865615787
 31
0.0
  0
LINE
  5
12F70
  8
0
 10
2307.4199196037861839
 20
441.6791112865615787
 30
0.0
 11
2307.4199196037861839
 21
442.7822136487615126
 31
0.0
  0
LINE
  5
12F71
  8
0
 10
2307.4199196037861839
 20
442.7822136487615126
 30
0.0
 11
2307.3809196037859692
 21
442.8212136487616135
 31
0.0
  0
LINE
  5
12F72
  8
0
 10
2307.3798015250849858
 20
442.8212136487616135
 30
0.0
 11
2270.4900376825858075
 21
442.8212136487616135
 31
0.0
  0
LINE
  5
12F73
  8
0
 10
2270.4900376825858075
 20
446.7969616802615747
 30
0.0
 11
2270.4900376825858075
 21
442.8212136487616135
 31
0.0
  0
LINE
  5
12F74
  8
0
 10
2307.3798015250849858
 20
446.7969616802615747
 30
0.0
 11
2307.3798015250849858
 21
442.8212136487616135
 31
0.0
  0
LINE
  5
12F75
  8
0
 10
2270.4889194967381627
 20
442.7822136487615126
 30
0.0
 11
2307.3809194967379881
 21
442.7822136487615126
 31
0.0
  0
LINE
  5
12F76
  8
0
 10
2307.3809194967379881
 20
442.7822136487615126
 30
0.0
 11
2307.3809194967379881
 21
441.6791112865615787
 31
0.0
  0
LINE
  5
12F77
  8
0
 10
2307.3809194967379881
 20
441.6791112865615787
 30
0.0
 11
2270.4889194967381627
 21
441.6791112865615787
 31
0.0
  0
LINE
  5
12F78
  8
0
 10
2270.4889194967381627
 20
441.6791112865615787
 30
0.0
 11
2270.4889194967381627
 21
442.7822136487615126
 31
0.0
  0
LINE
  5
12F79
  8
0
 10
2307.3809194967379881
 20
441.6791112865615787
 30
0.0
 11
2307.400419550262086
 21
441.6596112330378787
 31
0.0
  0
LINE
  5
12F7A
  8
0
 10
2307.3809194967379881
 20
442.7822136487615126
 30
0.0
 11
2307.4004196037849397
 21
442.8017136487615062
 31
0.0
  0
LINE
  5
12F7B
  8
0
 10
2270.4889194967381627
 20
442.7822136487615126
 30
0.0
 11
2270.469419550262046
 21
442.8017135952379135
 31
0.0
  0
LINE
  5
12F7C
  8
0
 10
2270.4889194967381627
 20
441.6791112865615787
 30
0.0
 11
2270.469419550262046
 21
441.6596113400851209
 31
0.0
  0
LINE
  5
12F7D
  8
0
 10
2270.9427934810378247
 20
441.6401112865614778
 30
0.0
 11
2270.9427934810378247
 21
407.2700323101615254
 31
0.0
  0
LINE
  5
12F7E
  8
0
 10
2272.9506674967378785
 20
441.6401112865614778
 30
0.0
 11
2272.9506674967378785
 21
407.2700323101615254
 31
0.0
  0
LINE
  5
12F7F
  8
0
 10
2270.9427934810378247
 20
407.2700323101615254
 30
0.0
 11
2272.9506674967378785
 21
407.2700323101615254
 31
0.0
  0
LINE
  5
12F80
  8
0
 10
2271.0609034810381672
 20
407.1519223101615239
 30
0.0
 11
2272.8325574967389002
 21
407.1519223101615239
 31
0.0
  0
LINE
  5
12F81
  8
0
 10
2270.9427934810378247
 20
407.2700323101615254
 30
0.0
 11
2271.0609034810381672
 21
407.1519223101615239
 31
0.0
  0
LINE
  5
12F82
  8
0
 10
2272.8325574967389002
 20
407.1519223101615239
 30
0.0
 11
2272.9506674967378785
 21
407.2700323101615254
 31
0.0
  0
LINE
  5
12F83
  8
0
 10
2271.5530494004001412
 20
407.0716073475534245
 30
0.0
 11
2272.3404115907378582
 21
407.0716073475534245
 31
0.0
  0
LINE
  5
12F84
  8
0
 10
2271.5530494004001412
 20
407.0716073475534245
 30
0.0
 11
2271.5530494004001412
 21
407.1519223101615239
 31
0.0
  0
LINE
  5
12F85
  8
0
 10
2271.5533828796001217
 20
407.1519223101615239
 30
0.0
 11
2271.5533828796001217
 21
407.0716073475534245
 31
0.0
  0
LINE
  5
12F86
  8
0
 10
2271.5537949736999508
 20
407.0716073475534245
 30
0.0
 11
2271.5537949736999508
 21
407.1519223101615239
 31
0.0
  0
LINE
  5
12F87
  8
0
 10
2271.5547944973000085
 20
407.1519223101615239
 30
0.0
 11
2271.5547944973000085
 21
407.0716073475534245
 31
0.0
  0
LINE
  5
12F88
  8
0
 10
2271.5556175560000156
 20
407.0716073475534245
 30
0.0
 11
2271.5556175560000156
 21
407.1519223101615239
 31
0.0
  0
LINE
  5
12F89
  8
0
 10
2271.5572803843001566
 20
407.1519223101615239
 30
0.0
 11
2271.5572803843001566
 21
407.0716073475534245
 31
0.0
  0
LINE
  5
12F8A
  8
0
 10
2271.5585121517001426
 20
407.0716073475534245
 30
0.0
 11
2271.5585121517001426
 21
407.1519223101615239
 31
0.0
  0
LINE
  5
12F8B
  8
0
 10
2271.5608337269991353
 20
407.1519223101615239
 30
0.0
 11
2271.5608337269991353
 21
407.0716073475534245
 31
0.0
  0
LINE
  5
12F8C
  8
0
 10
2271.5624708270001975
 20
407.0716073475534245
 30
0.0
 11
2271.5624708270001975
 21
407.1519223101615239
 31
0.0
  0
LINE
  5
12F8D
  8
0
 10
2271.565444786000171
 20
407.1519223101615239
 30
0.0
 11
2271.565444786000171
 21
407.0716073475534245
 31
0.0
  0
LINE
  5
12F8E
  8
0
 10
2271.5674506288000885
 20
407.1519223101615239
 30
0.0
 11
2271.5674506288000885
 21
407.0716073475534245
 31
0.0
  0
LINE
  5
12F8F
  8
0
 10
2271.5711009226001806
 20
407.1519223101615239
 30
0.0
 11
2271.5711009226001806
 21
407.0716073475534245
 31
0.0
  0
LINE
  5
12F90
  8
0
 10
2271.573534127298899
 20
407.0716073475534245
 30
0.0
 11
2271.573534127298899
 21
407.1519223101615239
 31
0.0
  0
LINE
  5
12F91
  8
0
 10
2271.5777866337998603
 20
407.1519223101615239
 30
0.0
 11
2271.5777866337998603
 21
407.0716073475534245
 31
0.0
  0
LINE
  5
12F92
  8
0
 10
2271.5806084287000886
 20
407.0716073475534245
 30
0.0
 11
2271.5806084287000886
 21
407.1519223101615239
 31
0.0
  0
LINE
  5
12F93
  8
0
 10
2271.5854835945001469
 20
407.1519223101615239
 30
0.0
 11
2271.5854835945001469
 21
407.0716073475534245
 31
0.0
  0
LINE
  5
12F94
  8
0
 10
2271.588686245199824
 20
407.0716073475534245
 30
0.0
 11
2271.588686245199824
 21
407.1519223101615239
 31
0.0
  0
LINE
  5
12F95
  8
0
 10
2271.5941707078000036
 20
407.1519223101615239
 30
0.0
 11
2271.5941707078000036
 21
407.0716073475534245
 31
0.0
  0
LINE
  5
12F96
  8
0
 10
2271.5977454362000572
 20
407.0716073475534245
 30
0.0
 11
2271.5977454362000572
 21
407.1519223101615239
 31
0.0
  0
LINE
  5
12F97
  8
0
 10
2271.6038241630990342
 20
407.1519223101615239
 30
0.0
 11
2271.6038241630990342
 21
407.0716073475534245
 31
0.0
  0
LINE
  5
12F98
  8
0
 10
2271.6072166636990914
 20
407.0716073475534245
 30
0.0
 11
2271.6072166636990914
 21
407.1519223101615239
 31
0.0
  0
LINE
  5
12F99
  8
0
 10
2271.607761170998856
 20
407.0716073475534245
 30
0.0
 11
2271.607761170998856
 21
407.1519223101615239
 31
0.0
  0
LINE
  5
12F9A
  8
0
 10
2271.6144175007989361
 20
407.1519223101615239
 30
0.0
 11
2271.6144175007989361
 21
407.0716073475534245
 31
0.0
  0
LINE
  5
12F9B
  8
0
 10
2271.6177028437000445
 20
407.0716073475534245
 30
0.0
 11
2271.6177028437000445
 21
407.1519223101615239
 31
0.0
  0
LINE
  5
12F9C
  8
0
 10
2271.6187059970998234
 20
407.0716073475534245
 30
0.0
 11
2271.6187059970998234
 21
407.1519223101615239
 31
0.0
  0
LINE
  5
12F9D
  8
0
 10
2271.6259216852999998
 20
407.1519223101615239
 30
0.0
 11
2271.6259216852999998
 21
407.0716073475534245
 31
0.0
  0
LINE
  5
12F9E
  8
0
 10
2271.6290908656001193
 20
407.0716073475534245
 30
0.0
 11
2271.6290908656001193
 21
407.1519223101615239
 31
0.0
  0
LINE
  5
12F9F
  8
0
 10
2271.6305499156001133
 20
407.0716073475534245
 30
0.0
 11
2271.6305499156001133
 21
407.1519223101615239
 31
0.0
  0
LINE
  5
12FA0
  8
0
 10
2271.6383051845000409
 20
407.1519223101615239
 30
0.0
 11
2271.6383051845000409
 21
407.0716073475534245
 31
0.0
  0
LINE
  5
12FA1
  8
0
 10
2271.6413495156998579
 20
407.0716073475534245
 30
0.0
 11
2271.6413495156998579
 21
407.1519223101615239
 31
0.0
  0
LINE
  5
12FA2
  8
0
 10
2271.6432604630999776
 20
407.0716073475534245
 30
0.0
 11
2271.6432604630999776
 21
407.1519223101615239
 31
0.0
  0
LINE
  5
12FA3
  8
0
 10
2271.6515340559990364
 20
407.1519223101615239
 30
0.0
 11
2271.6515340559990364
 21
407.0716073475534245
 31
0.0
  0
LINE
  5
12FA4
  8
0
 10
2271.6544451938989369
 20
407.0716073475534245
 30
0.0
 11
2271.6544451938989369
 21
407.1519223101615239
 31
0.0
  0
LINE
  5
12FA5
  8
0
 10
2271.6568028010001399
 20
407.0716073475534245
 30
0.0
 11
2271.6568028010001399
 21
407.1519223101615239
 31
0.0
  0
LINE
  5
12FA6
  8
0
 10
2271.6655720405001375
 20
407.1519223101615239
 30
0.0
 11
2271.6655720405001375
 21
407.0716073475534245
 31
0.0
  0
LINE
  5
12FA7
  8
0
 10
2271.6683420057001968
 20
407.0716073475534245
 30
0.0
 11
2271.6683420057001968
 21
407.1519223101615239
 31
0.0
  0
LINE
  5
12FA8
  8
0
 10
2271.6711398103989268
 20
407.0716073475534245
 30
0.0
 11
2271.6711398103989268
 21
407.1519223101615239
 31
0.0
  0
LINE
  5
12FA9
  8
0
 10
2271.6803806607999832
 20
407.1519223101615239
 30
0.0
 11
2271.6803806607999832
 21
407.0716073475534245
 31
0.0
  0
LINE
  5
12FAA
  8
0
 10
2271.6830018610999105
 20
407.0716073475534245
 30
0.0
 11
2271.6830018610999105
 21
407.1519223101615239
 31
0.0
  0
LINE
  5
12FAB
  8
0
 10
2271.6862321949001853
 20
407.0716073475534245
 30
0.0
 11
2271.6862321949001853
 21
407.1519223101615239
 31
0.0
  0
LINE
  5
12FAC
  8
0
 10
2271.695919327500178
 20
407.1519223101615239
 30
0.0
 11
2271.695919327500178
 21
407.0716073475534245
 31
0.0
  0
LINE
  5
12FAD
  8
0
 10
2271.6983845783001925
 20
407.0716073475534245
 30
0.0
 11
2271.6983845783001925
 21
407.1519223101615239
 31
0.0
  0
LINE
  5
12FAE
  8
0
 10
2271.7020385870000609
 20
407.0716073475534245
 30
0.0
 11
2271.7020385870000609
 21
407.1519223101615239
 31
0.0
  0
LINE
  5
12FAF
  8
0
 10
2271.7121454501998414
 20
407.1519223101615239
 30
0.0
 11
2271.7121454501998414
 21
407.0716073475534245
 31
0.0
  0
LINE
  5
12FB0
  8
0
 10
2271.7144479944990962
 20
407.0716073475534245
 30
0.0
 11
2271.7144479944990962
 21
407.1519223101615239
 31
0.0
  0
LINE
  5
12FB1
  8
0
 10
2271.7185156626987919
 20
407.0716073475534245
 30
0.0
 11
2271.7185156626987919
 21
407.1519223101615239
 31
0.0
  0
LINE
  5
12FB2
  8
0
 10
2271.7290145542001483
 20
407.1519223101615239
 30
0.0
 11
2271.7290145542001483
 21
407.0716073475534245
 31
0.0
  0
LINE
  5
12FB3
  8
0
 10
2271.7311480807998123
 20
407.0716073475534245
 30
0.0
 11
2271.7311480807998123
 21
407.1519223101615239
 31
0.0
  0
LINE
  5
12FB4
  8
0
 10
2271.735618259399871
 20
407.0716073475534245
 30
0.0
 11
2271.735618259399871
 21
407.1519223101615239
 31
0.0
  0
LINE
  5
12FB5
  8
0
 10
2271.7464804024998557
 20
407.1519223101615239
 30
0.0
 11
2271.7464804024998557
 21
407.0716073475534245
 31
0.0
  0
LINE
  5
12FB6
  8
0
 10
2271.7484390636000171
 20
407.0716073475534245
 30
0.0
 11
2271.7484390636000171
 21
407.1519223101615239
 31
0.0
  0
LINE
  5
12FB7
  8
0
 10
2271.7531953021989466
 20
407.1519223101615239
 30
0.0
 11
2271.7531953021989466
 21
407.0716073475534245
 31
0.0
  0
LINE
  5
12FB8
  8
0
 10
2271.7644951224001488
 20
407.1519223101615239
 30
0.0
 11
2271.7644951224001488
 21
407.0716073475534245
 31
0.0
  0
LINE
  5
12FB9
  8
0
 10
2271.7662735495000561
 20
407.0716073475534245
 30
0.0
 11
2271.7662735495000561
 21
407.1519223101615239
 31
0.0
  0
LINE
  5
12FBA
  8
0
 10
2271.7715109218001999
 20
407.0716073475534245
 30
0.0
 11
2271.7715109218001999
 21
407.1519223101615239
 31
0.0
  0
LINE
  5
12FBB
  8
0
 10
2271.7830093368002053
 20
407.1519223101615239
 30
0.0
 11
2271.7830093368002053
 21
407.0716073475534245
 31
0.0
  0
LINE
  5
12FBC
  8
0
 10
2271.7846026553002048
 20
407.0716073475534245
 30
0.0
 11
2271.7846026553002048
 21
407.1519223101615239
 31
0.0
  0
LINE
  5
12FBD
  8
0
 10
2271.7902026081001168
 20
407.0716073475534245
 30
0.0
 11
2271.7902026081001168
 21
407.1519223101615239
 31
0.0
  0
LINE
  5
12FBE
  8
0
 10
2271.8019722994990843
 20
407.1519223101615239
 30
0.0
 11
2271.8019722994990843
 21
407.0716073475534245
 31
0.0
  0
LINE
  5
12FBF
  8
0
 10
2271.8033761422989301
 20
407.0716073475534245
 30
0.0
 11
2271.8033761422989301
 21
407.1519223101615239
 31
0.0
  0
LINE
  5
12FC0
  8
0
 10
2271.8093233264989976
 20
407.0716073475534245
 30
0.0
 11
2271.8093233264989976
 21
407.1519223101615239
 31
0.0
  0
LINE
  5
12FC1
  8
0
 10
2271.8213320343998021
 20
407.1519223101615239
 30
0.0
 11
2271.8213320343998021
 21
407.0716073475534245
 31
0.0
  0
LINE
  5
12FC2
  8
0
 10
2271.8225425536002149
 20
407.0716073475534245
 30
0.0
 11
2271.8225425536002149
 21
407.1519223101615239
 31
0.0
  0
LINE
  5
12FC3
  8
0
 10
2271.8288206684001125
 20
407.0716073475534245
 30
0.0
 11
2271.8288206684001125
 21
407.1519223101615239
 31
0.0
  0
LINE
  5
12FC4
  8
0
 10
2271.8410354777997782
 20
407.1519223101615239
 30
0.0
 11
2271.8410354777997782
 21
407.0716073475534245
 31
0.0
  0
LINE
  5
12FC5
  8
0
 10
2271.8420493553999222
 20
407.0716073475534245
 30
0.0
 11
2271.8420493553999222
 21
407.1519223101615239
 31
0.0
  0
LINE
  5
12FC6
  8
0
 10
2271.8486411929989117
 20
407.0716073475534245
 30
0.0
 11
2271.8486411929989117
 21
407.1519223101615239
 31
0.0
  0
LINE
  5
12FC7
  8
0
 10
2271.8610286238999834
 20
407.1519223101615239
 30
0.0
 11
2271.8610286238999834
 21
407.0716073475534245
 31
0.0
  0
LINE
  5
12FC8
  8
0
 10
2271.8618430810001882
 20
407.0716073475534245
 30
0.0
 11
2271.8618430810001882
 21
407.1519223101615239
 31
0.0
  0
LINE
  5
12FC9
  8
0
 10
2271.8687305734988513
 20
407.0716073475534245
 30
0.0
 11
2271.8687305734988513
 21
407.1519223101615239
 31
0.0
  0
LINE
  5
12FCA
  8
0
 10
2271.8812566728988713
 20
407.1519223101615239
 30
0.0
 11
2271.8812566728988713
 21
407.0716073475534245
 31
0.0
  0
LINE
  5
12FCB
  8
0
 10
2271.8818694770998263
 20
407.0716073475534245
 30
0.0
 11
2271.8818694770998263
 21
407.1519223101615239
 31
0.0
  0
LINE
  5
12FCC
  8
0
 10
2271.8890337463999458
 20
407.0716073475534245
 30
0.0
 11
2271.8890337463999458
 21
407.1519223101615239
 31
0.0
  0
LINE
  5
12FCD
  8
0
 10
2271.9016641810999317
 20
407.1519223101615239
 30
0.0
 11
2271.9016641810999317
 21
407.0716073475534245
 31
0.0
  0
LINE
  5
12FCE
  8
0
 10
2271.902073652800027
 20
407.0716073475534245
 30
0.0
 11
2271.902073652800027
 21
407.1519223101615239
 31
0.0
  0
LINE
  5
12FCF
  8
0
 10
2271.9094950622002216
 20
407.0716073475534245
 30
0.0
 11
2271.9094950622002216
 21
407.1519223101615239
 31
0.0
  0
LINE
  5
12FD0
  8
0
 10
2271.9221952129992133
 20
407.1519223101615239
 30
0.0
 11
2271.9221952129992133
 21
407.0716073475534245
 31
0.0
  0
LINE
  5
12FD1
  8
0
 10
2271.9300584377001542
 20
407.0716073475534245
 30
0.0
 11
2271.9300584377001542
 21
407.1519223101615239
 31
0.0
  0
LINE
  5
12FD2
  8
0
 10
2271.9427934944001208
 20
407.1519223101615239
 30
0.0
 11
2271.9427934944001208
 21
407.0716073475534245
 31
0.0
  0
LINE
  5
12FD3
  8
0
 10
2271.9506675101001747
 20
407.0716073475534245
 30
0.0
 11
2271.9506675101001747
 21
407.1519223101615239
 31
0.0
  0
LINE
  5
12FD4
  8
0
 10
2271.9634025668001414
 20
407.1519223101615239
 30
0.0
 11
2271.9634025668001414
 21
407.0716073475534245
 31
0.0
  0
LINE
  5
12FD5
  8
0
 10
2271.9712657915001728
 20
407.0716073475534245
 30
0.0
 11
2271.9712657915001728
 21
407.1519223101615239
 31
0.0
  0
LINE
  5
12FD6
  8
0
 10
2271.9839659423000739
 20
407.1519223101615239
 30
0.0
 11
2271.9839659423000739
 21
407.0716073475534245
 31
0.0
  0
LINE
  5
12FD7
  8
0
 10
2271.9913873516989042
 20
407.0716073475534245
 30
0.0
 11
2271.9913873516989042
 21
407.1519223101615239
 31
0.0
  0
LINE
  5
12FD8
  8
0
 10
2271.991796823399909
 20
407.0716073475534245
 30
0.0
 11
2271.991796823399909
 21
407.1519223101615239
 31
0.0
  0
LINE
  5
12FD9
  8
0
 10
2272.0044272579998506
 20
407.1519223101615239
 30
0.0
 11
2272.0044272579998506
 21
407.0716073475534245
 31
0.0
  0
LINE
  5
12FDA
  8
0
 10
2272.0115915274000145
 20
407.0716073475534245
 30
0.0
 11
2272.0115915274000145
 21
407.1519223101615239
 31
0.0
  0
LINE
  5
12FDB
  8
0
 10
2272.01220433160006
 20
407.0716073475534245
 30
0.0
 11
2272.01220433160006
 21
407.1519223101615239
 31
0.0
  0
LINE
  5
12FDC
  8
0
 10
2272.02473043100008
 20
407.1519223101615239
 30
0.0
 11
2272.02473043100008
 21
407.0716073475534245
 31
0.0
  0
LINE
  5
12FDD
  8
0
 10
2272.0316179235001073
 20
407.0716073475534245
 30
0.0
 11
2272.0316179235001073
 21
407.1519223101615239
 31
0.0
  0
LINE
  5
12FDE
  8
0
 10
2272.0324323805998574
 20
407.0716073475534245
 30
0.0
 11
2272.0324323805998574
 21
407.1519223101615239
 31
0.0
  0
LINE
  5
12FDF
  8
0
 10
2272.0448198115000196
 20
407.1519223101615239
 30
0.0
 11
2272.0448198115000196
 21
407.0716073475534245
 31
0.0
  0
LINE
  5
12FE0
  8
0
 10
2272.0514116490990091
 20
407.0716073475534245
 30
0.0
 11
2272.0514116490990091
 21
407.1519223101615239
 31
0.0
  0
LINE
  5
12FE1
  8
0
 10
2272.0523102709989871
 20
407.1519223101615239
 30
0.0
 11
2272.0523102709989871
 21
407.0716073475534245
 31
0.0
  0
LINE
  5
12FE2
  8
0
 10
2272.064640336100183
 20
407.1519223101615239
 30
0.0
 11
2272.064640336100183
 21
407.0716073475534245
 31
0.0
  0
LINE
  5
12FE3
  8
0
 10
2272.0709184509000806
 20
407.0716073475534245
 30
0.0
 11
2272.0709184509000806
 21
407.1519223101615239
 31
0.0
  0
LINE
  5
12FE4
  8
0
 10
2272.0721289701000387
 20
407.0716073475534245
 30
0.0
 11
2272.0721289701000387
 21
407.1519223101615239
 31
0.0
  0
LINE
  5
12FE5
  8
0
 10
2272.0841376779999337
 20
407.1519223101615239
 30
0.0
 11
2272.0841376779999337
 21
407.0716073475534245
 31
0.0
  0
LINE
  5
12FE6
  8
0
 10
2272.0900848621990917
 20
407.0716073475534245
 30
0.0
 11
2272.0900848621990917
 21
407.1519223101615239
 31
0.0
  0
LINE
  5
12FE7
  8
0
 10
2272.0914887049989375
 20
407.0716073475534245
 30
0.0
 11
2272.0914887049989375
 21
407.1519223101615239
 31
0.0
  0
LINE
  5
12FE8
  8
0
 10
2272.1032583964001788
 20
407.1519223101615239
 30
0.0
 11
2272.1032583964001788
 21
407.0716073475534245
 31
0.0
  0
LINE
  5
12FE9
  8
0
 10
2272.1088583492000907
 20
407.0716073475534245
 30
0.0
 11
2272.1088583492000907
 21
407.1519223101615239
 31
0.0
  0
LINE
  5
12FEA
  8
0
 10
2272.1104516677000902
 20
407.0716073475534245
 30
0.0
 11
2272.1104516677000902
 21
407.1519223101615239
 31
0.0
  0
LINE
  5
12FEB
  8
0
 10
2272.1219500827000957
 20
407.1519223101615239
 30
0.0
 11
2272.1219500827000957
 21
407.0716073475534245
 31
0.0
  0
LINE
  5
12FEC
  8
0
 10
2272.1271874549997847
 20
407.0716073475534245
 30
0.0
 11
2272.1271874549997847
 21
407.1519223101615239
 31
0.0
  0
LINE
  5
12FED
  8
0
 10
2272.1289658821001467
 20
407.0716073475534245
 30
0.0
 11
2272.1289658821001467
 21
407.1519223101615239
 31
0.0
  0
LINE
  5
12FEE
  8
0
 10
2272.140161504299158
 20
407.1519223101615239
 30
0.0
 11
2272.140161504299158
 21
407.0716073475534245
 31
0.0
  0
LINE
  5
12FEF
  8
0
 10
2272.1450219407988698
 20
407.0716073475534245
 30
0.0
 11
2272.1450219407988698
 21
407.1519223101615239
 31
0.0
  0
LINE
  5
12FF0
  8
0
 10
2272.1469806019999851
 20
407.0716073475534245
 30
0.0
 11
2272.1469806019999851
 21
407.1519223101615239
 31
0.0
  0
LINE
  5
12FF1
  8
0
 10
2272.1578427449990158
 20
407.1519223101615239
 30
0.0
 11
2272.1578427449990158
 21
407.0716073475534245
 31
0.0
  0
LINE
  5
12FF2
  8
0
 10
2272.1623129235999841
 20
407.0716073475534245
 30
0.0
 11
2272.1623129235999841
 21
407.1519223101615239
 31
0.0
  0
LINE
  5
12FF3
  8
0
 10
2272.1644464503001473
 20
407.0716073475534245
 30
0.0
 11
2272.1644464503001473
 21
407.1519223101615239
 31
0.0
  0
LINE
  5
12FF4
  8
0
 10
2272.174945341700095
 20
407.1519223101615239
 30
0.0
 11
2272.174945341700095
 21
407.0716073475534245
 31
0.0
  0
LINE
  5
12FF5
  8
0
 10
2272.1790130099989256
 20
407.0716073475534245
 30
0.0
 11
2272.1790130099989256
 21
407.1519223101615239
 31
0.0
  0
LINE
  5
12FF6
  8
0
 10
2272.1813155542999993
 20
407.0716073475534245
 30
0.0
 11
2272.1813155542999993
 21
407.1519223101615239
 31
0.0
  0
LINE
  5
12FF7
  8
0
 10
2272.1914224174001902
 20
407.1519223101615239
 30
0.0
 11
2272.1914224174001902
 21
407.0716073475534245
 31
0.0
  0
LINE
  5
12FF8
  8
0
 10
2272.195076426200103
 20
407.0716073475534245
 30
0.0
 11
2272.195076426200103
 21
407.1519223101615239
 31
0.0
  0
LINE
  5
12FF9
  8
0
 10
2272.1975416770001175
 20
407.0716073475534245
 30
0.0
 11
2272.1975416770001175
 21
407.1519223101615239
 31
0.0
  0
LINE
  5
12FFA
  8
0
 10
2272.2072288096001103
 20
407.1519223101615239
 30
0.0
 11
2272.2072288096001103
 21
407.0716073475534245
 31
0.0
  0
LINE
  5
12FFB
  8
0
 10
2272.2104591433999303
 20
407.0716073475534245
 30
0.0
 11
2272.2104591433999303
 21
407.1519223101615239
 31
0.0
  0
LINE
  5
12FFC
  8
0
 10
2272.2130803436989481
 20
407.0716073475534245
 30
0.0
 11
2272.2130803436989481
 21
407.1519223101615239
 31
0.0
  0
LINE
  5
12FFD
  8
0
 10
2272.2223211939999601
 20
407.1519223101615239
 30
0.0
 11
2272.2223211939999601
 21
407.0716073475534245
 31
0.0
  0
LINE
  5
12FFE
  8
0
 10
2272.2251189988000988
 20
407.0716073475534245
 30
0.0
 11
2272.2251189988000988
 21
407.1519223101615239
 31
0.0
  0
LINE
  5
12FFF
  8
0
 10
2272.227888964000158
 20
407.0716073475534245
 30
0.0
 11
2272.227888964000158
 21
407.1519223101615239
 31
0.0
  0
LINE
  5
13000
  8
0
 10
2272.2366582035001557
 20
407.1519223101615239
 30
0.0
 11
2272.2366582035001557
 21
407.0716073475534245
 31
0.0
  0
LINE
  5
13001
  8
0
 10
2272.2390158105990849
 20
407.0716073475534245
 30
0.0
 11
2272.2390158105990849
 21
407.1519223101615239
 31
0.0
  0
LINE
  5
13002
  8
0
 10
2272.241926948398941
 20
407.0716073475534245
 30
0.0
 11
2272.241926948398941
 21
407.1519223101615239
 31
0.0
  0
LINE
  5
13003
  8
0
 10
2272.2502005279379773
 20
407.1519223101615239
 30
0.0
 11
2272.2502005279379773
 21
407.0716073475534245
 31
0.0
  0
LINE
  5
13004
  8
0
 10
2272.2521114754381415
 20
407.0716073475534245
 30
0.0
 11
2272.2521114754381415
 21
407.1519223101615239
 31
0.0
  0
LINE
  5
13005
  8
0
 10
2272.2551558199988904
 20
407.0716073475534245
 30
0.0
 11
2272.2551558199988904
 21
407.1519223101615239
 31
0.0
  0
LINE
  5
13006
  8
0
 10
2272.2629110755387956
 20
407.0716073475534245
 30
0.0
 11
2272.2629110755387956
 21
407.1519223101615239
 31
0.0
  0
LINE
  5
13007
  8
0
 10
2272.2643701254391999
 20
407.0716073475534245
 30
0.0
 11
2272.2643701254391999
 21
407.1519223101615239
 31
0.0
  0
LINE
  5
13008
  8
0
 10
2272.2675393058379996
 20
407.0716073475534245
 30
0.0
 11
2272.2675393058379996
 21
407.1519223101615239
 31
0.0
  0
LINE
  5
13009
  8
0
 10
2272.2747549940381759
 20
407.0716073475534245
 30
0.0
 11
2272.2747549940381759
 21
407.1519223101615239
 31
0.0
  0
LINE
  5
1300A
  8
0
 10
2272.2757581474379549
 20
407.0716073475534245
 30
0.0
 11
2272.2757581474379549
 21
407.1519223101615239
 31
0.0
  0
LINE
  5
1300B
  8
0
 10
2272.2790434903381538
 20
407.0716073475534245
 30
0.0
 11
2272.2790434903381538
 21
407.1519223101615239
 31
0.0
  0
LINE
  5
1300C
  8
0
 10
2272.2856998201377792
 20
407.0716073475534245
 30
0.0
 11
2272.2856998201377792
 21
407.1519223101615239
 31
0.0
  0
LINE
  5
1300D
  8
0
 10
2272.2862443273388635
 20
407.0716073475534245
 30
0.0
 11
2272.2862443273388635
 21
407.1519223101615239
 31
0.0
  0
LINE
  5
1300E
  8
0
 10
2272.2895780298381396
 20
407.0716073475534245
 30
0.0
 11
2272.2895780298381396
 21
407.1519223101615239
 31
0.0
  0
LINE
  5
1300F
  8
0
 10
2272.2957155549388517
 20
407.0716073475534245
 30
0.0
 11
2272.2957155549388517
 21
407.1519223101615239
 31
0.0
  0
LINE
  5
13010
  8
0
 10
2272.2992902832388609
 20
407.0716073475534245
 30
0.0
 11
2272.2992902832388609
 21
407.1519223101615239
 31
0.0
  0
LINE
  5
13011
  8
0
 10
2272.3047747458381309
 20
407.0716073475534245
 30
0.0
 11
2272.3047747458381309
 21
407.1519223101615239
 31
0.0
  0
LINE
  5
13012
  8
0
 10
2272.3079773966378525
 20
407.0716073475534245
 30
0.0
 11
2272.3079773966378525
 21
407.1519223101615239
 31
0.0
  0
LINE
  5
13013
  8
0
 10
2272.3128525624388203
 20
407.0716073475534245
 30
0.0
 11
2272.3128525624388203
 21
407.1519223101615239
 31
0.0
  0
LINE
  5
13014
  8
0
 10
2272.3156743573381391
 20
407.0716073475534245
 30
0.0
 11
2272.3156743573381391
 21
407.1519223101615239
 31
0.0
  0
LINE
  5
13015
  8
0
 10
2272.3199268638381909
 20
407.0716073475534245
 30
0.0
 11
2272.3199268638381909
 21
407.1519223101615239
 31
0.0
  0
LINE
  5
13016
  8
0
 10
2272.3223600685378187
 20
407.0716073475534245
 30
0.0
 11
2272.3223600685378187
 21
407.1519223101615239
 31
0.0
  0
LINE
  5
13017
  8
0
 10
2272.3259782598379388
 20
407.0716073475534245
 30
0.0
 11
2272.3259782598379388
 21
407.1519223101615239
 31
0.0
  0
LINE
  5
13018
  8
0
 10
2272.3280162051378284
 20
407.0716073475534245
 30
0.0
 11
2272.3280162051378284
 21
407.1519223101615239
 31
0.0
  0
LINE
  5
13019
  8
0
 10
2272.3309901641378019
 20
407.0716073475534245
 30
0.0
 11
2272.3309901641378019
 21
407.1519223101615239
 31
0.0
  0
LINE
  5
1301A
  8
0
 10
2272.3326272641379546
 20
407.0716073475534245
 30
0.0
 11
2272.3326272641379546
 21
407.1519223101615239
 31
0.0
  0
LINE
  5
1301B
  8
0
 10
2272.3349488393378124
 20
407.0716073475534245
 30
0.0
 11
2272.3349488393378124
 21
407.1519223101615239
 31
0.0
  0
LINE
  5
1301C
  8
0
 10
2272.3361806068378428
 20
407.0716073475534245
 30
0.0
 11
2272.3361806068378428
 21
407.1519223101615239
 31
0.0
  0
LINE
  5
1301D
  8
0
 10
2272.3378434351379838
 20
407.0716073475534245
 30
0.0
 11
2272.3378434351379838
 21
407.1519223101615239
 31
0.0
  0
LINE
  5
1301E
  8
0
 10
2272.3386664938389004
 20
407.0716073475534245
 30
0.0
 11
2272.3386664938389004
 21
407.1519223101615239
 31
0.0
  0
LINE
  5
1301F
  8
0
 10
2272.3396660174389581
 20
407.0716073475534245
 30
0.0
 11
2272.3396660174389581
 21
407.1519223101615239
 31
0.0
  0
LINE
  5
13020
  8
0
 10
2272.3400781115378777
 20
407.0716073475534245
 30
0.0
 11
2272.3400781115378777
 21
407.1519223101615239
 31
0.0
  0
LINE
  5
13021
  8
0
 10
2272.3404115907378582
 20
407.0716073475534245
 30
0.0
 11
2272.3404115907378582
 21
407.1519223101615239
 31
0.0
  0
LINE
  5
13022
  8
0
 10
2271.612084988837978
 20
407.0716073475534245
 30
0.0
 11
2271.612084988837978
 21
407.0519223101616149
 31
0.0
  0
LINE
  5
13023
  8
0
 10
2271.612084988837978
 20
407.0519223101616149
 30
0.0
 11
2272.2813759888381355
 21
407.0519223101616149
 31
0.0
  0
LINE
  5
13024
  8
0
 10
2272.2813759888381355
 20
407.0519223101616149
 30
0.0
 11
2272.2813759888381355
 21
407.0716073475534245
 31
0.0
  0
LINE
  5
13025
  8
0
 10
2272.9506674967378785
 20
409.1197974543616169
 30
0.0
 11
2275.4704931399378438
 21
411.6396230975615254
 31
0.0
  0
LINE
  5
13026
  8
0
 10
2272.9506674967378785
 20
411.6396230975615254
 30
0.0
 11
2304.9191716001378154
 21
411.6396230975615254
 31
0.0
  0
LINE
  5
13027
  8
0
 10
2272.9506674967378785
 20
413.2144262472615992
 30
0.0
 11
2304.9191716001378154
 21
413.2144262472615992
 31
0.0
  0
LINE
  5
13028
  8
0
 10
2273.0016200417389882
 20
413.2144262472615992
 30
0.0
 11
2273.0016200417389882
 21
411.6396230975615254
 31
0.0
  0
LINE
  5
13029
  8
0
 10
2273.0490926936381584
 20
413.3133396330616165
 30
0.0
 11
2288.8758643786381981
 21
413.3133396330616165
 31
0.0
  0
LINE
  5
1302A
  8
0
 10
2288.8758643786381981
 20
413.3133396330616165
 30
0.0
 11
2288.8758643786381981
 21
430.3605837275616182
 31
0.0
  0
LINE
  5
1302B
  8
0
 10
2288.8758643786381981
 20
430.3605837275616182
 30
0.0
 11
2273.0490926936381584
 21
430.3605837275616182
 31
0.0
  0
LINE
  5
1302C
  8
0
 10
2273.0490926936381584
 20
430.3605837275616182
 30
0.0
 11
2273.0490926936381584
 21
413.3133396330616165
 31
0.0
  0
LINE
  5
1302D
  8
0
 10
2272.9900375755391906
 20
431.2070404204615102
 30
0.0
 11
2304.9191716001378154
 21
431.2070404204615102
 31
0.0
  0
LINE
  5
1302E
  8
0
 10
2304.9191716001378154
 20
430.4590089243616262
 30
0.0
 11
2272.9506674967378785
 21
430.4590089243616262
 31
0.0
  0
LINE
  5
1302F
  8
0
 10
2272.9900375755391906
 20
431.2070404204615102
 30
0.0
 11
2272.9900375755391906
 21
430.4590089243616262
 31
0.0
  0
LINE
  5
13030
  8
0
 10
2304.8207464032388998
 20
439.9668829401614971
 30
0.0
 11
2273.0490926936381584
 21
439.9668829401614971
 31
0.0
  0
LINE
  5
13031
  8
0
 10
2273.0490926936381584
 20
439.9668829401614971
 30
0.0
 11
2273.0490926936381584
 21
431.3054656172615182
 31
0.0
  0
LINE
  5
13032
  8
0
 10
2272.9506674967378785
 20
431.3054656172615182
 30
0.0
 11
2304.8207464032388998
 21
431.3054656172615182
 31
0.0
  0
LINE
  5
13033
  8
0
 10
2284.5651557172382127
 20
436.0295837275614872
 30
0.0
 11
2293.3046833796388455
 21
436.0295837275614872
 31
0.0
  0
LINE
  5
13034
  8
0
 10
2293.3046833796388455
 20
435.2421821527615862
 30
0.0
 11
2284.5651557172382127
 21
435.2421821527615862
 31
0.0
  0
ARC
  5
13035
  8
0
 10
2284.5651557172382127
 20
435.2621821527615111
 30
0.0
 40
0.02
 50
180.0
 51
270.0
  0
LINE
  5
13036
  8
0
 10
2284.5451557172377761
 20
435.2621821527615111
 30
0.0
 11
2284.5451557172377761
 21
436.0095837275616191
 31
0.0
  0
ARC
  5
13037
  8
0
 10
2284.5651557172382127
 20
436.0095837275616191
 30
0.0
 40
0.02
 50
90.0
 51
180.0
  0
LINE
  5
13038
  8
0
 10
2272.9506674967378785
 20
440.0653081369616189
 30
0.0
 11
2304.9191716001378154
 21
440.0653081369616189
 31
0.0
  0
LINE
  5
13039
  8
0
 10
2272.9906674967378422
 20
441.6401112865614778
 30
0.0
 11
2272.9906674967378422
 21
440.0653081369616189
 31
0.0
  0
LINE
  5
1303A
  8
0
 10
2286.9664155597388344
 20
440.0653081369616189
 30
0.0
 11
2286.9664155597388344
 21
439.9668829401614971
 31
0.0
  0
LINE
  5
1303B
  8
0
 10
2272.9715905778380147
 20
437.0947875405116179
 30
0.0
 11
2272.9715905684379322
 21
437.0946980141114864
 31
0.0
  0
LINE
  5
1303C
  8
0
 10
2272.9560408510378693
 20
437.8966807179614875
 30
0.0
 11
2272.9560408510378693
 21
436.7428228818615139
 31
0.0
  0
ARC
  5
1303D
  8
0
 10
2272.9253321896380839
 20
437.2973597244115922
 30
0.0
 40
0.2078740157
 50
282.857724872593792
 51
306.5385160654960828
  0
ARC
  5
1303E
  8
0
 10
2272.9253321896380839
 20
437.3421438772115835
 30
0.0
 40
0.2078740157
 50
53.4614839345039101
 51
77.1422751274061227
  0
ARC
  5
1303F
  8
0
 10
2272.9760408510378511
 20
437.5643041768116177
 30
0.0
 40
0.02
 50
180.0
 51
257.1423612969903729
  0
ARC
  5
13040
  8
0
 10
2272.9760408510378511
 20
437.0751994248116148
 30
0.0
 40
0.02
 50
102.8576387030095987
 51
180.0
  0
ARC
  5
13041
  8
0
 10
2272.9460408510381058
 20
437.8966807196616173
 30
0.0
 40
0.0099999999999875
 50
359.9999902596446191
 51
62.440818555274511
  0
ARC
  5
13042
  8
0
 10
2272.9460408510390153
 20
436.7428228818608886
 30
0.0
 40
0.0099999999990867
 50
297.5591814403496187
 51
0.0000000036444577
  0
LINE
  5
13043
  8
0
 10
2275.6104447690900088
 20
431.2070404204615102
 30
0.0
 11
2275.6104447691318455
 21
431.252908147761616
 31
0.0
  0
ARC
  5
13044
  8
0
 10
2275.6154445759998453
 20
431.2529081477570116
 30
0.0
 40
0.0049998068677759
 50
109.5229742572531961
 51
179.999999947551089
  0
ARC
  5
13045
  8
0
 10
2275.6104247278622097
 20
431.2670657178210831
 30
0.0
 40
0.0100213670360832
 50
289.5229742572789178
 51
356.8615605392657812
  0
ARC
  5
13046
  8
0
 10
2300.3921664675581269
 20
429.9082592361942829
 30
0.0
 40
24.8089447417186904
 50
176.8415247883056907
 51
176.8615605392658097
  0
ARC
  5
13047
  8
0
 10
2275.6814544789699539
 20
431.2718383188434927
 30
0.0
 40
0.0606390442057716
 50
146.3203693702955093
 51
176.8415247883056907
  0
ARC
  5
13048
  8
0
 10
2276.2866460878331054
 20
431.2729854807661241
 30
0.0
 40
0.1260262112477246
 50
165.0648709129511928
 51
179.1209780121297115
  0
ARC
  5
13049
  8
0
 10
2276.1384806904820834
 20
431.2652884154751973
 30
0.0
 40
0.0220026114695956
 50
325.7594030829152985
 51
2.5188326816195681
  0
LINE
  5
1304A
  8
0
 10
2276.1566698553951937
 20
431.2070404204615102
 30
0.0
 11
2276.1566698555948278
 21
431.2529082222616239
 31
0.0
  0
ARC
  5
1304B
  8
0
 10
2276.1512215833931805
 20
431.2521785318709249
 30
0.0
 40
0.0054969189605103
 50
7.6282641133612463
 51
81.9009155125266091
  0
LINE
  5
1304C
  8
0
 10
2276.1519960190880738
 20
431.2576206240614738
 30
0.0
 11
2275.6137737164949613
 21
431.2576205035616113
 31
0.0
  0
LINE
  5
1304D
  8
0
 10
2276.3769121506948068
 20
431.2070404204615102
 30
0.0
 11
2276.3769121506948068
 21
431.3054656172615182
 31
0.0
  0
LINE
  5
1304E
  8
0
 10
2276.3469121506950614
 20
431.3054656172615182
 30
0.0
 11
2276.3469121506950614
 21
431.2070404204615102
 31
0.0
  0
LINE
  5
1304F
  8
0
 10
2276.3469121506950614
 20
431.2355917228614999
 30
0.0
 11
2276.3769121506948068
 21
431.2355917228614999
 31
0.0
  0
LINE
  5
13050
  8
0
 10
2276.3104447690939196
 20
431.2795817014616091
 30
0.0
 11
2276.3469121506950614
 21
431.2795817014616091
 31
0.0
  0
LINE
  5
13051
  8
0
 10
2276.3104447690939196
 20
431.3054656172615182
 30
0.0
 11
2276.3104447690939196
 21
431.2070404204616239
 31
0.0
  0
LINE
  5
13052
  8
0
 10
2276.3026524087490543
 20
431.2920404204616034
 30
0.0
 11
2276.3026524087490543
 21
431.2920404204616034
 31
0.0
  0
LINE
  5
13053
  8
0
 10
2276.3104447690939196
 20
431.2920404204616034
 30
0.0
 11
2276.1821808481950029
 21
431.2920404204616034
 31
0.0
  0
LINE
  5
13054
  8
0
 10
2276.1706431555508061
 20
431.2070404204615102
 30
0.0
 11
2276.170648978365989
 21
431.2370641818615127
 31
0.0
  0
ARC
  5
13055
  8
0
 10
2276.06624803620889
 20
431.2652662808995956
 30
0.0
 40
0.1081430308133828
 50
344.8833433553372743
 51
358.2906377959404267
  0
ARC
  5
13056
  8
0
 10
2276.296809317493171
 20
431.2642343836045029
 30
0.0
 40
0.122486024849896
 50
171.6411792587495029
 51
181.0263338322583877
  0
ARC
  5
13057
  8
0
 10
2276.1983197328268034
 20
431.2777330265766977
 30
0.0
 40
0.023100419036449
 50
152.072243750587603
 51
169.2535079261548105
  0
ARC
  5
13058
  8
0
 10
2276.1833227767638164
 20
431.2862829852157915
 30
0.0
 40
0.0058695878446662
 50
101.2184395783914965
 51
157.2556004483583934
  0
LINE
  5
13059
  8
0
 10
2276.170648978365989
 20
431.2370641818615127
 30
0.0
 11
2276.2904447690939378
 21
431.2370493801615794
 31
0.0
  0
LINE
  5
1305A
  8
0
 10
2276.2904447690939378
 20
431.2070404204615102
 30
0.0
 11
2276.2904447690939378
 21
431.2370493801615794
 31
0.0
  0
ARC
  5
1305B
  8
0
 10
2276.2501249001320502
 20
431.2671662878757957
 30
0.0
 40
0.0503261359876927
 50
323.2421243387934737
 51
356.875956624382809
  0
ARC
  5
1305C
  8
0
 10
2277.6421285738838378
 20
431.1962760336045903
 30
0.0
 40
1.3434818210750421
 50
176.7224636378876994
 51
177.0924462708740919
  0
ARC
  5
1305D
  8
0
 10
2276.3207885058950524
 20
431.2720174328616167
 30
0.0
 40
0.0199728577999689
 50
121.1908011139829
 51
176.932026151329012
  0
LINE
  5
1305E
  8
0
 10
2276.3006584263957848
 20
431.2697692098615221
 30
0.0
 11
2276.3104447690939196
 21
431.2697692098615221
 31
0.0
  0
LINE
  5
1305F
  8
0
 10
2276.2096611767260583
 20
431.2644229297616221
 30
0.0
 11
2276.3003762080720662
 21
431.2644229297616221
 31
0.0
  0
LINE
  5
13060
  8
0
 10
2276.1743429432949597
 20
431.262040420461517
 30
0.0
 11
2276.1979447690951019
 21
431.262040420461517
 31
0.0
  0
ARC
  5
13061
  8
0
 10
2276.1979447690951019
 20
431.2920404205358977
 30
0.0
 40
0.0300000000742955
 50
270.0
 51
340.5287792651816972
  0
ARC
  5
13062
  8
0
 10
2276.2403711760998704
 20
431.277040420405001
 30
0.0
 40
0.015000000095553
 50
90.0
 51
160.5287792651785992
  0
LINE
  5
13063
  8
0
 10
2277.6404447691052155
 20
431.2070404204615102
 30
0.0
 11
2277.6404447690638335
 21
431.252908147761616
 31
0.0
  0
ARC
  5
13064
  8
0
 10
2277.6354449621958338
 20
431.2529081477570116
 30
0.0
 40
0.0049998068677759
 50
0.0000000524489243
 51
70.4770257427468181
  0
ARC
  5
13065
  8
0
 10
2277.6404648103339241
 20
431.2670657178210831
 30
0.0
 40
0.0100213670360832
 50
183.1384394607341903
 51
250.4770257427211959
  0
ARC
  5
13066
  8
0
 10
2252.8587230706370974
 20
429.9082592361942829
 30
0.0
 40
24.8089447417186904
 50
3.1384394607341899
 51
3.158475211694237
  0
ARC
  5
13067
  8
0
 10
2277.5694350592248156
 20
431.2718383188434927
 30
0.0
 40
0.0606390442057716
 50
3.158475211694237
 51
33.6796306297044765
  0
ARC
  5
13068
  8
0
 10
2276.9642434503571167
 20
431.2729854807661241
 30
0.0
 40
0.1260262112477246
 50
0.8790219878702544
 51
14.9351290870488107
  0
ARC
  5
13069
  8
0
 10
2277.1124088477067744
 20
431.2652884154751973
 30
0.0
 40
0.0220026114695956
 50
177.4811673183803862
 51
214.2405969170847015
  0
LINE
  5
1306A
  8
0
 10
2277.0942196827950283
 20
431.2070404204615102
 30
0.0
 11
2277.0942196825949395
 21
431.2529082222616239
 31
0.0
  0
ARC
  5
1306B
  8
0
 10
2277.0996679547970416
 20
431.2521785318709249
 30
0.0
 40
0.0054969189605103
 50
98.0990844874734336
 51
172.3717358866387031
  0
LINE
  5
1306C
  8
0
 10
2277.098893519100784
 20
431.2576206240614738
 30
0.0
 11
2277.6371158217011725
 21
431.2576205035616113
 31
0.0
  0
LINE
  5
1306D
  8
0
 10
2276.9069121506940974
 20
431.2070404204615102
 30
0.0
 11
2276.9069121506940974
 21
431.3054656172615182
 31
0.0
  0
LINE
  5
1306E
  8
0
 10
2276.9369121506952069
 20
431.3054656172615182
 30
0.0
 11
2276.9369121506952069
 21
431.2070404204615102
 31
0.0
  0
LINE
  5
1306F
  8
0
 10
2276.9369121506952069
 20
431.2355917228614999
 30
0.0
 11
2276.9069121506940974
 21
431.2355917228614999
 31
0.0
  0
LINE
  5
13070
  8
0
 10
2276.9404447690949382
 20
431.2795817014616091
 30
0.0
 11
2276.9369121506952069
 21
431.2795817014616091
 31
0.0
  0
LINE
  5
13071
  8
0
 10
2276.9404447690949382
 20
431.3054656172615182
 30
0.0
 11
2276.9404447690949382
 21
431.2070404204616239
 31
0.0
  0
LINE
  5
13072
  8
0
 10
2276.9482371294398035
 20
431.2920404204616034
 30
0.0
 11
2276.9482371294398035
 21
431.2920404204616034
 31
0.0
  0
LINE
  5
13073
  8
0
 10
2276.9404447690949382
 20
431.2920404204616034
 30
0.0
 11
2277.0687086899952192
 21
431.2920404204616034
 31
0.0
  0
LINE
  5
13074
  8
0
 10
2277.0802463826380517
 20
431.2070404204615102
 30
0.0
 11
2277.0802405598228688
 21
431.2370641818615127
 31
0.0
  0
ARC
  5
13075
  8
0
 10
2277.1846415019799679
 20
431.2652662808995956
 30
0.0
 40
0.1081430308133828
 50
181.709362204059488
 51
195.1166566446626121
  0
ARC
  5
13076
  8
0
 10
2276.9540802206970511
 20
431.2642343836045029
 30
0.0
 40
0.122486024849896
 50
358.9736661677416123
 51
8.3588207412505131
  0
ARC
  5
13077
  8
0
 10
2277.052569805362964
 20
431.2777330265766977
 30
0.0
 40
0.023100419036449
 50
10.7464920738452303
 51
27.9277562494123401
  0
ARC
  5
13078
  8
0
 10
2277.0675667614250415
 20
431.2862829852157915
 30
0.0
 40
0.0058695878446662
 50
22.7443995516415995
 51
78.7815604216084608
  0
LINE
  5
13079
  8
0
 10
2277.0802405598228688
 20
431.2370641818615127
 30
0.0
 11
2276.96044476909492
 21
431.2370493801615794
 31
0.0
  0
LINE
  5
1307A
  8
0
 10
2276.96044476909492
 20
431.2070404204615102
 30
0.0
 11
2276.96044476909492
 21
431.2370493801615794
 31
0.0
  0
ARC
  5
1307B
  8
0
 10
2277.0007646380568076
 20
431.2671662878757957
 30
0.0
 40
0.0503261359876927
 50
183.1240433756171058
 51
216.7578756612064979
  0
ARC
  5
1307C
  8
0
 10
2275.60876096430502
 20
431.1962760336045903
 30
0.0
 40
1.3434818210750421
 50
2.9075537291259219
 51
3.2775363621123139
  0
ARC
  5
1307D
  8
0
 10
2276.9301010322951697
 20
431.2720174328616167
 30
0.0
 40
0.0199728577999689
 50
3.0679738486709911
 51
58.8091988860170787
  0
LINE
  5
1307E
  8
0
 10
2276.9502311117930731
 20
431.2697692098615221
 30
0.0
 11
2276.9404447690949382
 21
431.2697692098615221
 31
0.0
  0
LINE
  5
1307F
  8
0
 10
2277.0412283614627995
 20
431.2644229297616221
 30
0.0
 11
2276.9505133301167916
 21
431.2644229297616221
 31
0.0
  0
LINE
  5
13080
  8
0
 10
2277.0765465948948076
 20
431.262040420461517
 30
0.0
 11
2277.0529447690951201
 21
431.262040420461517
 31
0.0
  0
ARC
  5
13081
  8
0
 10
2277.0529447690951201
 20
431.2920404205358977
 30
0.0
 40
0.0300000000742955
 50
199.4712207348183028
 51
270.0
  0
ARC
  5
13082
  8
0
 10
2277.0105183620889875
 20
431.277040420405001
 30
0.0
 40
0.015000000095553
 50
19.4712207348214008
 51
90.0
  0
LINE
  5
13083
  8
0
 10
2288.0684628038379742
 20
426.4234734913115972
 30
0.0
 11
2287.3998013865389112
 21
426.4234734913115972
 31
0.0
  0
LINE
  5
13084
  8
0
 10
2288.0684628038379742
 20
421.6596939637116179
 30
0.0
 11
2287.3998013865389112
 21
421.6596939637116179
 31
0.0
  0
LINE
  5
13085
  8
0
 10
2287.3798013865389294
 20
426.4034734913115017
 30
0.0
 11
2287.3798013865389294
 21
421.6796939637115997
 31
0.0
  0
LINE
  5
13086
  8
0
 10
2288.088462803837956
 20
426.4034734913115017
 30
0.0
 11
2288.088462803837956
 21
421.6796939637115997
 31
0.0
  0
ARC
  5
13087
  8
0
 10
2287.3998013865389112
 20
426.4034734913115017
 30
0.0
 40
0.02
 50
90.0
 51
179.9999999999967031
  0
ARC
  5
13088
  8
0
 10
2288.0684628038379742
 20
426.4034734913115017
 30
0.0
 40
0.02
 50
359.9999999999968168
 51
90.0
  0
ARC
  5
13089
  8
0
 10
2287.3998013865389112
 20
421.6796939637115997
 30
0.0
 40
0.02
 50
180.0
 51
270.0
  0
ARC
  5
1308A
  8
0
 10
2288.0684628038379742
 20
421.6796939637115997
 30
0.0
 40
0.02
 50
270.0
 51
0.0
  0
LINE
  5
1308B
  8
0
 10
2272.9506674967378785
 20
428.2263868771390776
 30
0.0
 11
2272.9965352240378706
 21
428.2263868770971271
 31
0.0
  0
ARC
  5
1308C
  8
0
 10
2272.9965352240337779
 20
428.2213870702291842
 30
0.0
 40
0.0049998068677759
 50
19.5229742572696203
 51
89.9999999475510748
  0
ARC
  5
1308D
  8
0
 10
2273.0106927940978494
 20
428.2264069183675019
 30
0.0
 40
0.0100213670360832
 50
199.5229742572726934
 51
266.8615605392694192
  0
ARC
  5
1308E
  8
0
 10
2271.6518863124711061
 20
403.4446651786710731
 30
0.0
 40
24.8089447417186904
 50
86.8415247883156951
 51
86.861560539269405
  0
ARC
  5
1308F
  8
0
 10
2273.015465395119918
 20
428.1553771672583935
 30
0.0
 40
0.0606390442057716
 50
56.3203693702855901
 51
86.8415247883156951
  0
ARC
  5
13090
  8
0
 10
2273.0166125570431177
 20
427.5501855583966062
 30
0.0
 40
0.1260262112477246
 50
75.064870912944059
 51
89.1209780121264288
  0
ARC
  5
13091
  8
0
 10
2273.0089154917518499
 20
427.698350955746605
 30
0.0
 40
0.0220026114695956
 50
235.7594030829108078
 51
272.5188326816257813
  0
LINE
  5
13092
  8
0
 10
2272.9506674967378785
 20
427.6801617908345179
 30
0.0
 11
2272.9965352985382196
 21
427.6801617906343722
 31
0.0
  0
ARC
  5
13093
  8
0
 10
2272.9958056081482027
 20
427.6856100628369859
 30
0.0
 40
0.0054969189605103
 50
277.628264113359478
 51
351.900915512511915
  0
LINE
  5
13094
  8
0
 10
2273.0012477003388085
 20
427.6848356271410125
 30
0.0
 11
2273.001247579838946
 21
428.223057929734523
 31
0.0
  0
LINE
  5
13095
  8
0
 10
2272.9506674967378785
 20
427.459919495534507
 30
0.0
 11
2273.049092693538114
 21
427.459919495534507
 31
0.0
  0
LINE
  5
13096
  8
0
 10
2273.049092693538114
 20
427.4899194955344228
 30
0.0
 11
2272.9506674967378785
 21
427.4899194955344228
 31
0.0
  0
LINE
  5
13097
  8
0
 10
2272.9792187991388346
 20
427.4899194955344228
 30
0.0
 11
2272.9792187991388346
 21
427.459919495534507
 31
0.0
  0
LINE
  5
13098
  8
0
 10
2273.0232087777380912
 20
427.5263868771344846
 30
0.0
 11
2273.0232087777380912
 21
427.4899194955344228
 31
0.0
  0
LINE
  5
13099
  8
0
 10
2273.049092693538114
 20
427.5263868771344846
 30
0.0
 11
2272.9506674967378785
 21
427.5263868771344846
 31
0.0
  0
LINE
  5
1309A
  8
0
 10
2273.0356674967379149
 20
427.5341792374802026
 30
0.0
 11
2273.0356674967379149
 21
427.5341792374802026
 31
0.0
  0
LINE
  5
1309B
  8
0
 10
2273.0356674967379149
 20
427.5263868771344846
 30
0.0
 11
2273.0356674967379149
 21
427.6546507980344245
 31
0.0
  0
LINE
  5
1309C
  8
0
 10
2272.9506674967378785
 20
427.6661884906778823
 30
0.0
 11
2272.9806912581389042
 21
427.666182667863211
 31
0.0
  0
ARC
  5
1309D
  8
0
 10
2273.0088933571769303
 20
427.7705836100204806
 30
0.0
 40
0.1081430308133828
 50
254.8833433553222108
 51
268.2906377959437805
  0
ARC
  5
1309E
  8
0
 10
2273.0078614598819513
 20
427.5400223287363133
 30
0.0
 40
0.122486024849896
 50
81.6411792587453107
 51
91.0263338322647257
  0
ARC
  5
1309F
  8
0
 10
2273.0213601028540324
 20
427.638511913402283
 30
0.0
 40
0.023100419036449
 50
62.0722437505835885
 51
79.2535079261527784
  0
ARC
  5
130A0
  8
0
 10
2273.0299100614929557
 20
427.6535088694652131
 30
0.0
 40
0.0058695878446662
 50
11.2184395783966409
 51
67.2556004483451346
  0
LINE
  5
130A1
  8
0
 10
2272.9806912581389042
 20
427.666182667863211
 30
0.0
 11
2272.9806764564377772
 21
427.5463868771345233
 31
0.0
  0
LINE
  5
130A2
  8
0
 10
2272.9506674967378785
 20
427.5463868771345233
 30
0.0
 11
2272.9806764564377772
 21
427.5463868771345233
 31
0.0
  0
ARC
  5
130A3
  8
0
 10
2273.0107933641529598
 20
427.5867067460973203
 30
0.0
 40
0.0503261359876927
 50
233.2421243387935021
 51
266.8759566243900281
  0
ARC
  5
130A4
  8
0
 10
2272.939903109881925
 20
426.194703072345078
 30
0.0
 40
1.3434818210750421
 50
86.7224636378817451
 51
87.0924462708839968
  0
ARC
  5
130A5
  8
0
 10
2273.0156445091379283
 20
427.5160431403344887
 30
0.0
 40
0.0199728577999689
 50
31.1908011139785302
 51
86.9320261513230292
  0
LINE
  5
130A6
  8
0
 10
2273.0133962861377768
 20
427.5361732198335858
 30
0.0
 11
2273.0133962861377768
 21
427.5263868771344846
 31
0.0
  0
LINE
  5
130A7
  8
0
 10
2273.0080500060389568
 20
427.6271704695028006
 30
0.0
 11
2273.0080500060389568
 21
427.5364554381570201
 31
0.0
  0
LINE
  5
130A8
  8
0
 10
2273.0056674967381696
 20
427.6624887029345246
 30
0.0
 11
2273.0056674967381696
 21
427.638886877134496
 31
0.0
  0
ARC
  5
130A9
  8
0
 10
2273.0356674968129482
 20
427.638886877134496
 30
0.0
 40
0.0300000000742955
 50
180.0000000000032117
 51
250.5287792651826919
  0
ARC
  5
130AA
  8
0
 10
2273.0206674966821083
 20
427.5964604701293865
 30
0.0
 40
0.015000000095553
 50
0.0
 51
70.528779265182763
  0
LINE
  5
130AB
  8
0
 10
2272.9506674967378785
 20
426.196386877123814
 30
0.0
 11
2272.9965352240378706
 21
426.1963868771658213
 31
0.0
  0
ARC
  5
130AC
  8
0
 10
2272.9965352240337779
 20
426.2013866840335936
 30
0.0
 40
0.0049998068677759
 50
270.000000052448911
 51
340.4770257427302909
  0
ARC
  5
130AD
  8
0
 10
2273.0106927940978494
 20
426.1963668358953896
 30
0.0
 40
0.0100213670360832
 50
93.1384394607306092
 51
160.4770257427273066
  0
ARC
  5
130AE
  8
0
 10
2271.6518863124711061
 20
450.9781085755917047
 30
0.0
 40
24.8089447417186904
 50
273.1384394607305808
 51
273.1584752116842765
  0
ARC
  5
130AF
  8
0
 10
2273.015465395119918
 20
426.2673965870043844
 30
0.0
 40
0.0606390442057716
 50
273.1584752116842765
 51
303.6796306297143815
  0
ARC
  5
130B0
  8
0
 10
2273.0166125570431177
 20
426.8725881958724244
 30
0.0
 40
0.1260262112477246
 50
270.8790219878736139
 51
284.9351290870559978
  0
ARC
  5
130B1
  8
0
 10
2273.0089154917518499
 20
426.724422798522312
 30
0.0
 40
0.0220026114695956
 50
87.4811673183742045
 51
124.2405969170892064
  0
LINE
  5
130B2
  8
0
 10
2272.9506674967378785
 20
426.7426119634345127
 30
0.0
 11
2272.9965352985382196
 21
426.7426119636343742
 31
0.0
  0
ARC
  5
130B3
  8
0
 10
2272.9958056081482027
 20
426.7371636914319879
 30
0.0
 40
0.0054969189605103
 50
8.0990844874881383
 51
82.3717358866404936
  0
LINE
  5
130B4
  8
0
 10
2273.0012477003388085
 20
426.7379381271279044
 30
0.0
 11
2273.001247579838946
 21
426.1997158245284254
 31
0.0
  0
LINE
  5
130B5
  8
0
 10
2272.9506674967378785
 20
426.9299194955344205
 30
0.0
 11
2273.049092693538114
 21
426.9299194955344774
 31
0.0
  0
LINE
  5
130B6
  8
0
 10
2273.049092693538114
 20
426.8999194955345047
 30
0.0
 11
2272.9506674967378785
 21
426.8999194955345047
 31
0.0
  0
LINE
  5
130B7
  8
0
 10
2272.9792187991388346
 20
426.8999194955345047
 30
0.0
 11
2272.9792187991388346
 21
426.9299194955344205
 31
0.0
  0
LINE
  5
130B8
  8
0
 10
2273.0232087777380912
 20
426.8963868771343755
 30
0.0
 11
2273.0232087777380912
 21
426.8999194955345047
 31
0.0
  0
LINE
  5
130B9
  8
0
 10
2273.049092693538114
 20
426.8963868771343755
 30
0.0
 11
2272.9506674967378785
 21
426.8963868771343755
 31
0.0
  0
LINE
  5
130BA
  8
0
 10
2273.0356674967379149
 20
426.8885945167887144
 30
0.0
 11
2273.0356674967379149
 21
426.8885945167887144
 31
0.0
  0
LINE
  5
130BB
  8
0
 10
2273.0356674967379149
 20
426.8963868771343755
 30
0.0
 11
2273.0356674967379149
 21
426.7681229562343788
 31
0.0
  0
LINE
  5
130BC
  8
0
 10
2272.9506674967378785
 20
426.7565852635909778
 30
0.0
 11
2272.9806912581389042
 21
426.7565910864058765
 31
0.0
  0
ARC
  5
130BD
  8
0
 10
2273.0088933571769303
 20
426.6521901442483795
 30
0.0
 40
0.1081430308133828
 50
91.7093622040561343
 51
105.1166566446525934
  0
ARC
  5
130BE
  8
0
 10
2273.0078614598819513
 20
426.8827514255327173
 30
0.0
 40
0.122486024849896
 50
268.973666167735189
 51
278.3588207412547035
  0
ARC
  5
130BF
  8
0
 10
2273.0213601028540324
 20
426.7842618408665771
 30
0.0
 40
0.023100419036449
 50
280.7464920738472074
 51
297.9277562494149265
  0
ARC
  5
130C0
  8
0
 10
2273.0299100614929557
 20
426.7692648848035901
 30
0.0
 40
0.0058695878446662
 50
292.744399551654908
 51
348.7815604216033876
  0
LINE
  5
130C1
  8
0
 10
2272.9806912581389042
 20
426.7565910864058765
 30
0.0
 11
2272.9806764564377772
 21
426.8763868771345074
 31
0.0
  0
LINE
  5
130C2
  8
0
 10
2272.9506674967378785
 20
426.8763868771345074
 30
0.0
 11
2272.9806764564377772
 21
426.8763868771345074
 31
0.0
  0
ARC
  5
130C3
  8
0
 10
2273.0107933641529598
 20
426.8360670081717103
 30
0.0
 40
0.0503261359876927
 50
93.1240433756099577
 51
126.7578756612064979
  0
ARC
  5
130C4
  8
0
 10
2272.939903109881925
 20
428.2280706819237821
 30
0.0
 40
1.3434818210750421
 50
272.907553729115989
 51
273.2775363621182123
  0
ARC
  5
130C5
  8
0
 10
2273.0156445091379283
 20
426.9067306139344282
 30
0.0
 40
0.0199728577999689
 50
273.0679738486770134
 51
328.8091988860214769
  0
LINE
  5
130C6
  8
0
 10
2273.0133962861377768
 20
426.886600534435388
 30
0.0
 11
2273.0133962861377768
 21
426.8963868771343755
 31
0.0
  0
LINE
  5
130C7
  8
0
 10
2273.0080500060389568
 20
426.7956032847661163
 30
0.0
 11
2273.0080500060389568
 21
426.8863183161118968
 31
0.0
  0
LINE
  5
130C8
  8
0
 10
2273.0056674967381696
 20
426.7602850513345061
 30
0.0
 11
2273.0056674967381696
 21
426.7838868771344778
 31
0.0
  0
ARC
  5
130C9
  8
0
 10
2273.0356674968129482
 20
426.7838868771344778
 30
0.0
 40
0.0300000000742955
 50
109.4712207348171944
 51
179.9999999999967031
  0
ARC
  5
130CA
  8
0
 10
2273.0206674966821083
 20
426.8263132841394736
 30
0.0
 40
0.015000000095553
 50
289.4712207348172228
 51
0.0
  0
LINE
  5
130CB
  8
0
 10
2286.9664155597388344
 20
430.4590089243616262
 30
0.0
 11
2286.9664155597388344
 21
430.3605837275616182
 31
0.0
  0
LINE
  5
130CC
  8
0
 10
2288.8758643786381981
 20
429.8684577432616152
 30
0.0
 11
2288.9939747182388601
 21
429.8684577432616152
 31
0.0
  0
LINE
  5
130CD
  8
0
 10
2288.8758643786381981
 20
422.0329774283615052
 30
0.0
 11
2288.9939747182388601
 21
422.0329774283615052
 31
0.0
  0
LINE
  5
130CE
  8
0
 10
2288.8758643786381981
 20
421.4424262471615066
 30
0.0
 11
2288.9939747182388601
 21
421.4424262471615066
 31
0.0
  0
LINE
  5
130CF
  8
0
 10
2288.8758643786381981
 20
420.4581742786616019
 30
0.0
 11
2288.9939747182388601
 21
420.4581742786616019
 31
0.0
  0
LINE
  5
130D0
  8
0
 10
2273.0098824573387901
 20
426.7464041517345095
 30
0.0
 11
2273.0185459536378403
 21
426.7465768158343735
 31
0.0
  0
LINE
  5
130D1
  8
0
 10
2273.0098824573387901
 20
427.6763696025345212
 30
0.0
 11
2273.0185459536378403
 21
427.6761969384343729
 31
0.0
  0
LINE
  5
130D2
  8
0
 10
2272.9506674967378785
 20
417.4780010503483254
 30
0.0
 11
2272.9965352240378706
 21
417.4780010503063181
 31
0.0
  0
ARC
  5
130D3
  8
0
 10
2272.9965352240337779
 20
417.4730012434386026
 30
0.0
 40
0.0049998068677759
 50
19.5229742572696203
 51
89.9999999475510748
  0
ARC
  5
130D4
  8
0
 10
2273.0106927940978494
 20
417.4780210915768066
 30
0.0
 40
0.0100213670360832
 50
199.5229742572726934
 51
266.8615605392694192
  0
ARC
  5
130D5
  8
0
 10
2271.6518863124711061
 20
392.6962793518804915
 30
0.0
 40
24.8089447417186904
 50
86.8415247883156951
 51
86.861560539269405
  0
ARC
  5
130D6
  8
0
 10
2273.015465395119918
 20
417.4069913404676981
 30
0.0
 40
0.0606390442057716
 50
56.3203693702855901
 51
86.8415247883156951
  0
ARC
  5
130D7
  8
0
 10
2273.0166125570431177
 20
416.8017997316057972
 30
0.0
 40
0.1260262112477246
 50
75.064870912944059
 51
89.1209780121264288
  0
ARC
  5
130D8
  8
0
 10
2273.0089154917518499
 20
416.9499651289560234
 30
0.0
 40
0.0220026114695956
 50
235.7594030829108078
 51
272.5188326816257813
  0
LINE
  5
130D9
  8
0
 10
2272.9506674967378785
 20
416.9317759640438226
 30
0.0
 11
2272.9965352985382196
 21
416.9317759638436769
 31
0.0
  0
ARC
  5
130DA
  8
0
 10
2272.9958056081482027
 20
416.9372242360462906
 30
0.0
 40
0.0054969189605103
 50
277.628264113359478
 51
351.900915512511915
  0
LINE
  5
130DB
  8
0
 10
2273.0012477003388085
 20
416.9364498003503741
 30
0.0
 11
2273.001247579838946
 21
417.4746721029438277
 31
0.0
  0
LINE
  5
130DC
  8
0
 10
2272.9506674967378785
 20
416.7115336687436979
 30
0.0
 11
2273.049092693538114
 21
416.7115336687436979
 31
0.0
  0
LINE
  5
130DD
  8
0
 10
2273.049092693538114
 20
416.7415336687437843
 30
0.0
 11
2272.9506674967378785
 21
416.7415336687437843
 31
0.0
  0
LINE
  5
130DE
  8
0
 10
2272.9792187991388346
 20
416.7415336687437843
 30
0.0
 11
2272.9792187991388346
 21
416.7115336687436979
 31
0.0
  0
LINE
  5
130DF
  8
0
 10
2273.0232087777380912
 20
416.7780010503436756
 30
0.0
 11
2273.0232087777380912
 21
416.7415336687437843
 31
0.0
  0
LINE
  5
130E0
  8
0
 10
2273.049092693538114
 20
416.7780010503436756
 30
0.0
 11
2272.9506674967378785
 21
416.7780010503436756
 31
0.0
  0
LINE
  5
130E1
  8
0
 10
2273.0356674967379149
 20
416.7857934106895073
 30
0.0
 11
2273.0356674967379149
 21
416.7857934106895073
 31
0.0
  0
LINE
  5
130E2
  8
0
 10
2273.0356674967379149
 20
416.7780010503436756
 30
0.0
 11
2273.0356674967379149
 21
416.9062649712436723
 31
0.0
  0
LINE
  5
130E3
  8
0
 10
2272.9506674967378785
 20
416.917802663887187
 30
0.0
 11
2272.9806912581389042
 21
416.917796841072402
 31
0.0
  0
ARC
  5
130E4
  8
0
 10
2273.0088933571769303
 20
417.0221977832297853
 30
0.0
 40
0.1081430308133828
 50
254.8833433553222108
 51
268.2906377959437805
  0
ARC
  5
130E5
  8
0
 10
2273.0078614598819513
 20
416.791636501945618
 30
0.0
 40
0.122486024849896
 50
81.6411792587453107
 51
91.0263338322647257
  0
ARC
  5
130E6
  8
0
 10
2273.0213601028540324
 20
416.8901260866117013
 30
0.0
 40
0.023100419036449
 50
62.0722437505835885
 51
79.2535079261527784
  0
ARC
  5
130E7
  8
0
 10
2273.0299100614929557
 20
416.9051230426745178
 30
0.0
 40
0.0058695878446662
 50
11.2184395783966409
 51
67.2556004483451346
  0
LINE
  5
130E8
  8
0
 10
2272.9806912581389042
 20
416.917796841072402
 30
0.0
 11
2272.9806764564377772
 21
416.798001050343828
 31
0.0
  0
LINE
  5
130E9
  8
0
 10
2272.9506674967378785
 20
416.798001050343828
 30
0.0
 11
2272.9806764564377772
 21
416.798001050343828
 31
0.0
  0
ARC
  5
130EA
  8
0
 10
2273.0107933641529598
 20
416.8383209193065113
 30
0.0
 40
0.0503261359876927
 50
233.2421243387935021
 51
266.8759566243900281
  0
ARC
  5
130EB
  8
0
 10
2272.939903109881925
 20
415.4463172455543827
 30
0.0
 40
1.3434818210750421
 50
86.7224636378817451
 51
87.0924462708839968
  0
ARC
  5
130EC
  8
0
 10
2273.0156445091379283
 20
416.7676573135437934
 30
0.0
 40
0.0199728577999689
 50
31.1908011139785302
 51
86.9320261513230292
  0
LINE
  5
130ED
  8
0
 10
2273.0133962861377768
 20
416.7877873930428905
 30
0.0
 11
2273.0133962861377768
 21
416.7780010503436756
 31
0.0
  0
LINE
  5
130EE
  8
0
 10
2273.0080500060389568
 20
416.878784642712219
 30
0.0
 11
2273.0080500060389568
 21
416.7880696113662111
 31
0.0
  0
LINE
  5
130EF
  8
0
 10
2273.0056674967381696
 20
416.9141028761437724
 30
0.0
 11
2273.0056674967381696
 21
416.890501050343687
 31
0.0
  0
ARC
  5
130F0
  8
0
 10
2273.0356674968129482
 20
416.890501050343687
 30
0.0
 40
0.0300000000742955
 50
180.0000000000032117
 51
250.5287792651826919
  0
ARC
  5
130F1
  8
0
 10
2273.0206674966821083
 20
416.8480746433386912
 30
0.0
 40
0.015000000095553
 50
0.0
 51
70.528779265182763
  0
LINE
  5
130F2
  8
0
 10
2272.9506674967378785
 20
415.4480010503331187
 30
0.0
 11
2272.9965352240378706
 21
415.4480010503751828
 31
0.0
  0
ARC
  5
130F3
  8
0
 10
2272.9965352240337779
 20
415.4530008572428983
 30
0.0
 40
0.0049998068677759
 50
270.000000052448911
 51
340.4770257427302909
  0
ARC
  5
130F4
  8
0
 10
2273.0106927940978494
 20
415.4479810091046943
 30
0.0
 40
0.0100213670360832
 50
93.1384394607306092
 51
160.4770257427273066
  0
ARC
  5
130F5
  8
0
 10
2271.6518863124711061
 20
440.2297227488010094
 30
0.0
 40
24.8089447417186904
 50
273.1384394607305808
 51
273.1584752116842765
  0
ARC
  5
130F6
  8
0
 10
2273.015465395119918
 20
415.5190107602138028
 30
0.0
 40
0.0606390442057716
 50
273.1584752116842765
 51
303.6796306297143815
  0
ARC
  5
130F7
  8
0
 10
2273.0166125570431177
 20
416.1242023690816154
 30
0.0
 40
0.1260262112477246
 50
270.8790219878736139
 51
284.9351290870559978
  0
ARC
  5
130F8
  8
0
 10
2273.0089154917518499
 20
415.9760369717316166
 30
0.0
 40
0.0220026114695956
 50
87.4811673183742045
 51
124.2405969170892064
  0
LINE
  5
130F9
  8
0
 10
2272.9506674967378785
 20
415.9942261366437037
 30
0.0
 11
2272.9965352985382196
 21
415.9942261368437926
 31
0.0
  0
ARC
  5
130FA
  8
0
 10
2272.9958056081482027
 20
415.9887778646412926
 30
0.0
 40
0.0054969189605103
 50
8.0990844874881383
 51
82.3717358866404936
  0
LINE
  5
130FB
  8
0
 10
2273.0012477003388085
 20
415.9895523003370954
 30
0.0
 11
2273.001247579838946
 21
415.4513299977376732
 31
0.0
  0
LINE
  5
130FC
  8
0
 10
2272.9506674967378785
 20
416.1815336687437252
 30
0.0
 11
2273.049092693538114
 21
416.1815336687437252
 31
0.0
  0
LINE
  5
130FD
  8
0
 10
2273.049092693538114
 20
416.1515336687438094
 30
0.0
 11
2272.9506674967378785
 21
416.1515336687438094
 31
0.0
  0
LINE
  5
130FE
  8
0
 10
2272.9792187991388346
 20
416.1515336687438094
 30
0.0
 11
2272.9792187991388346
 21
416.1815336687437252
 31
0.0
  0
LINE
  5
130FF
  8
0
 10
2273.0232087777380912
 20
416.1480010503437938
 30
0.0
 11
2273.0232087777380912
 21
416.1515336687438094
 31
0.0
  0
LINE
  5
13100
  8
0
 10
2273.049092693538114
 20
416.1480010503437938
 30
0.0
 11
2272.9506674967378785
 21
416.1480010503437938
 31
0.0
  0
LINE
  5
13101
  8
0
 10
2273.0356674967379149
 20
416.1402086899980191
 30
0.0
 11
2273.0356674967379149
 21
416.1402086899980191
 31
0.0
  0
LINE
  5
13102
  8
0
 10
2273.0356674967379149
 20
416.1480010503437938
 30
0.0
 11
2273.0356674967379149
 21
416.0197371294437971
 31
0.0
  0
LINE
  5
13103
  8
0
 10
2272.9506674967378785
 20
416.0081994368002825
 30
0.0
 11
2272.9806912581389042
 21
416.0082052596151243
 31
0.0
  0
ARC
  5
13104
  8
0
 10
2273.0088933571769303
 20
415.9038043174576842
 30
0.0
 40
0.1081430308133828
 50
91.7093622040561343
 51
105.1166566446525934
  0
ARC
  5
13105
  8
0
 10
2273.0078614598819513
 20
416.134365598742022
 30
0.0
 40
0.122486024849896
 50
268.973666167735189
 51
278.3588207412547035
  0
ARC
  5
13106
  8
0
 10
2273.0213601028540324
 20
416.0358760140758818
 30
0.0
 40
0.023100419036449
 50
280.7464920738472074
 51
297.9277562494149265
  0
ARC
  5
13107
  8
0
 10
2273.0299100614929557
 20
416.0208790580130085
 30
0.0
 40
0.0058695878446662
 50
292.744399551654908
 51
348.7815604216033876
  0
LINE
  5
13108
  8
0
 10
2272.9806912581389042
 20
416.0082052596151243
 30
0.0
 11
2272.9806764564377772
 21
416.1280010503436984
 31
0.0
  0
LINE
  5
13109
  8
0
 10
2272.9506674967378785
 20
416.1280010503436984
 30
0.0
 11
2272.9806764564377772
 21
416.1280010503436984
 31
0.0
  0
ARC
  5
1310A
  8
0
 10
2273.0107933641529598
 20
416.0876811813809013
 30
0.0
 40
0.0503261359876927
 50
93.1240433756099577
 51
126.7578756612064979
  0
ARC
  5
1310B
  8
0
 10
2272.939903109881925
 20
417.4796848551330868
 30
0.0
 40
1.3434818210750421
 50
272.907553729115989
 51
273.2775363621182123
  0
ARC
  5
1310C
  8
0
 10
2273.0156445091379283
 20
416.1583447871436761
 30
0.0
 40
0.0199728577999689
 50
273.0679738486770134
 51
328.8091988860214769
  0
LINE
  5
1310D
  8
0
 10
2273.0133962861377768
 20
416.138214707644579
 30
0.0
 11
2273.0133962861377768
 21
416.1480010503437938
 31
0.0
  0
LINE
  5
1310E
  8
0
 10
2273.0080500060389568
 20
416.047217457975421
 30
0.0
 11
2273.0080500060389568
 21
416.1379324893212015
 31
0.0
  0
LINE
  5
1310F
  8
0
 10
2273.0056674967381696
 20
416.0118992245438108
 30
0.0
 11
2273.0056674967381696
 21
416.0355010503437825
 31
0.0
  0
ARC
  5
13110
  8
0
 10
2273.0356674968129482
 20
416.0355010503437825
 30
0.0
 40
0.0300000000742955
 50
109.4712207348171944
 51
179.9999999999967031
  0
ARC
  5
13111
  8
0
 10
2273.0206674966821083
 20
416.0779274573488919
 30
0.0
 40
0.015000000095553
 50
289.4712207348172228
 51
0.0
  0
LINE
  5
13112
  8
0
 10
2273.0098824573387901
 20
415.9980183249437005
 30
0.0
 11
2273.0185459536378403
 21
415.9981909890436782
 31
0.0
  0
LINE
  5
13113
  8
0
 10
2273.0098824573387901
 20
416.9279837757438258
 30
0.0
 11
2273.0185459536378403
 21
416.9278111116437913
 31
0.0
  0
LINE
  5
13114
  8
0
 10
2272.9506674967378785
 20
414.2380482944615778
 30
0.0
 11
2273.0490926936381584
 21
414.2380482944615778
 31
0.0
  0
LINE
  5
13115
  8
0
 10
2306.9270456158387788
 20
441.6401112865614778
 30
0.0
 11
2306.9270456158387788
 21
407.2700323101615254
 31
0.0
  0
LINE
  5
13116
  8
0
 10
2304.9191716001378154
 20
441.6401112865614778
 30
0.0
 11
2304.9191716001378154
 21
407.2700323101615254
 31
0.0
  0
LINE
  5
13117
  8
0
 10
2306.9270456158387788
 20
407.2700323101615254
 30
0.0
 11
2304.9191716001378154
 21
407.2700323101615254
 31
0.0
  0
LINE
  5
13118
  8
0
 10
2306.808935615838891
 20
407.1519223101615239
 30
0.0
 11
2305.037281600138158
 21
407.1519223101615239
 31
0.0
  0
LINE
  5
13119
  8
0
 10
2306.9270456158387788
 20
407.2700323101615254
 30
0.0
 11
2306.808935615838891
 21
407.1519223101615239
 31
0.0
  0
LINE
  5
1311A
  8
0
 10
2305.037281600138158
 20
407.1519223101615239
 30
0.0
 11
2304.9191716001378154
 21
407.2700323101615254
 31
0.0
  0
LINE
  5
1311B
  8
0
 10
2306.316789696476917
 20
407.0716073475534245
 30
0.0
 11
2305.5294275061378357
 21
407.0716073475534245
 31
0.0
  0
LINE
  5
1311C
  8
0
 10
2306.316789696476917
 20
407.0716073475534245
 30
0.0
 11
2306.316789696476917
 21
407.1519223101615239
 31
0.0
  0
LINE
  5
1311D
  8
0
 10
2306.3164562172769365
 20
407.1519223101615239
 30
0.0
 11
2306.3164562172769365
 21
407.0716073475534245
 31
0.0
  0
LINE
  5
1311E
  8
0
 10
2306.3160441231771074
 20
407.0716073475534245
 30
0.0
 11
2306.3160441231771074
 21
407.1519223101615239
 31
0.0
  0
LINE
  5
1311F
  8
0
 10
2306.3150445995770497
 20
407.1519223101615239
 30
0.0
 11
2306.3150445995770497
 21
407.0716073475534245
 31
0.0
  0
LINE
  5
13120
  8
0
 10
2306.3142215408770426
 20
407.0716073475534245
 30
0.0
 11
2306.3142215408770426
 21
407.1519223101615239
 31
0.0
  0
LINE
  5
13121
  8
0
 10
2306.3125587125769016
 20
407.1519223101615239
 30
0.0
 11
2306.3125587125769016
 21
407.0716073475534245
 31
0.0
  0
LINE
  5
13122
  8
0
 10
2306.3113269451769156
 20
407.0716073475534245
 30
0.0
 11
2306.3113269451769156
 21
407.1519223101615239
 31
0.0
  0
LINE
  5
13123
  8
0
 10
2306.3090053698770134
 20
407.1519223101615239
 30
0.0
 11
2306.3090053698770134
 21
407.0716073475534245
 31
0.0
  0
LINE
  5
13124
  8
0
 10
2306.3073682698768607
 20
407.0716073475534245
 30
0.0
 11
2306.3073682698768607
 21
407.1519223101615239
 31
0.0
  0
LINE
  5
13125
  8
0
 10
2306.3043943108768872
 20
407.1519223101615239
 30
0.0
 11
2306.3043943108768872
 21
407.0716073475534245
 31
0.0
  0
LINE
  5
13126
  8
0
 10
2306.3023884680769697
 20
407.1519223101615239
 30
0.0
 11
2306.3023884680769697
 21
407.0716073475534245
 31
0.0
  0
LINE
  5
13127
  8
0
 10
2306.2987381742768775
 20
407.1519223101615239
 30
0.0
 11
2306.2987381742768775
 21
407.0716073475534245
 31
0.0
  0
LINE
  5
13128
  8
0
 10
2306.2963049695781592
 20
407.0716073475534245
 30
0.0
 11
2306.2963049695781592
 21
407.1519223101615239
 31
0.0
  0
LINE
  5
13129
  8
0
 10
2306.2920524630771979
 20
407.1519223101615239
 30
0.0
 11
2306.2920524630771979
 21
407.0716073475534245
 31
0.0
  0
LINE
  5
1312A
  8
0
 10
2306.2892306681769696
 20
407.0716073475534245
 30
0.0
 11
2306.2892306681769696
 21
407.1519223101615239
 31
0.0
  0
LINE
  5
1312B
  8
0
 10
2306.2843555023769113
 20
407.1519223101615239
 30
0.0
 11
2306.2843555023769113
 21
407.0716073475534245
 31
0.0
  0
LINE
  5
1312C
  8
0
 10
2306.2811528516767794
 20
407.0716073475534245
 30
0.0
 11
2306.2811528516767794
 21
407.1519223101615239
 31
0.0
  0
LINE
  5
1312D
  8
0
 10
2306.2756683890770546
 20
407.1519223101615239
 30
0.0
 11
2306.2756683890770546
 21
407.0716073475534245
 31
0.0
  0
LINE
  5
1312E
  8
0
 10
2306.272093660677001
 20
407.0716073475534245
 30
0.0
 11
2306.272093660677001
 21
407.1519223101615239
 31
0.0
  0
LINE
  5
1312F
  8
0
 10
2306.2660149337771145
 20
407.1519223101615239
 30
0.0
 11
2306.2660149337771145
 21
407.0716073475534245
 31
0.0
  0
LINE
  5
13130
  8
0
 10
2306.2626224331770572
 20
407.0716073475534245
 30
0.0
 11
2306.2626224331770572
 21
407.1519223101615239
 31
0.0
  0
LINE
  5
13131
  8
0
 10
2306.262077925876838
 20
407.0716073475534245
 30
0.0
 11
2306.262077925876838
 21
407.1519223101615239
 31
0.0
  0
LINE
  5
13132
  8
0
 10
2306.2554215960772126
 20
407.1519223101615239
 30
0.0
 11
2306.2554215960772126
 21
407.0716073475534245
 31
0.0
  0
LINE
  5
13133
  8
0
 10
2306.2521362531770137
 20
407.0716073475534245
 30
0.0
 11
2306.2521362531770137
 21
407.1519223101615239
 31
0.0
  0
LINE
  5
13134
  8
0
 10
2306.25113309977678
 20
407.0716073475534245
 30
0.0
 11
2306.25113309977678
 21
407.1519223101615239
 31
0.0
  0
LINE
  5
13135
  8
0
 10
2306.2439174115770584
 20
407.1519223101615239
 30
0.0
 11
2306.2439174115770584
 21
407.0716073475534245
 31
0.0
  0
LINE
  5
13136
  8
0
 10
2306.2407482312769389
 20
407.0716073475534245
 30
0.0
 11
2306.2407482312769389
 21
407.1519223101615239
 31
0.0
  0
LINE
  5
13137
  8
0
 10
2306.2392891812769449
 20
407.0716073475534245
 30
0.0
 11
2306.2392891812769449
 21
407.1519223101615239
 31
0.0
  0
LINE
  5
13138
  8
0
 10
2306.2315339123770173
 20
407.1519223101615239
 30
0.0
 11
2306.2315339123770173
 21
407.0716073475534245
 31
0.0
  0
LINE
  5
13139
  8
0
 10
2306.2284895811772003
 20
407.0716073475534245
 30
0.0
 11
2306.2284895811772003
 21
407.1519223101615239
 31
0.0
  0
LINE
  5
1313A
  8
0
 10
2306.2265786337770805
 20
407.0716073475534245
 30
0.0
 11
2306.2265786337770805
 21
407.1519223101615239
 31
0.0
  0
LINE
  5
1313B
  8
0
 10
2306.2183050408771123
 20
407.1519223101615239
 30
0.0
 11
2306.2183050408771123
 21
407.0716073475534245
 31
0.0
  0
LINE
  5
1313C
  8
0
 10
2306.2153939029772118
 20
407.0716073475534245
 30
0.0
 11
2306.2153939029772118
 21
407.1519223101615239
 31
0.0
  0
LINE
  5
1313D
  8
0
 10
2306.2130362958769183
 20
407.0716073475534245
 30
0.0
 11
2306.2130362958769183
 21
407.1519223101615239
 31
0.0
  0
LINE
  5
1313E
  8
0
 10
2306.2042670563769207
 20
407.1519223101615239
 30
0.0
 11
2306.2042670563769207
 21
407.0716073475534245
 31
0.0
  0
LINE
  5
1313F
  8
0
 10
2306.2014970911768614
 20
407.0716073475534245
 30
0.0
 11
2306.2014970911768614
 21
407.1519223101615239
 31
0.0
  0
LINE
  5
13140
  8
0
 10
2306.1986992864772219
 20
407.0716073475534245
 30
0.0
 11
2306.1986992864772219
 21
407.1519223101615239
 31
0.0
  0
LINE
  5
13141
  8
0
 10
2306.189458436077075
 20
407.1519223101615239
 30
0.0
 11
2306.189458436077075
 21
407.0716073475534245
 31
0.0
  0
LINE
  5
13142
  8
0
 10
2306.1868372357771477
 20
407.0716073475534245
 30
0.0
 11
2306.1868372357771477
 21
407.1519223101615239
 31
0.0
  0
LINE
  5
13143
  8
0
 10
2306.1836069019768729
 20
407.0716073475534245
 30
0.0
 11
2306.1836069019768729
 21
407.1519223101615239
 31
0.0
  0
LINE
  5
13144
  8
0
 10
2306.1739197693768801
 20
407.1519223101615239
 30
0.0
 11
2306.1739197693768801
 21
407.0716073475534245
 31
0.0
  0
LINE
  5
13145
  8
0
 10
2306.1714545185768657
 20
407.0716073475534245
 30
0.0
 11
2306.1714545185768657
 21
407.1519223101615239
 31
0.0
  0
LINE
  5
13146
  8
0
 10
2306.1678005098769972
 20
407.0716073475534245
 30
0.0
 11
2306.1678005098769972
 21
407.1519223101615239
 31
0.0
  0
LINE
  5
13147
  8
0
 10
2306.1576936466772167
 20
407.1519223101615239
 30
0.0
 11
2306.1576936466772167
 21
407.0716073475534245
 31
0.0
  0
LINE
  5
13148
  8
0
 10
2306.1553911023770524
 20
407.0716073475534245
 30
0.0
 11
2306.1553911023770524
 21
407.1519223101615239
 31
0.0
  0
LINE
  5
13149
  8
0
 10
2306.1513234341769021
 20
407.0716073475534245
 30
0.0
 11
2306.1513234341769021
 21
407.1519223101615239
 31
0.0
  0
LINE
  5
1314A
  8
0
 10
2306.1408245426769099
 20
407.1519223101615239
 30
0.0
 11
2306.1408245426769099
 21
407.0716073475534245
 31
0.0
  0
LINE
  5
1314B
  8
0
 10
2306.1386910160767911
 20
407.0716073475534245
 30
0.0
 11
2306.1386910160767911
 21
407.1519223101615239
 31
0.0
  0
LINE
  5
1314C
  8
0
 10
2306.1342208374771872
 20
407.0716073475534245
 30
0.0
 11
2306.1342208374771872
 21
407.1519223101615239
 31
0.0
  0
LINE
  5
1314D
  8
0
 10
2306.1233586943772025
 20
407.1519223101615239
 30
0.0
 11
2306.1233586943772025
 21
407.0716073475534245
 31
0.0
  0
LINE
  5
1314E
  8
0
 10
2306.1214000332770411
 20
407.0716073475534245
 30
0.0
 11
2306.1214000332770411
 21
407.1519223101615239
 31
0.0
  0
LINE
  5
1314F
  8
0
 10
2306.1166437946772021
 20
407.1519223101615239
 30
0.0
 11
2306.1166437946772021
 21
407.0716073475534245
 31
0.0
  0
LINE
  5
13150
  8
0
 10
2306.1053439744769094
 20
407.1519223101615239
 30
0.0
 11
2306.1053439744769094
 21
407.0716073475534245
 31
0.0
  0
LINE
  5
13151
  8
0
 10
2306.1035655473770021
 20
407.0716073475534245
 30
0.0
 11
2306.1035655473770021
 21
407.1519223101615239
 31
0.0
  0
LINE
  5
13152
  8
0
 10
2306.0983281750768583
 20
407.0716073475534245
 30
0.0
 11
2306.0983281750768583
 21
407.1519223101615239
 31
0.0
  0
LINE
  5
13153
  8
0
 10
2306.0868297600768528
 20
407.1519223101615239
 30
0.0
 11
2306.0868297600768528
 21
407.0716073475534245
 31
0.0
  0
LINE
  5
13154
  8
0
 10
2306.0852364415768534
 20
407.0716073475534245
 30
0.0
 11
2306.0852364415768534
 21
407.1519223101615239
 31
0.0
  0
LINE
  5
13155
  8
0
 10
2306.0796364887769414
 20
407.0716073475534245
 30
0.0
 11
2306.0796364887769414
 21
407.1519223101615239
 31
0.0
  0
LINE
  5
13156
  8
0
 10
2306.0678667973770644
 20
407.1519223101615239
 30
0.0
 11
2306.0678667973770644
 21
407.0716073475534245
 31
0.0
  0
LINE
  5
13157
  8
0
 10
2306.0664629545772186
 20
407.0716073475534245
 30
0.0
 11
2306.0664629545772186
 21
407.1519223101615239
 31
0.0
  0
LINE
  5
13158
  8
0
 10
2306.0605157703771511
 20
407.0716073475534245
 30
0.0
 11
2306.0605157703771511
 21
407.1519223101615239
 31
0.0
  0
LINE
  5
13159
  8
0
 10
2306.0485070624768014
 20
407.1519223101615239
 30
0.0
 11
2306.0485070624768014
 21
407.0716073475534245
 31
0.0
  0
LINE
  5
1315A
  8
0
 10
2306.0472965432768433
 20
407.0716073475534245
 30
0.0
 11
2306.0472965432768433
 21
407.1519223101615239
 31
0.0
  0
LINE
  5
1315B
  8
0
 10
2306.0410184284769457
 20
407.0716073475534245
 30
0.0
 11
2306.0410184284769457
 21
407.1519223101615239
 31
0.0
  0
LINE
  5
1315C
  8
0
 10
2306.0288036190768253
 20
407.1519223101615239
 30
0.0
 11
2306.0288036190768253
 21
407.0716073475534245
 31
0.0
  0
LINE
  5
1315D
  8
0
 10
2306.027789741477136
 20
407.0716073475534245
 30
0.0
 11
2306.027789741477136
 21
407.1519223101615239
 31
0.0
  0
LINE
  5
1315E
  8
0
 10
2306.0211979038767822
 20
407.0716073475534245
 30
0.0
 11
2306.0211979038767822
 21
407.1519223101615239
 31
0.0
  0
LINE
  5
1315F
  8
0
 10
2306.0088104729770748
 20
407.1519223101615239
 30
0.0
 11
2306.0088104729770748
 21
407.0716073475534245
 31
0.0
  0
LINE
  5
13160
  8
0
 10
2306.0079960158768699
 20
407.0716073475534245
 30
0.0
 11
2306.0079960158768699
 21
407.1519223101615239
 31
0.0
  0
LINE
  5
13161
  8
0
 10
2306.0011085233782069
 20
407.0716073475534245
 30
0.0
 11
2306.0011085233782069
 21
407.1519223101615239
 31
0.0
  0
LINE
  5
13162
  8
0
 10
2305.9885824239781869
 20
407.1519223101615239
 30
0.0
 11
2305.9885824239781869
 21
407.0716073475534245
 31
0.0
  0
LINE
  5
13163
  8
0
 10
2305.9879696197767771
 20
407.0716073475534245
 30
0.0
 11
2305.9879696197767771
 21
407.1519223101615239
 31
0.0
  0
LINE
  5
13164
  8
0
 10
2305.9808053504771124
 20
407.0716073475534245
 30
0.0
 11
2305.9808053504771124
 21
407.1519223101615239
 31
0.0
  0
LINE
  5
13165
  8
0
 10
2305.9681749157771264
 20
407.1519223101615239
 30
0.0
 11
2305.9681749157771264
 21
407.0716073475534245
 31
0.0
  0
LINE
  5
13166
  8
0
 10
2305.9677654440770311
 20
407.0716073475534245
 30
0.0
 11
2305.9677654440770311
 21
407.1519223101615239
 31
0.0
  0
LINE
  5
13167
  8
0
 10
2305.9603440346768366
 20
407.0716073475534245
 30
0.0
 11
2305.9603440346768366
 21
407.1519223101615239
 31
0.0
  0
LINE
  5
13168
  8
0
 10
2305.9476438838769354
 20
407.1519223101615239
 30
0.0
 11
2305.9476438838769354
 21
407.0716073475534245
 31
0.0
  0
LINE
  5
13169
  8
0
 10
2305.939780659176904
 20
407.0716073475534245
 30
0.0
 11
2305.939780659176904
 21
407.1519223101615239
 31
0.0
  0
LINE
  5
1316A
  8
0
 10
2305.9270456024769373
 20
407.1519223101615239
 30
0.0
 11
2305.9270456024769373
 21
407.0716073475534245
 31
0.0
  0
LINE
  5
1316B
  8
0
 10
2305.9191715867768835
 20
407.0716073475534245
 30
0.0
 11
2305.9191715867768835
 21
407.1519223101615239
 31
0.0
  0
LINE
  5
1316C
  8
0
 10
2305.9064365300769168
 20
407.1519223101615239
 30
0.0
 11
2305.9064365300769168
 21
407.0716073475534245
 31
0.0
  0
LINE
  5
1316D
  8
0
 10
2305.8985733053768854
 20
407.0716073475534245
 30
0.0
 11
2305.8985733053768854
 21
407.1519223101615239
 31
0.0
  0
LINE
  5
1316E
  8
0
 10
2305.8858731545769842
 20
407.1519223101615239
 30
0.0
 11
2305.8858731545769842
 21
407.0716073475534245
 31
0.0
  0
LINE
  5
1316F
  8
0
 10
2305.8784517451781539
 20
407.0716073475534245
 30
0.0
 11
2305.8784517451781539
 21
407.1519223101615239
 31
0.0
  0
LINE
  5
13170
  8
0
 10
2305.8780422734771491
 20
407.0716073475534245
 30
0.0
 11
2305.8780422734771491
 21
407.1519223101615239
 31
0.0
  0
LINE
  5
13171
  8
0
 10
2305.8654118388772076
 20
407.1519223101615239
 30
0.0
 11
2305.8654118388772076
 21
407.0716073475534245
 31
0.0
  0
LINE
  5
13172
  8
0
 10
2305.8582475694770437
 20
407.0716073475534245
 30
0.0
 11
2305.8582475694770437
 21
407.1519223101615239
 31
0.0
  0
LINE
  5
13173
  8
0
 10
2305.8576347652769982
 20
407.0716073475534245
 30
0.0
 11
2305.8576347652769982
 21
407.1519223101615239
 31
0.0
  0
LINE
  5
13174
  8
0
 10
2305.8451086658769782
 20
407.1519223101615239
 30
0.0
 11
2305.8451086658769782
 21
407.0716073475534245
 31
0.0
  0
LINE
  5
13175
  8
0
 10
2305.8382211733769509
 20
407.0716073475534245
 30
0.0
 11
2305.8382211733769509
 21
407.1519223101615239
 31
0.0
  0
LINE
  5
13176
  8
0
 10
2305.8374067162772008
 20
407.0716073475534245
 30
0.0
 11
2305.8374067162772008
 21
407.1519223101615239
 31
0.0
  0
LINE
  5
13177
  8
0
 10
2305.8250192853770386
 20
407.1519223101615239
 30
0.0
 11
2305.8250192853770386
 21
407.0716073475534245
 31
0.0
  0
LINE
  5
13178
  8
0
 10
2305.8184274477771396
 20
407.0716073475534245
 30
0.0
 11
2305.8184274477771396
 21
407.1519223101615239
 31
0.0
  0
LINE
  5
13179
  8
0
 10
2305.8175288258771616
 20
407.1519223101615239
 30
0.0
 11
2305.8175288258771616
 21
407.0716073475534245
 31
0.0
  0
LINE
  5
1317A
  8
0
 10
2305.8051987607768751
 20
407.1519223101615239
 30
0.0
 11
2305.8051987607768751
 21
407.0716073475534245
 31
0.0
  0
LINE
  5
1317B
  8
0
 10
2305.7989206459769775
 20
407.0716073475534245
 30
0.0
 11
2305.7989206459769775
 21
407.1519223101615239
 31
0.0
  0
LINE
  5
1317C
  8
0
 10
2305.7977101267770195
 20
407.0716073475534245
 30
0.0
 11
2305.7977101267770195
 21
407.1519223101615239
 31
0.0
  0
LINE
  5
1317D
  8
0
 10
2305.7857014188771245
 20
407.1519223101615239
 30
0.0
 11
2305.7857014188771245
 21
407.0716073475534245
 31
0.0
  0
LINE
  5
1317E
  8
0
 10
2305.779754234677057
 20
407.0716073475534245
 30
0.0
 11
2305.779754234677057
 21
407.1519223101615239
 31
0.0
  0
LINE
  5
1317F
  8
0
 10
2305.7783503918772112
 20
407.0716073475534245
 30
0.0
 11
2305.7783503918772112
 21
407.1519223101615239
 31
0.0
  0
LINE
  5
13180
  8
0
 10
2305.7665807004768794
 20
407.1519223101615239
 30
0.0
 11
2305.7665807004768794
 21
407.0716073475534245
 31
0.0
  0
LINE
  5
13181
  8
0
 10
2305.7609807476769674
 20
407.0716073475534245
 30
0.0
 11
2305.7609807476769674
 21
407.1519223101615239
 31
0.0
  0
LINE
  5
13182
  8
0
 10
2305.759387429176968
 20
407.0716073475534245
 30
0.0
 11
2305.759387429176968
 21
407.1519223101615239
 31
0.0
  0
LINE
  5
13183
  8
0
 10
2305.7478890141769625
 20
407.1519223101615239
 30
0.0
 11
2305.7478890141769625
 21
407.0716073475534245
 31
0.0
  0
LINE
  5
13184
  8
0
 10
2305.7426516418768188
 20
407.0716073475534245
 30
0.0
 11
2305.7426516418768188
 21
407.1519223101615239
 31
0.0
  0
LINE
  5
13185
  8
0
 10
2305.7408732147769115
 20
407.0716073475534245
 30
0.0
 11
2305.7408732147769115
 21
407.1519223101615239
 31
0.0
  0
LINE
  5
13186
  8
0
 10
2305.7296775925769907
 20
407.1519223101615239
 30
0.0
 11
2305.7296775925769907
 21
407.0716073475534245
 31
0.0
  0
LINE
  5
13187
  8
0
 10
2305.7248171560768242
 20
407.0716073475534245
 30
0.0
 11
2305.7248171560768242
 21
407.1519223101615239
 31
0.0
  0
LINE
  5
13188
  8
0
 10
2305.7228584948770731
 20
407.0716073475534245
 30
0.0
 11
2305.7228584948770731
 21
407.1519223101615239
 31
0.0
  0
LINE
  5
13189
  8
0
 10
2305.7119963518771328
 20
407.1519223101615239
 30
0.0
 11
2305.7119963518771328
 21
407.0716073475534245
 31
0.0
  0
LINE
  5
1318A
  8
0
 10
2305.7075261732770741
 20
407.0716073475534245
 30
0.0
 11
2305.7075261732770741
 21
407.1519223101615239
 31
0.0
  0
LINE
  5
1318B
  8
0
 10
2305.7053926465769109
 20
407.0716073475534245
 30
0.0
 11
2305.7053926465769109
 21
407.1519223101615239
 31
0.0
  0
LINE
  5
1318C
  8
0
 10
2305.6948937551769632
 20
407.1519223101615239
 30
0.0
 11
2305.6948937551769632
 21
407.0716073475534245
 31
0.0
  0
LINE
  5
1318D
  8
0
 10
2305.6908260868772231
 20
407.0716073475534245
 30
0.0
 11
2305.6908260868772231
 21
407.1519223101615239
 31
0.0
  0
LINE
  5
1318E
  8
0
 10
2305.6885235425770588
 20
407.0716073475534245
 30
0.0
 11
2305.6885235425770588
 21
407.1519223101615239
 31
0.0
  0
LINE
  5
1318F
  8
0
 10
2305.678416679476868
 20
407.1519223101615239
 30
0.0
 11
2305.678416679476868
 21
407.0716073475534245
 31
0.0
  0
LINE
  5
13190
  8
0
 10
2305.6747626706769552
 20
407.0716073475534245
 30
0.0
 11
2305.6747626706769552
 21
407.1519223101615239
 31
0.0
  0
LINE
  5
13191
  8
0
 10
2305.6722974198769407
 20
407.0716073475534245
 30
0.0
 11
2305.6722974198769407
 21
407.1519223101615239
 31
0.0
  0
LINE
  5
13192
  8
0
 10
2305.6626102872769479
 20
407.1519223101615239
 30
0.0
 11
2305.6626102872769479
 21
407.0716073475534245
 31
0.0
  0
LINE
  5
13193
  8
0
 10
2305.6593799534771279
 20
407.0716073475534245
 30
0.0
 11
2305.6593799534771279
 21
407.1519223101615239
 31
0.0
  0
LINE
  5
13194
  8
0
 10
2305.6567587531772006
 20
407.0716073475534245
 30
0.0
 11
2305.6567587531772006
 21
407.1519223101615239
 31
0.0
  0
LINE
  5
13195
  8
0
 10
2305.6475179028770981
 20
407.1519223101615239
 30
0.0
 11
2305.6475179028770981
 21
407.0716073475534245
 31
0.0
  0
LINE
  5
13196
  8
0
 10
2305.6447200980769594
 20
407.0716073475534245
 30
0.0
 11
2305.6447200980769594
 21
407.1519223101615239
 31
0.0
  0
LINE
  5
13197
  8
0
 10
2305.6419501328769002
 20
407.0716073475534245
 30
0.0
 11
2305.6419501328769002
 21
407.1519223101615239
 31
0.0
  0
LINE
  5
13198
  8
0
 10
2305.6331808933769025
 20
407.1519223101615239
 30
0.0
 11
2305.6331808933769025
 21
407.0716073475534245
 31
0.0
  0
LINE
  5
13199
  8
0
 10
2305.6308232862770637
 20
407.0716073475534245
 30
0.0
 11
2305.6308232862770637
 21
407.1519223101615239
 31
0.0
  0
LINE
  5
1319A
  8
0
 10
2305.6279121484772077
 20
407.0716073475534245
 30
0.0
 11
2305.6279121484772077
 21
407.1519223101615239
 31
0.0
  0
LINE
  5
1319B
  8
0
 10
2305.6196385689381714
 20
407.1519223101615239
 30
0.0
 11
2305.6196385689381714
 21
407.0716073475534245
 31
0.0
  0
LINE
  5
1319C
  8
0
 10
2305.6177276214380072
 20
407.0716073475534245
 30
0.0
 11
2305.6177276214380072
 21
407.1519223101615239
 31
0.0
  0
LINE
  5
1319D
  8
0
 10
2305.6146832768768036
 20
407.0716073475534245
 30
0.0
 11
2305.6146832768768036
 21
407.1519223101615239
 31
0.0
  0
LINE
  5
1319E
  8
0
 10
2305.6069280213378079
 20
407.0716073475534245
 30
0.0
 11
2305.6069280213378079
 21
407.1519223101615239
 31
0.0
  0
LINE
  5
1319F
  8
0
 10
2305.6054689714378583
 20
407.0716073475534245
 30
0.0
 11
2305.6054689714378583
 21
407.1519223101615239
 31
0.0
  0
LINE
  5
131A0
  8
0
 10
2305.6022997910381491
 20
407.0716073475534245
 30
0.0
 11
2305.6022997910381491
 21
407.1519223101615239
 31
0.0
  0
LINE
  5
131A1
  8
0
 10
2305.5950841028379728
 20
407.0716073475534245
 30
0.0
 11
2305.5950841028379728
 21
407.1519223101615239
 31
0.0
  0
LINE
  5
131A2
  8
0
 10
2305.5940809494381938
 20
407.0716073475534245
 30
0.0
 11
2305.5940809494381938
 21
407.1519223101615239
 31
0.0
  0
LINE
  5
131A3
  8
0
 10
2305.5907956065389044
 20
407.0716073475534245
 30
0.0
 11
2305.5907956065389044
 21
407.1519223101615239
 31
0.0
  0
LINE
  5
131A4
  8
0
 10
2305.5841392767388243
 20
407.0716073475534245
 30
0.0
 11
2305.5841392767388243
 21
407.1519223101615239
 31
0.0
  0
LINE
  5
131A5
  8
0
 10
2305.5835947695381947
 20
407.0716073475534245
 30
0.0
 11
2305.5835947695381947
 21
407.1519223101615239
 31
0.0
  0
LINE
  5
131A6
  8
0
 10
2305.5802610670389186
 20
407.0716073475534245
 30
0.0
 11
2305.5802610670389186
 21
407.1519223101615239
 31
0.0
  0
LINE
  5
131A7
  8
0
 10
2305.5741235419382065
 20
407.0716073475534245
 30
0.0
 11
2305.5741235419382065
 21
407.1519223101615239
 31
0.0
  0
LINE
  5
131A8
  8
0
 10
2305.5705488136381973
 20
407.0716073475534245
 30
0.0
 11
2305.5705488136381973
 21
407.1519223101615239
 31
0.0
  0
LINE
  5
131A9
  8
0
 10
2305.5650643510389273
 20
407.0716073475534245
 30
0.0
 11
2305.5650643510389273
 21
407.1519223101615239
 31
0.0
  0
LINE
  5
131AA
  8
0
 10
2305.5618617002392057
 20
407.0716073475534245
 30
0.0
 11
2305.5618617002392057
 21
407.1519223101615239
 31
0.0
  0
LINE
  5
131AB
  8
0
 10
2305.5569865344377831
 20
407.0716073475534245
 30
0.0
 11
2305.5569865344377831
 21
407.1519223101615239
 31
0.0
  0
LINE
  5
131AC
  8
0
 10
2305.5541647395380096
 20
407.0716073475534245
 30
0.0
 11
2305.5541647395380096
 21
407.1519223101615239
 31
0.0
  0
LINE
  5
131AD
  8
0
 10
2305.5499122330379578
 20
407.0716073475534245
 30
0.0
 11
2305.5499122330379578
 21
407.1519223101615239
 31
0.0
  0
LINE
  5
131AE
  8
0
 10
2305.5474790283387847
 20
407.0716073475534245
 30
0.0
 11
2305.5474790283387847
 21
407.1519223101615239
 31
0.0
  0
LINE
  5
131AF
  8
0
 10
2305.5438608370391194
 20
407.0716073475534245
 30
0.0
 11
2305.5438608370391194
 21
407.1519223101615239
 31
0.0
  0
LINE
  5
131B0
  8
0
 10
2305.5418228917378656
 20
407.0716073475534245
 30
0.0
 11
2305.5418228917378656
 21
407.1519223101615239
 31
0.0
  0
LINE
  5
131B1
  8
0
 10
2305.5388489327388015
 20
407.0716073475534245
 30
0.0
 11
2305.5388489327388015
 21
407.1519223101615239
 31
0.0
  0
LINE
  5
131B2
  8
0
 10
2305.5372118327391036
 20
407.0716073475534245
 30
0.0
 11
2305.5372118327391036
 21
407.1519223101615239
 31
0.0
  0
LINE
  5
131B3
  8
0
 10
2305.5348902575378816
 20
407.0716073475534245
 30
0.0
 11
2305.5348902575378816
 21
407.1519223101615239
 31
0.0
  0
LINE
  5
131B4
  8
0
 10
2305.5336584900378512
 20
407.0716073475534245
 30
0.0
 11
2305.5336584900378512
 21
407.1519223101615239
 31
0.0
  0
LINE
  5
131B5
  8
0
 10
2305.5319956617381649
 20
407.0716073475534245
 30
0.0
 11
2305.5319956617381649
 21
407.1519223101615239
 31
0.0
  0
LINE
  5
131B6
  8
0
 10
2305.5311726030381578
 20
407.0716073475534245
 30
0.0
 11
2305.5311726030381578
 21
407.1519223101615239
 31
0.0
  0
LINE
  5
131B7
  8
0
 10
2305.5301730794381001
 20
407.0716073475534245
 30
0.0
 11
2305.5301730794381001
 21
407.1519223101615239
 31
0.0
  0
LINE
  5
131B8
  8
0
 10
2305.5297609853378162
 20
407.0716073475534245
 30
0.0
 11
2305.5297609853378162
 21
407.1519223101615239
 31
0.0
  0
LINE
  5
131B9
  8
0
 10
2305.5294275061378357
 20
407.0716073475534245
 30
0.0
 11
2305.5294275061378357
 21
407.1519223101615239
 31
0.0
  0
LINE
  5
131BA
  8
0
 10
2306.2577541080381707
 20
407.0716073475534245
 30
0.0
 11
2306.2577541080381707
 21
407.0519223101616149
 31
0.0
  0
LINE
  5
131BB
  8
0
 10
2306.2577541080381707
 20
407.0519223101616149
 30
0.0
 11
2305.5884631080389227
 21
407.0519223101616149
 31
0.0
  0
LINE
  5
131BC
  8
0
 10
2305.5884631080389227
 20
407.0519223101616149
 30
0.0
 11
2305.5884631080389227
 21
407.0716073475534245
 31
0.0
  0
LINE
  5
131BD
  8
0
 10
2304.9191716001378154
 20
409.1197974543616169
 30
0.0
 11
2302.3993459569378501
 21
411.6396230975615254
 31
0.0
  0
LINE
  5
131BE
  8
0
 10
2304.86821905513807
 20
413.2144262472615992
 30
0.0
 11
2304.86821905513807
 21
411.6396230975615254
 31
0.0
  0
LINE
  5
131BF
  8
0
 10
2304.8207464032388998
 20
413.3133396330616165
 30
0.0
 11
2288.9939747182388601
 21
413.3133396330616165
 31
0.0
  0
LINE
  5
131C0
  8
0
 10
2288.9939747182388601
 20
413.3133396330616165
 30
0.0
 11
2288.9939747182388601
 21
430.3605837275616182
 31
0.0
  0
LINE
  5
131C1
  8
0
 10
2288.9939747182388601
 20
430.3605837275616182
 30
0.0
 11
2304.8207464032388998
 21
430.3605837275616182
 31
0.0
  0
LINE
  5
131C2
  8
0
 10
2304.8207464032388998
 20
430.3605837275616182
 30
0.0
 11
2304.8207464032388998
 21
413.3133396330616165
 31
0.0
  0
LINE
  5
131C3
  8
0
 10
2304.8798015213378676
 20
431.2070404204615102
 30
0.0
 11
2304.8798015213378676
 21
430.4590089243616262
 31
0.0
  0
LINE
  5
131C4
  8
0
 10
2304.8207464032388998
 20
439.9668829401614971
 30
0.0
 11
2304.8207464032388998
 21
431.3054656172615182
 31
0.0
  0
ARC
  5
131C5
  8
0
 10
2293.3046833796388455
 20
435.2621821527615111
 30
0.0
 40
0.02
 50
270.0
 51
0.0
  0
LINE
  5
131C6
  8
0
 10
2293.3246833796388273
 20
435.2621821527615111
 30
0.0
 11
2293.3246833796388273
 21
436.0095837275616191
 31
0.0
  0
ARC
  5
131C7
  8
0
 10
2293.3046833796388455
 20
436.0095837275616191
 30
0.0
 40
0.02
 50
0.0
 51
90.0
  0
LINE
  5
131C8
  8
0
 10
2304.8791716001378518
 20
441.6401112865614778
 30
0.0
 11
2304.8791716001378518
 21
440.0653081369616189
 31
0.0
  0
LINE
  5
131C9
  8
0
 10
2297.9443694783271894
 20
440.0653081369616189
 30
0.0
 11
2297.8955715587890154
 21
439.9668829401614971
 31
0.0
  0
LINE
  5
131CA
  8
0
 10
2290.9034235371382238
 20
440.0653081369616189
 30
0.0
 11
2290.9034235371382238
 21
439.9668829401614971
 31
0.0
  0
LINE
  5
131CB
  8
0
 10
2304.898248519038134
 20
437.1677111016451818
 30
0.0
 11
2304.8982485284382165
 21
437.1676215752451071
 31
0.0
  0
LINE
  5
131CC
  8
0
 10
2304.9137982458378247
 20
437.973102675594987
 30
0.0
 11
2304.9137982458378247
 21
436.8120958835988858
 31
0.0
  0
ARC
  5
131CD
  8
0
 10
2304.9445069072380647
 20
437.3702832855450993
 30
0.0
 40
0.2078740157
 50
233.4614839345038888
 51
257.1422751274060943
  0
ARC
  5
131CE
  8
0
 10
2304.9445069072380647
 20
437.4150674383452042
 30
0.0
 40
0.2078740157
 50
102.8577248725939057
 51
126.538516065496097
  0
ARC
  5
131CF
  8
0
 10
2304.8937982458392071
 20
437.6372277379451248
 30
0.0
 40
0.02
 50
282.8576387029842181
 51
0.0
  0
ARC
  5
131D0
  8
0
 10
2304.8937982458392071
 20
437.1481229859451219
 30
0.0
 40
0.02
 50
0.0
 51
77.1423612969904013
  0
ARC
  5
131D1
  8
0
 10
2304.9237982458380429
 20
437.973102675594987
 30
0.0
 40
0.0099999999999875
 50
117.5591814447254961
 51
180.0000097403554093
  0
ARC
  5
131D2
  8
0
 10
2304.9237982458371334
 20
436.8120958835988858
 30
0.0
 40
0.0099999999990867
 50
179.9999999963555126
 51
242.4408185596504097
  0
LINE
  5
131D3
  8
0
 10
2300.2033841706811472
 20
431.2070404204615102
 30
0.0
 11
2300.203384170722984
 21
431.252908147761616
 31
0.0
  0
ARC
  5
131D4
  8
0
 10
2300.2083839775909837
 20
431.2529081477570116
 30
0.0
 40
0.0049998068677759
 50
109.5229742572531961
 51
179.999999947551089
  0
ARC
  5
131D5
  8
0
 10
2300.2033641294528934
 20
431.2670657178210831
 30
0.0
 40
0.0100213670360832
 50
289.5229742572789178
 51
356.8615605392657812
  0
ARC
  5
131D6
  8
0
 10
2324.9851058691488106
 20
429.9082592361942829
 30
0.0
 40
24.8089447417186904
 50
176.8415247883056907
 51
176.8615605392658097
  0
ARC
  5
131D7
  8
0
 10
2300.2743938805610924
 20
431.2718383188434927
 30
0.0
 40
0.0606390442057716
 50
146.3203693702955093
 51
176.8415247883056907
  0
ARC
  5
131D8
  8
0
 10
2300.8795854894237891
 20
431.2729854807661241
 30
0.0
 40
0.1260262112477246
 50
165.0648709129511928
 51
179.1209780121297115
  0
ARC
  5
131D9
  8
0
 10
2300.7314200920732219
 20
431.2652884154751973
 30
0.0
 40
0.0220026114695956
 50
325.7594030829152985
 51
2.5188326816195681
  0
LINE
  5
131DA
  8
0
 10
2300.7496092569849679
 20
431.2070404204615102
 30
0.0
 11
2300.7496092571859663
 21
431.2529082222616239
 31
0.0
  0
ARC
  5
131DB
  8
0
 10
2300.7441609849829547
 20
431.2521785318709249
 30
0.0
 40
0.0054969189605103
 50
7.6282641133612463
 51
81.9009155125266091
  0
LINE
  5
131DC
  8
0
 10
2300.7449354206792123
 20
431.2576206240614738
 30
0.0
 11
2300.2067131180851902
 21
431.2576205035616113
 31
0.0
  0
LINE
  5
131DD
  8
0
 10
2300.9698515522859452
 20
431.2070404204615102
 30
0.0
 11
2300.9698515522859452
 21
431.3054656172615182
 31
0.0
  0
LINE
  5
131DE
  8
0
 10
2300.9398515522861999
 20
431.3054656172615182
 30
0.0
 11
2300.9398515522861999
 21
431.2070404204615102
 31
0.0
  0
LINE
  5
131DF
  8
0
 10
2300.9398515522861999
 20
431.2355917228614999
 30
0.0
 11
2300.9698515522859452
 21
431.2355917228614999
 31
0.0
  0
LINE
  5
131E0
  8
0
 10
2300.9033841706859675
 20
431.2795817014616091
 30
0.0
 11
2300.9398515522861999
 21
431.2795817014616091
 31
0.0
  0
LINE
  5
131E1
  8
0
 10
2300.9033841706859675
 20
431.3054656172615182
 30
0.0
 11
2300.9033841706859675
 21
431.2070404204616239
 31
0.0
  0
LINE
  5
131E2
  8
0
 10
2300.8955918103388285
 20
431.2920404204616034
 30
0.0
 11
2300.8955918103388285
 21
431.2920404204616034
 31
0.0
  0
LINE
  5
131E3
  8
0
 10
2300.9033841706859675
 20
431.2920404204616034
 30
0.0
 11
2300.7751202497847771
 21
431.2920404204616034
 31
0.0
  0
LINE
  5
131E4
  8
0
 10
2300.7635825571419446
 20
431.2070404204615102
 30
0.0
 11
2300.7635883799571275
 21
431.2370641818615127
 31
0.0
  0
ARC
  5
131E5
  8
0
 10
2300.6591874377991189
 20
431.2652662808995956
 30
0.0
 40
0.1081430308133828
 50
344.8833433553372743
 51
358.2906377959404267
  0
ARC
  5
131E6
  8
0
 10
2300.8897487190829452
 20
431.2642343836045029
 30
0.0
 40
0.122486024849896
 50
171.6411792587495029
 51
181.0263338322583877
  0
ARC
  5
131E7
  8
0
 10
2300.7912591344179418
 20
431.2777330265766977
 30
0.0
 40
0.023100419036449
 50
152.072243750587603
 51
169.2535079261548105
  0
ARC
  5
131E8
  8
0
 10
2300.7762621783540453
 20
431.2862829852157915
 30
0.0
 40
0.0058695878446662
 50
101.2184395783914965
 51
157.2556004483583934
  0
LINE
  5
131E9
  8
0
 10
2300.7635883799571275
 20
431.2370641818615127
 30
0.0
 11
2300.8833841706859857
 21
431.2370493801615794
 31
0.0
  0
LINE
  5
131EA
  8
0
 10
2300.8833841706859857
 20
431.2070404204615102
 30
0.0
 11
2300.8833841706859857
 21
431.2370493801615794
 31
0.0
  0
ARC
  5
131EB
  8
0
 10
2300.8430643017231887
 20
431.2671662878757957
 30
0.0
 40
0.0503261359876927
 50
323.2421243387934737
 51
356.875956624382809
  0
ARC
  5
131EC
  8
0
 10
2302.2350679754749763
 20
431.1962760336045903
 30
0.0
 40
1.3434818210750421
 50
176.7224636378876994
 51
177.0924462708740919
  0
ARC
  5
131ED
  8
0
 10
2300.9137279074848266
 20
431.2720174328616167
 30
0.0
 40
0.0199728577999689
 50
121.1908011139829
 51
176.932026151329012
  0
LINE
  5
131EE
  8
0
 10
2300.8935978279860137
 20
431.2697692098615221
 30
0.0
 11
2300.9033841706859675
 21
431.2697692098615221
 31
0.0
  0
LINE
  5
131EF
  8
0
 10
2300.8026005783171968
 20
431.2644229297616221
 30
0.0
 11
2300.8933156096632047
 21
431.2644229297616221
 31
0.0
  0
LINE
  5
131F0
  8
0
 10
2300.7672823448851886
 20
431.262040420461517
 30
0.0
 11
2300.7908841706857856
 21
431.262040420461517
 31
0.0
  0
ARC
  5
131F1
  8
0
 10
2300.7908841706857856
 20
431.2920404205358977
 30
0.0
 40
0.0300000000742955
 50
270.0
 51
340.5287792651816972
  0
ARC
  5
131F2
  8
0
 10
2300.8333105776910088
 20
431.277040420405001
 30
0.0
 40
0.015000000095553
 50
90.0
 51
160.5287792651785992
  0
LINE
  5
131F3
  8
0
 10
2302.2333841706958992
 20
431.2070404204615102
 30
0.0
 11
2302.2333841706540625
 21
431.252908147761616
 31
0.0
  0
ARC
  5
131F4
  8
0
 10
2302.2283843637860627
 20
431.2529081477570116
 30
0.0
 40
0.0049998068677759
 50
0.0000000524489243
 51
70.4770257427468181
  0
ARC
  5
131F5
  8
0
 10
2302.2334042119250626
 20
431.2670657178210831
 30
0.0
 40
0.0100213670360832
 50
183.1384394607341903
 51
250.4770257427211959
  0
ARC
  5
131F6
  8
0
 10
2277.4516624722277811
 20
429.9082592361942829
 30
0.0
 40
24.8089447417186904
 50
3.1384394607341899
 51
3.158475211694237
  0
ARC
  5
131F7
  8
0
 10
2302.1623744608159541
 20
431.2718383188434927
 30
0.0
 40
0.0606390442057716
 50
3.158475211694237
 51
33.6796306297044765
  0
ARC
  5
131F8
  8
0
 10
2301.5571828519468909
 20
431.2729854807661241
 30
0.0
 40
0.1260262112477246
 50
0.8790219878702544
 51
14.9351290870488107
  0
ARC
  5
131F9
  8
0
 10
2301.7053482492970033
 20
431.2652884154751973
 30
0.0
 40
0.0220026114695956
 50
177.4811673183803862
 51
214.2405969170847015
  0
LINE
  5
131FA
  8
0
 10
2301.6871590843848026
 20
431.2070404204615102
 30
0.0
 11
2301.687159084186078
 21
431.2529082222616239
 31
0.0
  0
ARC
  5
131FB
  8
0
 10
2301.6926073563881801
 20
431.2521785318709249
 30
0.0
 40
0.0054969189605103
 50
98.0990844874734336
 51
172.3717358866387031
  0
LINE
  5
131FC
  8
0
 10
2301.6918329206919225
 20
431.2576206240614738
 30
0.0
 11
2302.2300552232909467
 21
431.2576205035616113
 31
0.0
  0
LINE
  5
131FD
  8
0
 10
2301.4998515522847811
 20
431.2070404204615102
 30
0.0
 11
2301.4998515522847811
 21
431.3054656172615182
 31
0.0
  0
LINE
  5
131FE
  8
0
 10
2301.5298515522849812
 20
431.3054656172615182
 30
0.0
 11
2301.5298515522849812
 21
431.2070404204615102
 31
0.0
  0
LINE
  5
131FF
  8
0
 10
2301.5298515522849812
 20
431.2355917228614999
 30
0.0
 11
2301.4998515522847811
 21
431.2355917228614999
 31
0.0
  0
LINE
  5
13200
  8
0
 10
2301.5333841706851672
 20
431.2795817014616091
 30
0.0
 11
2301.5298515522849812
 21
431.2795817014616091
 31
0.0
  0
LINE
  5
13201
  8
0
 10
2301.5333841706851672
 20
431.3054656172615182
 30
0.0
 11
2301.5333841706851672
 21
431.2070404204616239
 31
0.0
  0
LINE
  5
13202
  8
0
 10
2301.541176531030942
 20
431.2920404204616034
 30
0.0
 11
2301.541176531030942
 21
431.2920404204616034
 31
0.0
  0
LINE
  5
13203
  8
0
 10
2301.5333841706851672
 20
431.2920404204616034
 30
0.0
 11
2301.6616480915849934
 21
431.2920404204616034
 31
0.0
  0
LINE
  5
13204
  8
0
 10
2301.6731857842291902
 20
431.2070404204615102
 30
0.0
 11
2301.6731799614140073
 21
431.2370641818615127
 31
0.0
  0
ARC
  5
13205
  8
0
 10
2301.7775809035711063
 20
431.2652662808995956
 30
0.0
 40
0.1081430308133828
 50
181.709362204059488
 51
195.1166566446626121
  0
ARC
  5
13206
  8
0
 10
2301.5470196222881896
 20
431.2642343836045029
 30
0.0
 40
0.122486024849896
 50
358.9736661677416123
 51
8.3588207412505131
  0
ARC
  5
13207
  8
0
 10
2301.6455092069531929
 20
431.2777330265766977
 30
0.0
 40
0.023100419036449
 50
10.7464920738452303
 51
27.9277562494123401
  0
ARC
  5
13208
  8
0
 10
2301.6605061630161799
 20
431.2862829852157915
 30
0.0
 40
0.0058695878446662
 50
22.7443995516415995
 51
78.7815604216084608
  0
LINE
  5
13209
  8
0
 10
2301.6731799614140073
 20
431.2370641818615127
 30
0.0
 11
2301.5533841706860585
 21
431.2370493801615794
 31
0.0
  0
LINE
  5
1320A
  8
0
 10
2301.5533841706860585
 20
431.2070404204615102
 30
0.0
 11
2301.5533841706860585
 21
431.2370493801615794
 31
0.0
  0
ARC
  5
1320B
  8
0
 10
2301.593704039647946
 20
431.2671662878757957
 30
0.0
 40
0.0503261359876927
 50
183.1240433756171058
 51
216.7578756612064979
  0
ARC
  5
1320C
  8
0
 10
2300.2017003658961585
 20
431.1962760336045903
 30
0.0
 40
1.3434818210750421
 50
2.9075537291259219
 51
3.2775363621123139
  0
ARC
  5
1320D
  8
0
 10
2301.5230404338858534
 20
431.2720174328616167
 30
0.0
 40
0.0199728577999689
 50
3.0679738486709911
 51
58.8091988860170787
  0
LINE
  5
1320E
  8
0
 10
2301.543170513385121
 20
431.2697692098615221
 30
0.0
 11
2301.5333841706851672
 21
431.2697692098615221
 31
0.0
  0
LINE
  5
1320F
  8
0
 10
2301.634167763053938
 20
431.2644229297616221
 30
0.0
 11
2301.5434527317079301
 21
431.2644229297616221
 31
0.0
  0
LINE
  5
13210
  8
0
 10
2301.6694859964859461
 20
431.262040420461517
 30
0.0
 11
2301.6458841706848943
 21
431.262040420461517
 31
0.0
  0
ARC
  5
13211
  8
0
 10
2301.6458841706848943
 20
431.2920404205358977
 30
0.0
 40
0.0300000000742955
 50
199.4712207348183028
 51
270.0
  0
ARC
  5
13212
  8
0
 10
2301.6034577636801259
 20
431.277040420405001
 30
0.0
 40
0.015000000095553
 50
19.4712207348214008
 51
90.0
  0
LINE
  5
13213
  8
0
 10
2289.801376293039084
 20
426.4234734913115972
 30
0.0
 11
2290.4700377103367828
 21
426.4234734913115972
 31
0.0
  0
LINE
  5
13214
  8
0
 10
2289.801376293039084
 20
421.6596939637116179
 30
0.0
 11
2290.4700377103367828
 21
421.6596939637116179
 31
0.0
  0
LINE
  5
13215
  8
0
 10
2290.4900377103381288
 20
426.4034734913115017
 30
0.0
 11
2290.4900377103381288
 21
421.6796939637115997
 31
0.0
  0
LINE
  5
13216
  8
0
 10
2289.7813762930391022
 20
426.4034734913115017
 30
0.0
 11
2289.7813762930391022
 21
421.6796939637115997
 31
0.0
  0
ARC
  5
13217
  8
0
 10
2290.4700377103367828
 20
426.4034734913115017
 30
0.0
 40
0.02
 50
0.0000000000032569
 51
90.0
  0
ARC
  5
13218
  8
0
 10
2289.801376293039084
 20
426.4034734913115017
 30
0.0
 40
0.02
 50
90.0
 51
180.0000000000032117
  0
ARC
  5
13219
  8
0
 10
2290.4700377103367828
 20
421.6796939637115997
 30
0.0
 40
0.02
 50
270.0
 51
0.0
  0
ARC
  5
1321A
  8
0
 10
2289.801376293039084
 20
421.6796939637115997
 30
0.0
 40
0.02
 50
180.0
 51
270.0
  0
LINE
  5
1321B
  8
0
 10
2304.9191716001378154
 20
428.2263868771707962
 30
0.0
 11
2304.8733038728378233
 21
428.2263868771287889
 31
0.0
  0
ARC
  5
1321C
  8
0
 10
2304.8733038728428255
 20
428.2213870702610166
 30
0.0
 40
0.0049998068677759
 50
90.0000000524489252
 51
160.4770257427304045
  0
ARC
  5
1321D
  8
0
 10
2304.8591463027792088
 20
428.2264069183992774
 30
0.0
 40
0.0100213670360832
 50
273.1384394607305808
 51
340.4770257427272782
  0
ARC
  5
1321E
  8
0
 10
2306.2179527844059521
 20
403.4446651787029055
 30
0.0
 40
24.8089447417186904
 50
93.1384394607306092
 51
93.1584752116843049
  0
ARC
  5
1321F
  8
0
 10
2304.854373701755776
 20
428.1553771672902258
 30
0.0
 40
0.0606390442057716
 50
93.1584752116843049
 51
123.6796306297143957
  0
ARC
  5
13220
  8
0
 10
2304.8532265398339405
 20
427.5501855584283248
 30
0.0
 40
0.1260262112477246
 50
90.879021987873557
 51
104.9351290870558984
  0
ARC
  5
13221
  8
0
 10
2304.8609236051252083
 20
427.6983509557783805
 30
0.0
 40
0.0220026114695956
 50
267.4811673183742755
 51
304.2405969170891922
  0
LINE
  5
13222
  8
0
 10
2304.9191716001378154
 20
427.6801617908661797
 30
0.0
 11
2304.8733037983388385
 21
427.6801617906662045
 31
0.0
  0
ARC
  5
13223
  8
0
 10
2304.8740334887288554
 20
427.6856100628688182
 30
0.0
 40
0.0054969189605103
 50
188.0990844874881134
 51
262.371735886640522
  0
LINE
  5
13224
  8
0
 10
2304.8685913965377949
 20
427.684835627172788
 30
0.0
 11
2304.8685915170381122
 21
428.2230579297662985
 31
0.0
  0
LINE
  5
13225
  8
0
 10
2304.9191716001378154
 20
427.4599194955662256
 30
0.0
 11
2304.8207464033380347
 21
427.4599194955662256
 31
0.0
  0
LINE
  5
13226
  8
0
 10
2304.8207464033380347
 20
427.4899194955661983
 30
0.0
 11
2304.9191716001378154
 21
427.4899194955661983
 31
0.0
  0
LINE
  5
13227
  8
0
 10
2304.8906202977382236
 20
427.4899194955661983
 30
0.0
 11
2304.8906202977382236
 21
427.4599194955662256
 31
0.0
  0
LINE
  5
13228
  8
0
 10
2304.8466303191380575
 20
427.5263868771662032
 30
0.0
 11
2304.8466303191380575
 21
427.4899194955661983
 31
0.0
  0
LINE
  5
13229
  8
0
 10
2304.8207464033380347
 20
427.5263868771662032
 30
0.0
 11
2304.9191716001378154
 21
427.5263868771662032
 31
0.0
  0
LINE
  5
1322A
  8
0
 10
2304.834171600137779
 20
427.534179237511978
 30
0.0
 11
2304.834171600137779
 21
427.534179237511978
 31
0.0
  0
LINE
  5
1322B
  8
0
 10
2304.834171600137779
 20
427.5263868771662032
 30
0.0
 11
2304.834171600137779
 21
427.6546507980662
 31
0.0
  0
LINE
  5
1322C
  8
0
 10
2304.9191716001378154
 20
427.6661884907097146
 30
0.0
 11
2304.889147838738154
 21
427.6661826678948728
 31
0.0
  0
ARC
  5
1322D
  8
0
 10
2304.8609457397001279
 20
427.7705836100523129
 30
0.0
 40
0.1081430308133828
 50
271.7093622040561058
 51
285.1166566446526076
  0
ARC
  5
1322E
  8
0
 10
2304.8619776369951069
 20
427.5400223287680888
 30
0.0
 40
0.122486024849896
 50
88.9736661677352743
 51
98.3588207412546751
  0
ARC
  5
1322F
  8
0
 10
2304.8484789940230257
 20
427.6385119134341153
 30
0.0
 40
0.023100419036449
 50
100.7464920738471932
 51
117.9277562494164044
  0
ARC
  5
13230
  8
0
 10
2304.8399290353841025
 20
427.6535088694969886
 30
0.0
 40
0.0058695878446662
 50
112.7443995516547943
 51
168.7815604216033023
  0
LINE
  5
13231
  8
0
 10
2304.889147838738154
 20
427.6661826678948728
 30
0.0
 11
2304.8891626404388262
 21
427.5463868771661851
 31
0.0
  0
LINE
  5
13232
  8
0
 10
2304.9191716001378154
 20
427.5463868771661851
 30
0.0
 11
2304.8891626404388262
 21
427.5463868771661851
 31
0.0
  0
ARC
  5
13233
  8
0
 10
2304.8590457327240983
 20
427.5867067461289821
 30
0.0
 40
0.0503261359876927
 50
273.1240433756099719
 51
306.7578756612065263
  0
ARC
  5
13234
  8
0
 10
2304.9299359869951331
 20
426.1947030723769103
 30
0.0
 40
1.3434818210750421
 50
92.907553729115989
 51
93.2775363621182692
  0
ARC
  5
13235
  8
0
 10
2304.8541945877382204
 20
427.516043140366321
 30
0.0
 40
0.0199728577999689
 50
93.067973848676985
 51
148.8091988860215054
  0
LINE
  5
13236
  8
0
 10
2304.8564428107379172
 20
427.5361732198653044
 30
0.0
 11
2304.8564428107379172
 21
427.5263868771662032
 31
0.0
  0
LINE
  5
13237
  8
0
 10
2304.8617890908381014
 20
427.6271704695345761
 30
0.0
 11
2304.8617890908381014
 21
427.5364554381886819
 31
0.0
  0
LINE
  5
13238
  8
0
 10
2304.8641716001379791
 20
427.6624887029663
 30
0.0
 11
2304.8641716001379791
 21
427.6388868771662146
 31
0.0
  0
ARC
  5
13239
  8
0
 10
2304.83417160006411
 20
427.6388868771662146
 30
0.0
 40
0.0300000000742955
 50
289.4712207348172228
 51
359.9999999999968168
  0
ARC
  5
1323A
  8
0
 10
2304.8491716001949499
 20
427.5964604701612188
 30
0.0
 40
0.015000000095553
 50
109.4712207348171944
 51
180.0
  0
LINE
  5
1323B
  8
0
 10
2304.9191716001378154
 20
426.1963868771555894
 30
0.0
 11
2304.8733038728378233
 21
426.1963868771975967
 31
0.0
  0
ARC
  5
1323C
  8
0
 10
2304.8733038728428255
 20
426.2013866840653122
 30
0.0
 40
0.0049998068677759
 50
199.5229742572695955
 51
269.999999947551089
  0
ARC
  5
1323D
  8
0
 10
2304.8591463027792088
 20
426.1963668359272219
 30
0.0
 40
0.0100213670360832
 50
19.5229742572726899
 51
86.861560539269405
  0
ARC
  5
1323E
  8
0
 10
2306.2179527844059521
 20
450.9781085756234802
 30
0.0
 40
24.8089447417186904
 50
266.8415247883157235
 51
266.8615605392694192
  0
ARC
  5
1323F
  8
0
 10
2304.854373701755776
 20
426.2673965870362167
 30
0.0
 40
0.0606390442057716
 50
236.3203693702855901
 51
266.8415247883157235
  0
ARC
  5
13240
  8
0
 10
2304.8532265398339405
 20
426.8725881959040862
 30
0.0
 40
0.1260262112477246
 50
255.0648709129440874
 51
269.1209780121263861
  0
ARC
  5
13241
  8
0
 10
2304.8609236051252083
 20
426.7244227985540874
 30
0.0
 40
0.0220026114695956
 50
55.7594030829107794
 51
92.5188326816257671
  0
LINE
  5
13242
  8
0
 10
2304.9191716001378154
 20
426.7426119634661745
 30
0.0
 11
2304.8733037983388385
 21
426.7426119636662065
 31
0.0
  0
ARC
  5
13243
  8
0
 10
2304.8740334887288554
 20
426.7371636914638202
 30
0.0
 40
0.0054969189605103
 50
97.6282641133595348
 51
171.9009155125118014
  0
LINE
  5
13244
  8
0
 10
2304.8685913965377949
 20
426.737938127159623
 30
0.0
 11
2304.8685915170381122
 21
426.1997158245602009
 31
0.0
  0
LINE
  5
13245
  8
0
 10
2304.9191716001378154
 20
426.929919495566196
 30
0.0
 11
2304.8207464033380347
 21
426.9299194955663097
 31
0.0
  0
LINE
  5
13246
  8
0
 10
2304.8207464033380347
 20
426.8999194955662801
 30
0.0
 11
2304.9191716001378154
 21
426.8999194955662801
 31
0.0
  0
LINE
  5
13247
  8
0
 10
2304.8906202977382236
 20
426.8999194955662801
 30
0.0
 11
2304.8906202977382236
 21
426.929919495566196
 31
0.0
  0
LINE
  5
13248
  8
0
 10
2304.8466303191380575
 20
426.8963868771662078
 30
0.0
 11
2304.8466303191380575
 21
426.8999194955662801
 31
0.0
  0
LINE
  5
13249
  8
0
 10
2304.8207464033380347
 20
426.8963868771662078
 30
0.0
 11
2304.9191716001378154
 21
426.8963868771662078
 31
0.0
  0
LINE
  5
1324A
  8
0
 10
2304.834171600137779
 20
426.8885945168204898
 30
0.0
 11
2304.834171600137779
 21
426.8885945168204898
 31
0.0
  0
LINE
  5
1324B
  8
0
 10
2304.834171600137779
 20
426.8963868771662078
 30
0.0
 11
2304.834171600137779
 21
426.7681229562662111
 31
0.0
  0
LINE
  5
1324C
  8
0
 10
2304.9191716001378154
 20
426.7565852636228101
 30
0.0
 11
2304.889147838738154
 21
426.7565910864375951
 31
0.0
  0
ARC
  5
1324D
  8
0
 10
2304.8609457397001279
 20
426.6521901442802118
 30
0.0
 40
0.1081430308133828
 50
74.883343355347364
 51
88.2906377959438942
  0
ARC
  5
1324E
  8
0
 10
2304.8619776369951069
 20
426.8827514255644928
 30
0.0
 40
0.122486024849896
 50
261.6411792587452965
 51
271.0263338322646973
  0
ARC
  5
1324F
  8
0
 10
2304.8484789940230257
 20
426.7842618408984094
 30
0.0
 40
0.023100419036449
 50
242.0722437505835956
 51
259.2535079261526789
  0
ARC
  5
13250
  8
0
 10
2304.8399290353841025
 20
426.7692648848354224
 30
0.0
 40
0.0058695878446662
 50
191.2184395783966124
 51
247.255600448345092
  0
LINE
  5
13251
  8
0
 10
2304.889147838738154
 20
426.7565910864375951
 30
0.0
 11
2304.8891626404388262
 21
426.8763868771662828
 31
0.0
  0
LINE
  5
13252
  8
0
 10
2304.9191716001378154
 20
426.8763868771662828
 30
0.0
 11
2304.8891626404388262
 21
426.8763868771662828
 31
0.0
  0
ARC
  5
13253
  8
0
 10
2304.8590457327240983
 20
426.8360670082033721
 30
0.0
 40
0.0503261359876927
 50
53.2421243387934879
 51
86.8759566243900281
  0
ARC
  5
13254
  8
0
 10
2304.9299359869951331
 20
428.2280706819555007
 30
0.0
 40
1.3434818210750421
 50
266.7224636378817877
 51
267.092446270884011
  0
ARC
  5
13255
  8
0
 10
2304.8541945877382204
 20
426.9067306139662037
 30
0.0
 40
0.0199728577999689
 50
211.1908011139784946
 51
266.9320261513229866
  0
LINE
  5
13256
  8
0
 10
2304.8564428107379172
 20
426.8866005344671066
 30
0.0
 11
2304.8564428107379172
 21
426.8963868771662078
 31
0.0
  0
LINE
  5
13257
  8
0
 10
2304.8617890908381014
 20
426.7956032847978918
 30
0.0
 11
2304.8617890908381014
 21
426.8863183161436723
 31
0.0
  0
LINE
  5
13258
  8
0
 10
2304.8641716001379791
 20
426.7602850513662816
 30
0.0
 11
2304.8641716001379791
 21
426.7838868771661964
 31
0.0
  0
ARC
  5
13259
  8
0
 10
2304.83417160006411
 20
426.7838868771661964
 30
0.0
 40
0.0300000000742955
 50
0.0000000000032569
 51
70.528779265182763
  0
ARC
  5
1325A
  8
0
 10
2304.8491716001949499
 20
426.8263132841713059
 30
0.0
 40
0.015000000095553
 50
180.0
 51
250.5287792651826919
  0
LINE
  5
1325B
  8
0
 10
2290.9034235371382238
 20
430.4590089243616262
 30
0.0
 11
2290.9034235371382238
 21
430.3605837275616182
 31
0.0
  0
LINE
  5
1325C
  8
0
 10
2304.8599566395378133
 20
426.7464041517662281
 30
0.0
 11
2304.8512931432378537
 21
426.7465768158662058
 31
0.0
  0
LINE
  5
1325D
  8
0
 10
2304.8599566395378133
 20
427.6763696025661829
 30
0.0
 11
2304.8512931432378537
 21
427.6761969384662052
 31
0.0
  0
LINE
  5
1325E
  8
0
 10
2304.9190140329969836
 20
417.4780010503670837
 30
0.0
 11
2304.8731463056969915
 21
417.4780010503250764
 31
0.0
  0
ARC
  5
1325F
  8
0
 10
2304.8731463057019937
 20
417.4730012434574178
 30
0.0
 40
0.0049998068677759
 50
90.0000000524489252
 51
160.4770257427304045
  0
ARC
  5
13260
  8
0
 10
2304.8589887356379222
 20
417.4780210915955081
 30
0.0
 40
0.0100213670360832
 50
273.1384394607305808
 51
340.4770257427272782
  0
ARC
  5
13261
  8
0
 10
2306.2177952172642108
 20
392.6962793518993067
 30
0.0
 40
24.8089447417186904
 50
93.1384394607306092
 51
93.1584752116843049
  0
ARC
  5
13262
  8
0
 10
2304.8542161346149442
 20
417.4069913404865133
 30
0.0
 40
0.0606390442057716
 50
93.1584752116843049
 51
123.6796306297143957
  0
ARC
  5
13263
  8
0
 10
2304.8530689726931087
 20
416.8017997316247261
 30
0.0
 40
0.1260262112477246
 50
90.879021987873557
 51
104.9351290870558984
  0
ARC
  5
13264
  8
0
 10
2304.8607660379839217
 20
416.9499651289747248
 30
0.0
 40
0.0220026114695956
 50
267.4811673183742755
 51
304.2405969170891922
  0
LINE
  5
13265
  8
0
 10
2304.9190140329969836
 20
416.9317759640625809
 30
0.0
 11
2304.8731462311970972
 21
416.9317759638626057
 31
0.0
  0
ARC
  5
13266
  8
0
 10
2304.8738759215880236
 20
416.9372242360649921
 30
0.0
 40
0.0054969189605103
 50
188.0990844874881134
 51
262.371735886640522
  0
LINE
  5
13267
  8
0
 10
2304.8684338293969631
 20
416.9364498003691892
 30
0.0
 11
2304.8684339498968257
 21
417.474672102962586
 31
0.0
  0
LINE
  5
13268
  8
0
 10
2304.9190140329969836
 20
416.7115336687626268
 30
0.0
 11
2304.8205888361972029
 21
416.7115336687626268
 31
0.0
  0
LINE
  5
13269
  8
0
 10
2304.8205888361972029
 20
416.7415336687625995
 30
0.0
 11
2304.9190140329969836
 21
416.7415336687625995
 31
0.0
  0
LINE
  5
1326A
  8
0
 10
2304.890462730596937
 20
416.7415336687625995
 30
0.0
 11
2304.890462730596937
 21
416.7115336687626268
 31
0.0
  0
LINE
  5
1326B
  8
0
 10
2304.8464727519972257
 20
416.7780010503626045
 30
0.0
 11
2304.8464727519972257
 21
416.7415336687625995
 31
0.0
  0
LINE
  5
1326C
  8
0
 10
2304.8205888361972029
 20
416.7780010503626045
 30
0.0
 11
2304.9190140329969836
 21
416.7780010503626045
 31
0.0
  0
LINE
  5
1326D
  8
0
 10
2304.8340140329969472
 20
416.7857934107083224
 30
0.0
 11
2304.8340140329969472
 21
416.7857934107083224
 31
0.0
  0
LINE
  5
1326E
  8
0
 10
2304.8340140329969472
 20
416.7780010503626045
 30
0.0
 11
2304.8340140329969472
 21
416.9062649712626012
 31
0.0
  0
LINE
  5
1326F
  8
0
 10
2304.9190140329969836
 20
416.9178026639061159
 30
0.0
 11
2304.8889902715968674
 21
416.9177968410912172
 31
0.0
  0
ARC
  5
13270
  8
0
 10
2304.8607881725588413
 20
417.0221977832486004
 30
0.0
 40
0.1081430308133828
 50
271.7093622040561058
 51
285.1166566446526076
  0
ARC
  5
13271
  8
0
 10
2304.8618200698538203
 20
416.7916365019643763
 30
0.0
 40
0.122486024849896
 50
88.9736661677352743
 51
98.3588207412546751
  0
ARC
  5
13272
  8
0
 10
2304.8483214268821939
 20
416.8901260866305165
 30
0.0
 40
0.023100419036449
 50
100.7464920738471932
 51
117.9277562494164044
  0
ARC
  5
13273
  8
0
 10
2304.8397714682428159
 20
416.9051230426933898
 30
0.0
 40
0.0058695878446662
 50
112.7443995516547943
 51
168.7815604216033023
  0
LINE
  5
13274
  8
0
 10
2304.8889902715968674
 20
416.9177968410912172
 30
0.0
 11
2304.8890050732970849
 21
416.7980010503625863
 31
0.0
  0
LINE
  5
13275
  8
0
 10
2304.9190140329969836
 20
416.7980010503625863
 30
0.0
 11
2304.8890050732970849
 21
416.7980010503625863
 31
0.0
  0
ARC
  5
13276
  8
0
 10
2304.8588881655828118
 20
416.8383209193253833
 30
0.0
 40
0.0503261359876927
 50
273.1240433756099719
 51
306.7578756612065263
  0
ARC
  5
13277
  8
0
 10
2304.9297784198538466
 20
415.4463172455733115
 30
0.0
 40
1.3434818210750421
 50
92.907553729115989
 51
93.2775363621182692
  0
ARC
  5
13278
  8
0
 10
2304.8540370205969339
 20
416.7676573135627223
 30
0.0
 40
0.0199728577999689
 50
93.067973848676985
 51
148.8091988860215054
  0
LINE
  5
13279
  8
0
 10
2304.8562852435970854
 20
416.7877873930617056
 30
0.0
 11
2304.8562852435970854
 21
416.7780010503626045
 31
0.0
  0
LINE
  5
1327A
  8
0
 10
2304.8616315236968148
 20
416.8787846427309773
 30
0.0
 11
2304.8616315236968148
 21
416.7880696113850831
 31
0.0
  0
LINE
  5
1327B
  8
0
 10
2304.8640140329971473
 20
416.9141028761625876
 30
0.0
 11
2304.8640140329971473
 21
416.8905010503626158
 31
0.0
  0
ARC
  5
1327C
  8
0
 10
2304.8340140329228234
 20
416.8905010503626158
 30
0.0
 40
0.0300000000742955
 50
289.4712207348172228
 51
359.9999999999968168
  0
ARC
  5
1327D
  8
0
 10
2304.849014033054118
 20
416.8480746433576201
 30
0.0
 40
0.015000000095553
 50
109.4712207348171944
 51
180.0
  0
LINE
  5
1327E
  8
0
 10
2304.9190140329969836
 20
415.4480010503519907
 30
0.0
 11
2304.8731463056969915
 21
415.448001050393998
 31
0.0
  0
ARC
  5
1327F
  8
0
 10
2304.8731463057019937
 20
415.4530008572617135
 30
0.0
 40
0.0049998068677759
 50
199.5229742572695955
 51
269.999999947551089
  0
ARC
  5
13280
  8
0
 10
2304.8589887356379222
 20
415.4479810091236232
 30
0.0
 40
0.0100213670360832
 50
19.5229742572726899
 51
86.861560539269405
  0
ARC
  5
13281
  8
0
 10
2306.2177952172642108
 20
440.2297227488198246
 30
0.0
 40
24.8089447417186904
 50
266.8415247883157235
 51
266.8615605392694192
  0
ARC
  5
13282
  8
0
 10
2304.8542161346149442
 20
415.5190107602326179
 30
0.0
 40
0.0606390442057716
 50
236.3203693702855901
 51
266.8415247883157235
  0
ARC
  5
13283
  8
0
 10
2304.8530689726931087
 20
416.1242023691004874
 30
0.0
 40
0.1260262112477246
 50
255.0648709129440874
 51
269.1209780121263861
  0
ARC
  5
13284
  8
0
 10
2304.8607660379839217
 20
415.976036971750375
 30
0.0
 40
0.0220026114695956
 50
55.7594030829107794
 51
92.5188326816257671
  0
LINE
  5
13285
  8
0
 10
2304.9190140329969836
 20
415.9942261366625758
 30
0.0
 11
2304.8731462311970972
 21
415.9942261368626077
 31
0.0
  0
ARC
  5
13286
  8
0
 10
2304.8738759215880236
 20
415.9887778646601078
 30
0.0
 40
0.0054969189605103
 50
97.6282641133595348
 51
171.9009155125118014
  0
LINE
  5
13287
  8
0
 10
2304.8684338293969631
 20
415.9895523003560243
 30
0.0
 11
2304.8684339498968257
 21
415.4513299977564884
 31
0.0
  0
LINE
  5
13288
  8
0
 10
2304.9190140329969836
 20
416.1815336687625972
 30
0.0
 11
2304.8205888361972029
 21
416.1815336687625972
 31
0.0
  0
LINE
  5
13289
  8
0
 10
2304.8205888361972029
 20
416.1515336687626245
 30
0.0
 11
2304.9190140329969836
 21
416.1515336687626245
 31
0.0
  0
LINE
  5
1328A
  8
0
 10
2304.890462730596937
 20
416.1515336687626245
 30
0.0
 11
2304.890462730596937
 21
416.1815336687625972
 31
0.0
  0
LINE
  5
1328B
  8
0
 10
2304.8464727519972257
 20
416.148001050362609
 30
0.0
 11
2304.8464727519972257
 21
416.1515336687626245
 31
0.0
  0
LINE
  5
1328C
  8
0
 10
2304.8205888361972029
 20
416.148001050362609
 30
0.0
 11
2304.9190140329969836
 21
416.148001050362609
 31
0.0
  0
LINE
  5
1328D
  8
0
 10
2304.8340140329969472
 20
416.1402086900167774
 30
0.0
 11
2304.8340140329969472
 21
416.1402086900167774
 31
0.0
  0
LINE
  5
1328E
  8
0
 10
2304.8340140329969472
 20
416.148001050362609
 30
0.0
 11
2304.8340140329969472
 21
416.0197371294626123
 31
0.0
  0
LINE
  5
1328F
  8
0
 10
2304.9190140329969836
 20
416.0081994368190976
 30
0.0
 11
2304.8889902715968674
 21
416.0082052596338826
 31
0.0
  0
ARC
  5
13290
  8
0
 10
2304.8607881725588413
 20
415.9038043174764994
 30
0.0
 40
0.1081430308133828
 50
74.883343355347364
 51
88.2906377959438942
  0
ARC
  5
13291
  8
0
 10
2304.8618200698538203
 20
416.1343655987607804
 30
0.0
 40
0.122486024849896
 50
261.6411792587452965
 51
271.0263338322646973
  0
ARC
  5
13292
  8
0
 10
2304.8483214268821939
 20
416.035876014094697
 30
0.0
 40
0.023100419036449
 50
242.0722437505835956
 51
259.2535079261526789
  0
ARC
  5
13293
  8
0
 10
2304.8397714682428159
 20
416.0208790580318237
 30
0.0
 40
0.0058695878446662
 50
191.2184395783966124
 51
247.255600448345092
  0
LINE
  5
13294
  8
0
 10
2304.8889902715968674
 20
416.0082052596338826
 30
0.0
 11
2304.8890050732970849
 21
416.1280010503626272
 31
0.0
  0
LINE
  5
13295
  8
0
 10
2304.9190140329969836
 20
416.1280010503626272
 30
0.0
 11
2304.8890050732970849
 21
416.1280010503626272
 31
0.0
  0
ARC
  5
13296
  8
0
 10
2304.8588881655828118
 20
416.0876811813997733
 30
0.0
 40
0.0503261359876927
 50
53.2421243387934879
 51
86.8759566243900281
  0
ARC
  5
13297
  8
0
 10
2304.9297784198538466
 20
417.479684855151902
 30
0.0
 40
1.3434818210750421
 50
266.7224636378817877
 51
267.092446270884011
  0
ARC
  5
13298
  8
0
 10
2304.8540370205969339
 20
416.1583447871626049
 30
0.0
 40
0.0199728577999689
 50
211.1908011139784946
 51
266.9320261513229866
  0
LINE
  5
13299
  8
0
 10
2304.8562852435970854
 20
416.1382147076635079
 30
0.0
 11
2304.8562852435970854
 21
416.148001050362609
 31
0.0
  0
LINE
  5
1329A
  8
0
 10
2304.8616315236968148
 20
416.0472174579941793
 30
0.0
 11
2304.8616315236968148
 21
416.1379324893400735
 31
0.0
  0
LINE
  5
1329B
  8
0
 10
2304.8640140329971473
 20
416.0118992245626259
 30
0.0
 11
2304.8640140329971473
 21
416.0355010503625977
 31
0.0
  0
ARC
  5
1329C
  8
0
 10
2304.8340140329228234
 20
416.0355010503625977
 30
0.0
 40
0.0300000000742955
 50
0.0000000000032569
 51
70.528779265182763
  0
ARC
  5
1329D
  8
0
 10
2304.849014033054118
 20
416.0779274573677071
 30
0.0
 40
0.015000000095553
 50
180.0
 51
250.5287792651826919
  0
LINE
  5
1329E
  8
0
 10
2304.8597990723969815
 20
415.9980183249625725
 30
0.0
 11
2304.8511355760970218
 21
415.9981909890626071
 31
0.0
  0
LINE
  5
1329F
  8
0
 10
2304.8597990723969815
 20
416.9279837757625842
 30
0.0
 11
2304.8511355760970218
 21
416.9278111116626064
 31
0.0
  0
LINE
  5
132A0
  8
0
 10
2304.9191716001378154
 20
414.2380482944615778
 30
0.0
 11
2304.8207464032388998
 21
414.2380482944615778
 31
0.0
  0
LINE
  5
132A2
  8
0
 10
2288.8758643786381981
 20
414.2380482944615778
 30
0.0
 11
2288.9939747182388601
 21
414.2380482944615778
 31
0.0
  0
LINE
  5
132A3
  8
0
 10
2272.9506674967378785
 20
422.2691979007615259
 30
0.0
 11
2273.0490926936381584
 21
422.2691979007615259
 31
0.0
  0
LINE
  5
132A4
  8
0
 10
2272.9506674967378785
 20
422.0719774283614925
 30
0.0
 11
2273.0490926936381584
 21
422.0719774283614925
 31
0.0
  0
LINE
  5
132A5
  8
0
 10
2272.9506674967378785
 20
422.0329774283616189
 30
0.0
 11
2273.0490926936381584
 21
422.0329774283616189
 31
0.0
  0
LINE
  5
132A6
  8
0
 10
2272.9506674967378785
 20
421.4424262471616203
 30
0.0
 11
2273.0490926936381584
 21
421.4424262471615066
 31
0.0
  0
LINE
  5
132A7
  8
0
 10
2272.9506674967378785
 20
420.4581742786616019
 30
0.0
 11
2273.0490926936381584
 21
420.4581742786616019
 31
0.0
  0
LINE
  5
132A8
  8
0
 10
2279.9254697292440142
 20
440.0653081369616189
 30
0.0
 11
2279.9742676487821882
 21
439.9668829401614971
 31
0.0
  0
LINE
  5
132A9
  8
0
 10
2279.0830455880859517
 20
440.0653081369616189
 30
0.0
 11
2279.0830455880859517
 21
439.9668829401614971
 31
0.0
  0
LINE
  5
132AA
  8
0
 10
2272.9506674967378785
 20
439.2779065621614905
 30
0.0
 11
2273.0490926936381584
 21
439.2779065621616041
 31
0.0
  0
LINE
  5
132AB
  8
0
 10
2304.8207464032388998
 20
439.2779065621614905
 30
0.0
 11
2304.9191716001378154
 21
439.2779065621614905
 31
0.0
  0
LINE
  5
132AC
  8
0
 10
2304.9191717108328703
 20
422.2691979007615259
 30
0.0
 11
2304.8207465139330452
 21
422.2691979007615259
 31
0.0
  0
LINE
  5
132AD
  8
0
 10
2304.9191717108328703
 20
422.0719774283614925
 30
0.0
 11
2304.8207465139330452
 21
422.0719774283614925
 31
0.0
  0
LINE
  5
132AE
  8
0
 10
2304.9191717108328703
 20
422.0329774283616189
 30
0.0
 11
2304.8207465139330452
 21
422.0329774283616189
 31
0.0
  0
LINE
  5
132AF
  8
0
 10
2304.9191717108328703
 20
421.4424262471616203
 30
0.0
 11
2304.8207465139330452
 21
421.4424262471615066
 31
0.0
  0
LINE
  5
132B0
  8
0
 10
2304.9191717108328703
 20
420.4581742786616019
 30
0.0
 11
2304.8207465139330452
 21
420.4581742786616019
 31
0.0
  0
LINE
  5
132B1
  8
0
 10
2301.6831942319849986
 20
431.2749188773614719
 30
0.0
 11
2301.6833668960848627
 21
431.2662553810616259
 31
0.0
  0
LINE
  5
132B2
  8
0
 10
2300.7535741093861361
 20
431.2749188773614719
 30
0.0
 11
2300.7535741093861361
 21
431.2662553810616259
 31
0.0
  0
LINE
  5
132B3
  8
0
 10
2277.0902548303952244
 20
431.2749188773614719
 30
0.0
 11
2277.0904274944950885
 21
431.2662553810616259
 31
0.0
  0
LINE
  5
132B4
  8
0
 10
2276.1606347077949977
 20
431.2749188773614719
 30
0.0
 11
2276.1604620436951336
 21
431.2662553810616259
 31
0.0
  0
LINE
  5
132B5
  8
0
 10
2275.0830455880859517
 20
440.0653081369616189
 30
0.0
 11
2275.0830455880859517
 21
439.9668829401614971
 31
0.0
  0
ENDSEC
  0
EOF
