  0
SECTION
  2
HEADER
  9
$ACADVER
  1
AC1009
  9
$INSBASE
 10
2385.7843567894751686
 20
408.7646099761951746
 30
0.0
  9
$EXTMIN
 10
2367.1461416893530441
 20
385.8070650166519044
 30
-0.0000000000112498
  9
$EXTMAX
 10
2404.3832997187978435
 20
408.792191067843703
 30
0.0000000000002956
  9
$LIMMIN
 10
0.0
 20
0.0
  9
$LIMMAX
 10
11.6929133858000007
 20
8.2677165353999982
  9
$ORTHOMODE
 70
     1
  9
$REGENMODE
 70
     1
  9
$FILLMODE
 70
     1
  9
$QTEXTMODE
 70
     0
  9
$MIRRTEXT
 70
     0
  9
$DRAGMODE
 70
     2
  9
$LTSCALE
 40
0.6431102362
  9
$OSMODE
 70
  4095
  9
$ATTMODE
 70
     1
  9
$TEXTSIZE
 40
0.2
  9
$TRACEWID
 40
0.05
  9
$TEXTSTYLE
  7
STANDARD
  9
$CLAYER
  8
0
  9
$CELTYPE
  6
BYLAYER
  9
$CECOLOR
 62
   256
  9
$DIMSCALE
 40
1.0
  9
$DIMASZ
 40
0.1875
  9
$DIMEXO
 40
0.0625
  9
$DIMDLI
 40
0.4443307087
  9
$DIMRND
 40
0.0
  9
$DIMDLE
 40
0.0
  9
$DIMEXE
 40
0.125
  9
$DIMTP
 40
0.01
  9
$DIMTM
 40
0.01
  9
$DIMTXT
 40
1.0
  9
$DIMCEN
 40
0.1052362205
  9
$DIMTSZ
 40
0.0
  9
$DIMTOL
 70
     1
  9
$DIMLIM
 70
     0
  9
$DIMTIH
 70
     0
  9
$DIMTOH
 70
     1
  9
$DIMSE1
 70
     0
  9
$DIMSE2
 70
     0
  9
$DIMTAD
 70
     0
  9
$DIMZIN
 70
     0
  9
$DIMBLK
  1

  9
$DIMASO
 70
     1
  9
$DIMSHO
 70
     1
  9
$DIMPOST
  1
\X
  9
$DIMAPOST
  1

  9
$DIMALT
 70
     1
  9
$DIMALTD
 70
     2
  9
$DIMALTF
 40
25.3999999999999986
  9
$DIMLFAC
 40
1.0
  9
$DIMTOFL
 70
     0
  9
$DIMTVP
 40
0.0
  9
$DIMTIX
 70
     0
  9
$DIMSOXD
 70
     0
  9
$DIMSAH
 70
     0
  9
$DIMBLK1
  1

  9
$DIMBLK2
  1

  9
$DIMSTYLE
  2
STANDARD
  9
$DIMCLRD
 70
     0
  9
$DIMCLRE
 70
     0
  9
$DIMCLRT
 70
     0
  9
$DIMTFAC
 40
1.0
  9
$DIMGAP
 40
0.09
  9
$LUNITS
 70
     2
  9
$LUPREC
 70
     4
  9
$SKETCHINC
 40
0.1
  9
$FILLETRAD
 40
0.0
  9
$AUNITS
 70
     0
  9
$AUPREC
 70
     0
  9
$MENU
  1
.
  9
$ELEVATION
 40
0.0
  9
$PELEVATION
 40
0.0
  9
$THICKNESS
 40
0.0
  9
$LIMCHECK
 70
     0
  9
$BLIPMODE
 70
     0
  9
$CHAMFERA
 40
0.0
  9
$CHAMFERB
 40
0.0
  9
$SKPOLY
 70
     0
  9
$TDCREATE
 40
2458172.5207638889551163
  9
$TDUPDATE
 40
2460944.0318749998696148
  9
$TDINDWG
 40
0.5452900694
  9
$TDUSRTIMER
 40
0.5452900694
  9
$USRTIMER
 70
     1
  9
$ANGBASE
 50
0.0
  9
$ANGDIR
 70
     0
  9
$PDMODE
 70
     0
  9
$PDSIZE
 40
0.3125
  9
$PLINEWID
 40
0.0
  9
$COORDS
 70
     1
  9
$SPLFRAME
 70
     0
  9
$SPLINETYPE
 70
     6
  9
$SPLINESEGS
 70
     8
  9
$ATTDIA
 70
     1
  9
$ATTREQ
 70
     1
  9
$HANDLING
 70
     1
  9
$HANDSEED
  5
13986
  9
$SURFTAB1
 70
     6
  9
$SURFTAB2
 70
     6
  9
$SURFTYPE
 70
     6
  9
$SURFU
 70
     6
  9
$SURFV
 70
     6
  9
$UCSNAME
  2

  9
$UCSORG
 10
0.0
 20
0.0
 30
0.0
  9
$UCSXDIR
 10
1.0
 20
0.0
 30
0.0
  9
$UCSYDIR
 10
0.0
 20
1.0
 30
0.0
  9
$PUCSNAME
  2

  9
$PUCSORG
 10
0.0
 20
0.0
 30
0.0
  9
$PUCSXDIR
 10
1.0
 20
0.0
 30
0.0
  9
$PUCSYDIR
 10
0.0
 20
1.0
 30
0.0
  9
$USERI1
 70
     0
  9
$USERI2
 70
     0
  9
$USERI3
 70
     0
  9
$USERI4
 70
     0
  9
$USERI5
 70
     0
  9
$USERR1
 40
0.0
  9
$USERR2
 40
0.0
  9
$USERR3
 40
0.0
  9
$USERR4
 40
0.0
  9
$USERR5
 40
0.0
  9
$WORLDVIEW
 70
     1
  9
$SHADEDGE
 70
     3
  9
$SHADEDIF
 70
    70
  9
$TILEMODE
 70
     1
  9
$MAXACTVP
 70
    64
  9
$PLIMCHECK
 70
     0
  9
$PEXTMIN
 10
1.0000000000000000E+20
 20
1.0000000000000000E+20
 30
1.0000000000000000E+20
  9
$PEXTMAX
 10
-1.0000000000000000E+20
 20
-1.0000000000000000E+20
 30
-1.0000000000000000E+20
  9
$PLIMMIN
 10
0.0
 20
0.0
  9
$PLIMMAX
 10
12.0
 20
9.0
  9
$UNITMODE
 70
     0
  9
$VISRETAIN
 70
     1
  9
$PLINEGEN
 70
     0
  9
$PSLTSCALE
 70
     1
  0
ENDSEC
  0
SECTION
  2
TABLES
  0
TABLE
  2
VPORT
 70
     1
  0
VPORT
  2
*ACTIVE
 70
     0
 10
0.0
 20
0.0
 11
1.0
 21
1.0
 12
1919.0225189962459353
 22
308.1664809223179873
 13
0.0
 23
0.0
 14
1.0
 24
1.0
 15
0.0
 25
0.0
 16
0.0
 26
0.0
 36
24.1179433675886514
 17
466.74220170783002
 27
89.133147119929788
 37
0.0
 40
23.1515148958902515
 41
2.204387990762124
 42
50.0
 43
0.0
 44
0.0
 50
0.0
 51
0.0
 71
     0
 72
   100
 73
     1
 74
     1
 75
     0
 76
     0
 77
     0
 78
     0
  0
ENDTAB
  0
TABLE
  2
LTYPE
 70
     2
  0
LTYPE
  2
CONTINUOUS
 70
     0
  3
Solid line
 72
    65
 73
     0
 40
0.0
  0
LTYPE
  2
PHANTOM2
 70
     0
  3
___ _ _ ___ _ _ ___ _ _ ___ _ _
 72
    65
 73
     6
 40
1.25
 49
0.625
 49
-0.125
 49
0.125
 49
-0.125
 49
0.125
 49
-0.125
  0
ENDTAB
  0
TABLE
  2
LAYER
 70
     2
  0
LAYER
  2
0
 70
     0
 62
   255
  6
CONTINUOUS
  0
LAYER
  2
DEFPOINTS
 70
     0
 62
     7
  6
CONTINUOUS
  0
ENDTAB
  0
TABLE
  2
STYLE
 70
     1
  0
STYLE
  2
STANDARD
 70
     0
 40
0.0
 41
0.8
 50
0.0
 71
     0
 42
0.2
  3
txt
  4

  0
ENDTAB
  0
TABLE
  2
VIEW
 70
     0
  0
ENDTAB
  0
TABLE
  2
UCS
 70
     0
  0
ENDTAB
  0
TABLE
  2
APPID
 70
    11
  0
APPID
  2
ACAD
 70
     0
  0
APPID
  2
ACAD_MLEADERVER
 70
     0
  0
APPID
  2
ACAD_EXEMPT_FROM_CAD_STANDARDS
 70
     0
  0
APPID
  2
ACAD_DSTYLE_DIMJAG
 70
     0
  0
APPID
  2
ACAD_DSTYLE_DIMTALN
 70
     0
  0
APPID
  2
ACAD_NAV_VCDISPLAY
 70
     0
  0
APPID
  2
ACAECLAYERSTANDARD
 70
     0
  0
APPID
  2
ACCMTRANSPARENCY
 70
     0
  0
APPID
  2
DCO15
 70
     0
  0
APPID
  2
ACDBATTR
 70
     0
  0
APPID
  2
ACADANNOTATIVE
 70
     0
  0
ENDTAB
  0
TABLE
  2
DIMSTYLE
 70
     1
  0
DIMSTYLE
  2
STANDARD
 70
     0
  3

  4

  5

  6

  7

 40
1.0
 41
0.1875
 42
0.0625
 43
0.38
 44
0.125
 45
0.0
 46
0.0
 47
0.01
 48
0.01
140
0.15625
141
0.09
142
0.0
143
25.3999999999999986
144
1.0
145
0.0
146
1.0
147
0.09
 71
     1
 72
     0
 73
     1
 74
     1
 75
     0
 76
     0
 77
     0
 78
     4
170
     0
171
     2
172
     0
173
     0
174
     0
175
     0
176
     0
177
     0
178
     0
  0
ENDTAB
  0
ENDSEC
  0
SECTION
  2
BLOCKS
  0
BLOCK
  8
0
  2
$MODEL_SPACE
 70
     0
 10
0.0
 20
0.0
 30
0.0
  3
$MODEL_SPACE
  1

  0
ENDBLK
  5
21
  8
0
  0
BLOCK
 67
     1
  8
0
  2
$PAPER_SPACE
 70
     0
 10
0.0
 20
0.0
 30
0.0
  3
$PAPER_SPACE
  1

  0
ENDBLK
  5
1D
 67
     1
  8
0
  0
BLOCK
  8
0
  2
_FILLED
 70
     0
 10
0.0
 20
0.0
 30
0.0
  3
_FILLED
  1

  0
SOLID
  5
DBD5
  8
0
  6
BYBLOCK
 62
     0
 10
0.0
 20
0.0
 30
0.0
 11
-1.0
 21
0.1666666667
 31
0.0
 12
-1.0
 22
-0.1666666667
 32
0.0
 13
-1.0
 23
-0.1666666667
 33
0.0
  0
ENDBLK
  5
DBD6
  8
0
  6
BYBLOCK
 62
     0
  0
BLOCK
  8
0
  2
A$CF46DDDAC
 70
     0
 10
0.0
 20
0.0
 30
0.0
  3
A$CF46DDDAC
  1

  0
LINE
  5
10043
  8
0
 10
280.2472970062942181
 20
161.8421897169214958
 30
0.0
 11
280.2072970062941977
 21
161.8021897169215038
 31
0.0
  0
LINE
  5
10044
  8
0
 10
280.2072970062941977
 20
161.8021897169215038
 30
0.0
 11
305.1285568487941759
 21
161.8021897169215038
 31
0.0
  0
LINE
  5
10045
  8
0
 10
305.1285568487941759
 20
161.8021897169215038
 30
0.0
 11
305.0885568487942123
 21
161.8421897169214958
 31
0.0
  0
LINE
  5
10046
  8
0
 10
305.0885568487942123
 20
161.8421897169214958
 30
0.0
 11
280.2472970062942181
 21
161.8421897169214958
 31
0.0
  0
LINE
  5
10047
  8
0
 10
280.2069269274941803
 20
157.8264416854215142
 30
0.0
 11
280.167926927494193
 21
157.7874416854214985
 31
0.0
  0
LINE
  5
10048
  8
0
 10
280.167926927494193
 20
157.7874416854214985
 30
0.0
 11
280.167926927494193
 21
156.6843393232215078
 31
0.0
  0
LINE
  5
10049
  8
0
 10
280.167926927494193
 20
156.6843393232215078
 30
0.0
 11
280.2069269274941803
 21
156.6453393232214921
 31
0.0
  0
LINE
  5
1004A
  8
0
 10
280.2069269274941803
 20
156.6453393232214921
 30
0.0
 11
305.1289269274942058
 21
156.6453393232214921
 31
0.0
  0
LINE
  5
1004B
  8
0
 10
305.1289269274942058
 20
156.6453393232214921
 30
0.0
 11
305.167926927494193
 21
156.6843393232215078
 31
0.0
  0
LINE
  5
1004C
  8
0
 10
305.167926927494193
 20
156.6843393232215078
 30
0.0
 11
305.167926927494193
 21
157.7874416854214985
 31
0.0
  0
LINE
  5
1004D
  8
0
 10
305.167926927494193
 20
157.7874416854214985
 30
0.0
 11
305.1289269274942058
 21
157.8264416854215142
 31
0.0
  0
LINE
  5
1004E
  8
0
 10
305.1289269274942058
 20
157.8264416854215142
 30
0.0
 11
280.2069269274941803
 21
157.8264416854215142
 31
0.0
  0
LINE
  5
1004F
  8
0
 10
280.2072970062941977
 20
161.8021897169215038
 30
0.0
 11
280.2072970062941977
 21
157.8264416854215142
 31
0.0
  0
LINE
  5
10050
  8
0
 10
305.1285568487941759
 20
161.8021897169215038
 30
0.0
 11
305.1285568487941759
 21
157.8264416854215142
 31
0.0
  0
LINE
  5
10051
  8
0
 10
280.206926820446995
 20
157.7874416854214985
 30
0.0
 11
305.1289268204470204
 21
157.7874416854214985
 31
0.0
  0
LINE
  5
10052
  8
0
 10
305.1289268204470204
 20
157.7874416854214985
 30
0.0
 11
305.1289268204470204
 21
156.6843393232215078
 31
0.0
  0
LINE
  5
10053
  8
0
 10
305.1289268204470204
 20
156.6843393232215078
 30
0.0
 11
280.206926820446995
 21
156.6843393232215078
 31
0.0
  0
LINE
  5
10054
  8
0
 10
280.206926820446995
 20
156.6843393232215078
 30
0.0
 11
280.206926820446995
 21
157.7874416854214985
 31
0.0
  0
LINE
  5
10055
  8
0
 10
305.1289268204470204
 20
156.6843393232215078
 30
0.0
 11
305.1484268739706067
 21
156.6648392696978931
 31
0.0
  0
LINE
  5
10056
  8
0
 10
305.1289268204470204
 20
157.7874416854214985
 30
0.0
 11
305.1484269274941994
 21
157.8069416854214921
 31
0.0
  0
LINE
  5
10057
  8
0
 10
280.206926820446995
 20
157.7874416854214985
 30
0.0
 11
280.187426873970594
 21
157.8069416318978995
 31
0.0
  0
LINE
  5
10058
  8
0
 10
280.206926820446995
 20
156.6843393232215078
 30
0.0
 11
280.187426873970594
 21
156.6648393767451068
 31
0.0
  0
LINE
  5
10059
  8
0
 10
280.6600528047470107
 20
156.6453393232214921
 30
0.0
 11
280.6600528047470107
 21
122.2752603468214971
 31
0.0
  0
LINE
  5
1005A
  8
0
 10
282.6679268204470077
 20
156.6453393232214921
 30
0.0
 11
282.6679268204470077
 21
122.2752603468214971
 31
0.0
  0
LINE
  5
1005B
  8
0
 10
280.6600528047470107
 20
122.2752603468214971
 30
0.0
 11
282.6679268204470077
 21
122.2752603468214971
 31
0.0
  0
LINE
  5
1005C
  8
0
 10
280.7781628047470122
 20
122.1571503468214956
 30
0.0
 11
282.5498168204470062
 21
122.1571503468214956
 31
0.0
  0
LINE
  5
1005D
  8
0
 10
280.6600528047470107
 20
122.2752603468214971
 30
0.0
 11
280.7781628047470122
 21
122.1571503468214956
 31
0.0
  0
LINE
  5
1005E
  8
0
 10
282.5498168204470062
 20
122.1571503468214956
 30
0.0
 11
282.6679268204470077
 21
122.2752603468214971
 31
0.0
  0
LINE
  5
1005F
  8
0
 10
281.2703087241080766
 20
122.0768353842132967
 30
0.0
 11
282.0576709144469874
 21
122.0768353842132967
 31
0.0
  0
LINE
  5
10060
  8
0
 10
281.2703087241080766
 20
122.0768353842132967
 30
0.0
 11
281.2703087241080766
 21
122.1571503468214956
 31
0.0
  0
LINE
  5
10061
  8
0
 10
281.2706422033081139
 20
122.1571503468214956
 30
0.0
 11
281.2706422033081139
 21
122.0768353842132967
 31
0.0
  0
LINE
  5
10062
  8
0
 10
281.2710542974082273
 20
122.0768353842132967
 30
0.0
 11
281.2710542974082273
 21
122.1571503468214956
 31
0.0
  0
LINE
  5
10063
  8
0
 10
281.2720538210082282
 20
122.1571503468214956
 30
0.0
 11
281.2720538210082282
 21
122.0768353842132967
 31
0.0
  0
LINE
  5
10064
  8
0
 10
281.2728768797080079
 20
122.0768353842132967
 30
0.0
 11
281.2728768797080079
 21
122.1571503468214956
 31
0.0
  0
LINE
  5
10065
  8
0
 10
281.2745397080082057
 20
122.1571503468214956
 30
0.0
 11
281.2745397080082057
 21
122.0768353842132967
 31
0.0
  0
LINE
  5
10066
  8
0
 10
281.275771475408078
 20
122.0768353842132967
 30
0.0
 11
281.275771475408078
 21
122.1571503468214956
 31
0.0
  0
LINE
  5
10067
  8
0
 10
281.2780930507079802
 20
122.1571503468214956
 30
0.0
 11
281.2780930507079802
 21
122.0768353842132967
 31
0.0
  0
LINE
  5
10068
  8
0
 10
281.2797301507081897
 20
122.0768353842132967
 30
0.0
 11
281.2797301507081897
 21
122.1571503468214956
 31
0.0
  0
LINE
  5
10069
  8
0
 10
281.2827041097082201
 20
122.1571503468214956
 30
0.0
 11
281.2827041097082201
 21
122.0768353842132967
 31
0.0
  0
LINE
  5
1006A
  8
0
 10
281.2847099525080807
 20
122.1571503468214956
 30
0.0
 11
281.2847099525080807
 21
122.0768353842132967
 31
0.0
  0
LINE
  5
1006B
  8
0
 10
281.2883602463081729
 20
122.1571503468214956
 30
0.0
 11
281.2883602463081729
 21
122.0768353842132967
 31
0.0
  0
LINE
  5
1006C
  8
0
 10
281.2907934510080281
 20
122.0768353842132967
 30
0.0
 11
281.2907934510080281
 21
122.1571503468214956
 31
0.0
  0
LINE
  5
1006D
  8
0
 10
281.2950459575080799
 20
122.1571503468214956
 30
0.0
 11
281.2950459575080799
 21
122.0768353842132967
 31
0.0
  0
LINE
  5
1006E
  8
0
 10
281.2978677524080808
 20
122.0768353842132967
 30
0.0
 11
281.2978677524080808
 21
122.1571503468214956
 31
0.0
  0
LINE
  5
1006F
  8
0
 10
281.3027429182080823
 20
122.1571503468214956
 30
0.0
 11
281.3027429182080823
 21
122.0768353842132967
 31
0.0
  0
LINE
  5
10070
  8
0
 10
281.3059455689081005
 20
122.0768353842132967
 30
0.0
 11
281.3059455689081005
 21
122.1571503468214956
 31
0.0
  0
LINE
  5
10071
  8
0
 10
281.3114300315082232
 20
122.1571503468214956
 30
0.0
 11
281.3114300315082232
 21
122.0768353842132967
 31
0.0
  0
LINE
  5
10072
  8
0
 10
281.3150047599079926
 20
122.0768353842132967
 30
0.0
 11
281.3150047599079926
 21
122.1571503468214956
 31
0.0
  0
LINE
  5
10073
  8
0
 10
281.3210834868081065
 20
122.1571503468214956
 30
0.0
 11
281.3210834868081065
 21
122.0768353842132967
 31
0.0
  0
LINE
  5
10074
  8
0
 10
281.3244759874082206
 20
122.0768353842132967
 30
0.0
 11
281.3244759874082206
 21
122.1571503468214956
 31
0.0
  0
LINE
  5
10075
  8
0
 10
281.3250204947079851
 20
122.0768353842132967
 30
0.0
 11
281.3250204947079851
 21
122.1571503468214956
 31
0.0
  0
LINE
  5
10076
  8
0
 10
281.3316768245081221
 20
122.1571503468214956
 30
0.0
 11
281.3316768245081221
 21
122.0768353842132967
 31
0.0
  0
LINE
  5
10077
  8
0
 10
281.3349621674079799
 20
122.0768353842132967
 30
0.0
 11
281.3349621674079799
 21
122.1571503468214956
 31
0.0
  0
LINE
  5
10078
  8
0
 10
281.3359653208080999
 20
122.0768353842132967
 30
0.0
 11
281.3359653208080999
 21
122.1571503468214956
 31
0.0
  0
LINE
  5
10079
  8
0
 10
281.3431810090082195
 20
122.1571503468214956
 30
0.0
 11
281.3431810090082195
 21
122.0768353842132967
 31
0.0
  0
LINE
  5
1007A
  8
0
 10
281.3463501893081116
 20
122.0768353842132967
 30
0.0
 11
281.3463501893081116
 21
122.1571503468214956
 31
0.0
  0
LINE
  5
1007B
  8
0
 10
281.3478092393081056
 20
122.0768353842132967
 30
0.0
 11
281.3478092393081056
 21
122.1571503468214956
 31
0.0
  0
LINE
  5
1007C
  8
0
 10
281.3555645082079764
 20
122.1571503468214956
 30
0.0
 11
281.3555645082079764
 21
122.0768353842132967
 31
0.0
  0
LINE
  5
1007D
  8
0
 10
281.3586088394080775
 20
122.0768353842132967
 30
0.0
 11
281.3586088394080775
 21
122.1571503468214956
 31
0.0
  0
LINE
  5
1007E
  8
0
 10
281.3605197868081973
 20
122.0768353842132967
 30
0.0
 11
281.3605197868081973
 21
122.1571503468214956
 31
0.0
  0
LINE
  5
1007F
  8
0
 10
281.3687933797082223
 20
122.1571503468214956
 30
0.0
 11
281.3687933797082223
 21
122.0768353842132967
 31
0.0
  0
LINE
  5
10080
  8
0
 10
281.3717045176081228
 20
122.0768353842132967
 30
0.0
 11
281.3717045176081228
 21
122.1571503468214956
 31
0.0
  0
LINE
  5
10081
  8
0
 10
281.3740621247080753
 20
122.0768353842132967
 30
0.0
 11
281.3740621247080753
 21
122.1571503468214956
 31
0.0
  0
LINE
  5
10082
  8
0
 10
281.382831364208073
 20
122.1571503468214956
 30
0.0
 11
281.382831364208073
 21
122.0768353842132967
 31
0.0
  0
LINE
  5
10083
  8
0
 10
281.385601329408189
 20
122.0768353842132967
 30
0.0
 11
281.385601329408189
 21
122.1571503468214956
 31
0.0
  0
LINE
  5
10084
  8
0
 10
281.3883991341079991
 20
122.0768353842132967
 30
0.0
 11
281.3883991341079991
 21
122.1571503468214956
 31
0.0
  0
LINE
  5
10085
  8
0
 10
281.3976399845082028
 20
122.1571503468214956
 30
0.0
 11
281.3976399845082028
 21
122.0768353842132967
 31
0.0
  0
LINE
  5
10086
  8
0
 10
281.4002611848080733
 20
122.0768353842132967
 30
0.0
 11
281.4002611848080733
 21
122.1571503468214956
 31
0.0
  0
LINE
  5
10087
  8
0
 10
281.4034915186081776
 20
122.0768353842132967
 30
0.0
 11
281.4034915186081776
 21
122.1571503468214956
 31
0.0
  0
LINE
  5
10088
  8
0
 10
281.4131786512082272
 20
122.1571503468214956
 30
0.0
 11
281.4131786512082272
 21
122.0768353842132967
 31
0.0
  0
LINE
  5
10089
  8
0
 10
281.4156439020081848
 20
122.0768353842132967
 30
0.0
 11
281.4156439020081848
 21
122.1571503468214956
 31
0.0
  0
LINE
  5
1008A
  8
0
 10
281.4192979107079964
 20
122.0768353842132967
 30
0.0
 11
281.4192979107079964
 21
122.1571503468214956
 31
0.0
  0
LINE
  5
1008B
  8
0
 10
281.4294047739080042
 20
122.1571503468214956
 30
0.0
 11
281.4294047739080042
 21
122.0768353842132967
 31
0.0
  0
LINE
  5
1008C
  8
0
 10
281.4317073182082254
 20
122.0768353842132967
 30
0.0
 11
281.4317073182082254
 21
122.1571503468214956
 31
0.0
  0
LINE
  5
1008D
  8
0
 10
281.4357749864082052
 20
122.0768353842132967
 30
0.0
 11
281.4357749864082052
 21
122.1571503468214956
 31
0.0
  0
LINE
  5
1008E
  8
0
 10
281.4462738779080837
 20
122.1571503468214956
 30
0.0
 11
281.4462738779080837
 21
122.0768353842132967
 31
0.0
  0
LINE
  5
1008F
  8
0
 10
281.4484074045080888
 20
122.0768353842132967
 30
0.0
 11
281.4484074045080888
 21
122.1571503468214956
 31
0.0
  0
LINE
  5
10090
  8
0
 10
281.4528775831080907
 20
122.0768353842132967
 30
0.0
 11
281.4528775831080907
 21
122.1571503468214956
 31
0.0
  0
LINE
  5
10091
  8
0
 10
281.4637397262080754
 20
122.1571503468214956
 30
0.0
 11
281.4637397262080754
 21
122.0768353842132967
 31
0.0
  0
LINE
  5
10092
  8
0
 10
281.4656983873080094
 20
122.0768353842132967
 30
0.0
 11
281.4656983873080094
 21
122.1571503468214956
 31
0.0
  0
LINE
  5
10093
  8
0
 10
281.4704546259080757
 20
122.1571503468214956
 30
0.0
 11
281.4704546259080757
 21
122.0768353842132967
 31
0.0
  0
LINE
  5
10094
  8
0
 10
281.481754446108198
 20
122.1571503468214956
 30
0.0
 11
281.481754446108198
 21
122.0768353842132967
 31
0.0
  0
LINE
  5
10095
  8
0
 10
281.4835328732081052
 20
122.0768353842132967
 30
0.0
 11
281.4835328732081052
 21
122.1571503468214956
 31
0.0
  0
LINE
  5
10096
  8
0
 10
281.4887702455081921
 20
122.0768353842132967
 30
0.0
 11
281.4887702455081921
 21
122.1571503468214956
 31
0.0
  0
LINE
  5
10097
  8
0
 10
281.5002686605081976
 20
122.1571503468214956
 30
0.0
 11
281.5002686605081976
 21
122.0768353842132967
 31
0.0
  0
LINE
  5
10098
  8
0
 10
281.5018619790081971
 20
122.0768353842132967
 30
0.0
 11
281.5018619790081971
 21
122.1571503468214956
 31
0.0
  0
LINE
  5
10099
  8
0
 10
281.5074619318081091
 20
122.0768353842132967
 30
0.0
 11
281.5074619318081091
 21
122.1571503468214956
 31
0.0
  0
LINE
  5
1009A
  8
0
 10
281.5192316232082135
 20
122.1571503468214956
 30
0.0
 11
281.5192316232082135
 21
122.0768353842132967
 31
0.0
  0
LINE
  5
1009B
  8
0
 10
281.5206354660081161
 20
122.0768353842132967
 30
0.0
 11
281.5206354660081161
 21
122.1571503468214956
 31
0.0
  0
LINE
  5
1009C
  8
0
 10
281.5265826502081268
 20
122.0768353842132967
 30
0.0
 11
281.5265826502081268
 21
122.1571503468214956
 31
0.0
  0
LINE
  5
1009D
  8
0
 10
281.5385913581080217
 20
122.1571503468214956
 30
0.0
 11
281.5385913581080217
 21
122.0768353842132967
 31
0.0
  0
LINE
  5
1009E
  8
0
 10
281.5398018773079798
 20
122.0768353842132967
 30
0.0
 11
281.5398018773079798
 21
122.1571503468214956
 31
0.0
  0
LINE
  5
1009F
  8
0
 10
281.5460799921081048
 20
122.0768353842132967
 30
0.0
 11
281.5460799921081048
 21
122.1571503468214956
 31
0.0
  0
LINE
  5
100A0
  8
0
 10
281.5582948015079978
 20
122.1571503468214956
 30
0.0
 11
281.5582948015079978
 21
122.0768353842132967
 31
0.0
  0
LINE
  5
100A1
  8
0
 10
281.5593086791081987
 20
122.0768353842132967
 30
0.0
 11
281.5593086791081987
 21
122.1571503468214956
 31
0.0
  0
LINE
  5
100A2
  8
0
 10
281.5659005167080977
 20
122.0768353842132967
 30
0.0
 11
281.5659005167080977
 21
122.1571503468214956
 31
0.0
  0
LINE
  5
100A3
  8
0
 10
281.578287947608203
 20
122.1571503468214956
 30
0.0
 11
281.578287947608203
 21
122.0768353842132967
 31
0.0
  0
LINE
  5
100A4
  8
0
 10
281.5791024047081805
 20
122.0768353842132967
 30
0.0
 11
281.5791024047081805
 21
122.1571503468214956
 31
0.0
  0
LINE
  5
100A5
  8
0
 10
281.5859898972079804
 20
122.0768353842132967
 30
0.0
 11
281.5859898972079804
 21
122.1571503468214956
 31
0.0
  0
LINE
  5
100A6
  8
0
 10
281.5985159966080005
 20
122.1571503468214956
 30
0.0
 11
281.5985159966080005
 21
122.0768353842132967
 31
0.0
  0
LINE
  5
100A7
  8
0
 10
281.5991288008079891
 20
122.0768353842132967
 30
0.0
 11
281.5991288008079891
 21
122.1571503468214956
 31
0.0
  0
LINE
  5
100A8
  8
0
 10
281.6062930701082223
 20
122.0768353842132967
 30
0.0
 11
281.6062930701082223
 21
122.1571503468214956
 31
0.0
  0
LINE
  5
100A9
  8
0
 10
281.6189235048080945
 20
122.1571503468214956
 30
0.0
 11
281.6189235048080945
 21
122.0768353842132967
 31
0.0
  0
LINE
  5
100AA
  8
0
 10
281.6193329765080193
 20
122.0768353842132967
 30
0.0
 11
281.6193329765080193
 21
122.1571503468214956
 31
0.0
  0
LINE
  5
100AB
  8
0
 10
281.6267543859079865
 20
122.0768353842132967
 30
0.0
 11
281.6267543859079865
 21
122.1571503468214956
 31
0.0
  0
LINE
  5
100AC
  8
0
 10
281.639454536708115
 20
122.1571503468214956
 30
0.0
 11
281.639454536708115
 21
122.0768353842132967
 31
0.0
  0
LINE
  5
100AD
  8
0
 10
281.6473177614080896
 20
122.0768353842132967
 30
0.0
 11
281.6473177614080896
 21
122.1571503468214956
 31
0.0
  0
LINE
  5
100AE
  8
0
 10
281.6600528181081131
 20
122.1571503468214956
 30
0.0
 11
281.6600528181081131
 21
122.0768353842132967
 31
0.0
  0
LINE
  5
100AF
  8
0
 10
281.6679268338082238
 20
122.0768353842132967
 30
0.0
 11
281.6679268338082238
 21
122.1571503468214956
 31
0.0
  0
LINE
  5
100B0
  8
0
 10
281.6806618905080768
 20
122.1571503468214956
 30
0.0
 11
281.6806618905080768
 21
122.0768353842132967
 31
0.0
  0
LINE
  5
100B1
  8
0
 10
281.6885251152082219
 20
122.0768353842132967
 30
0.0
 11
281.6885251152082219
 21
122.1571503468214956
 31
0.0
  0
LINE
  5
100B2
  8
0
 10
281.7012252660081231
 20
122.1571503468214956
 30
0.0
 11
281.7012252660081231
 21
122.0768353842132967
 31
0.0
  0
LINE
  5
100B3
  8
0
 10
281.7086466754079765
 20
122.0768353842132967
 30
0.0
 11
281.7086466754079765
 21
122.1571503468214956
 31
0.0
  0
LINE
  5
100B4
  8
0
 10
281.7090561471080719
 20
122.0768353842132967
 30
0.0
 11
281.7090561471080719
 21
122.1571503468214956
 31
0.0
  0
LINE
  5
100B5
  8
0
 10
281.7216865817081271
 20
122.1571503468214956
 30
0.0
 11
281.7216865817081271
 21
122.0768353842132967
 31
0.0
  0
LINE
  5
100B6
  8
0
 10
281.7288508511080067
 20
122.0768353842132967
 30
0.0
 11
281.7288508511080067
 21
122.1571503468214956
 31
0.0
  0
LINE
  5
100B7
  8
0
 10
281.7294636553079954
 20
122.0768353842132967
 30
0.0
 11
281.7294636553079954
 21
122.1571503468214956
 31
0.0
  0
LINE
  5
100B8
  8
0
 10
281.7419897547080723
 20
122.1571503468214956
 30
0.0
 11
281.7419897547080723
 21
122.0768353842132967
 31
0.0
  0
LINE
  5
100B9
  8
0
 10
281.7488772472080996
 20
122.0768353842132967
 30
0.0
 11
281.7488772472080996
 21
122.1571503468214956
 31
0.0
  0
LINE
  5
100BA
  8
0
 10
281.7496917043080771
 20
122.0768353842132967
 30
0.0
 11
281.7496917043080771
 21
122.1571503468214956
 31
0.0
  0
LINE
  5
100BB
  8
0
 10
281.7620791352080118
 20
122.1571503468214956
 30
0.0
 11
281.7620791352080118
 21
122.0768353842132967
 31
0.0
  0
LINE
  5
100BC
  8
0
 10
281.7686709728080814
 20
122.0768353842132967
 30
0.0
 11
281.7686709728080814
 21
122.1571503468214956
 31
0.0
  0
LINE
  5
100BD
  8
0
 10
281.7695695947081163
 20
122.1571503468214956
 30
0.0
 11
281.7695695947081163
 21
122.0768353842132967
 31
0.0
  0
LINE
  5
100BE
  8
0
 10
281.7818996598081753
 20
122.1571503468214956
 30
0.0
 11
281.7818996598081753
 21
122.0768353842132967
 31
0.0
  0
LINE
  5
100BF
  8
0
 10
281.7881777746080729
 20
122.0768353842132967
 30
0.0
 11
281.7881777746080729
 21
122.1571503468214956
 31
0.0
  0
LINE
  5
100C0
  8
0
 10
281.7893882938079742
 20
122.0768353842132967
 30
0.0
 11
281.7893882938079742
 21
122.1571503468214956
 31
0.0
  0
LINE
  5
100C1
  8
0
 10
281.8013970017080965
 20
122.1571503468214956
 30
0.0
 11
281.8013970017080965
 21
122.0768353842132967
 31
0.0
  0
LINE
  5
100C2
  8
0
 10
281.8073441859082209
 20
122.0768353842132967
 30
0.0
 11
281.8073441859082209
 21
122.1571503468214956
 31
0.0
  0
LINE
  5
100C3
  8
0
 10
281.8087480287081235
 20
122.0768353842132967
 30
0.0
 11
281.8087480287081235
 21
122.1571503468214956
 31
0.0
  0
LINE
  5
100C4
  8
0
 10
281.8205177201082279
 20
122.1571503468214956
 30
0.0
 11
281.8205177201082279
 21
122.0768353842132967
 31
0.0
  0
LINE
  5
100C5
  8
0
 10
281.826117672908083
 20
122.0768353842132967
 30
0.0
 11
281.826117672908083
 21
122.1571503468214956
 31
0.0
  0
LINE
  5
100C6
  8
0
 10
281.8277109914080825
 20
122.0768353842132967
 30
0.0
 11
281.8277109914080825
 21
122.1571503468214956
 31
0.0
  0
LINE
  5
100C7
  8
0
 10
281.8392094064080879
 20
122.1571503468214956
 30
0.0
 11
281.8392094064080879
 21
122.0768353842132967
 31
0.0
  0
LINE
  5
100C8
  8
0
 10
281.8444467787080043
 20
122.0768353842132967
 30
0.0
 11
281.8444467787080043
 21
122.1571503468214956
 31
0.0
  0
LINE
  5
100C9
  8
0
 10
281.8462252058080821
 20
122.0768353842132967
 30
0.0
 11
281.8462252058080821
 21
122.1571503468214956
 31
0.0
  0
LINE
  5
100CA
  8
0
 10
281.8574208280081166
 20
122.1571503468214956
 30
0.0
 11
281.8574208280081166
 21
122.0768353842132967
 31
0.0
  0
LINE
  5
100CB
  8
0
 10
281.8622812645079989
 20
122.0768353842132967
 30
0.0
 11
281.8622812645079989
 21
122.1571503468214956
 31
0.0
  0
LINE
  5
100CC
  8
0
 10
281.8642399257082047
 20
122.0768353842132967
 30
0.0
 11
281.8642399257082047
 21
122.1571503468214956
 31
0.0
  0
LINE
  5
100CD
  8
0
 10
281.8751020687082018
 20
122.1571503468214956
 30
0.0
 11
281.8751020687082018
 21
122.0768353842132967
 31
0.0
  0
LINE
  5
100CE
  8
0
 10
281.8795722473082037
 20
122.0768353842132967
 30
0.0
 11
281.8795722473082037
 21
122.1571503468214956
 31
0.0
  0
LINE
  5
100CF
  8
0
 10
281.8817057740080827
 20
122.0768353842132967
 30
0.0
 11
281.8817057740080827
 21
122.1571503468214956
 31
0.0
  0
LINE
  5
100D0
  8
0
 10
281.8922046654080873
 20
122.1571503468214956
 30
0.0
 11
281.8922046654080873
 21
122.0768353842132967
 31
0.0
  0
LINE
  5
100D1
  8
0
 10
281.8962723337079979
 20
122.0768353842132967
 30
0.0
 11
281.8962723337079979
 21
122.1571503468214956
 31
0.0
  0
LINE
  5
100D2
  8
0
 10
281.898574878008219
 20
122.0768353842132967
 30
0.0
 11
281.898574878008219
 21
122.1571503468214956
 31
0.0
  0
LINE
  5
100D3
  8
0
 10
281.9086817411081825
 20
122.1571503468214956
 30
0.0
 11
281.9086817411081825
 21
122.0768353842132967
 31
0.0
  0
LINE
  5
100D4
  8
0
 10
281.9123357499080953
 20
122.0768353842132967
 30
0.0
 11
281.9123357499080953
 21
122.1571503468214956
 31
0.0
  0
LINE
  5
100D5
  8
0
 10
281.9148010007081098
 20
122.0768353842132967
 30
0.0
 11
281.9148010007081098
 21
122.1571503468214956
 31
0.0
  0
LINE
  5
100D6
  8
0
 10
281.9244881333081025
 20
122.1571503468214956
 30
0.0
 11
281.9244881333081025
 21
122.0768353842132967
 31
0.0
  0
LINE
  5
100D7
  8
0
 10
281.9277184671080931
 20
122.0768353842132967
 30
0.0
 11
281.9277184671080931
 21
122.1571503468214956
 31
0.0
  0
LINE
  5
100D8
  8
0
 10
281.9303396674080773
 20
122.0768353842132967
 30
0.0
 11
281.9303396674080773
 21
122.1571503468214956
 31
0.0
  0
LINE
  5
100D9
  8
0
 10
281.9395805177081797
 20
122.1571503468214956
 30
0.0
 11
281.9395805177081797
 21
122.0768353842132967
 31
0.0
  0
LINE
  5
100DA
  8
0
 10
281.9423783225080911
 20
122.0768353842132967
 30
0.0
 11
281.9423783225080911
 21
122.1571503468214956
 31
0.0
  0
LINE
  5
100DB
  8
0
 10
281.9451482877080934
 20
122.0768353842132967
 30
0.0
 11
281.9451482877080934
 21
122.1571503468214956
 31
0.0
  0
LINE
  5
100DC
  8
0
 10
281.9539175272080911
 20
122.1571503468214956
 30
0.0
 11
281.9539175272080911
 21
122.0768353842132967
 31
0.0
  0
LINE
  5
100DD
  8
0
 10
281.9562751343082141
 20
122.0768353842132967
 30
0.0
 11
281.9562751343082141
 21
122.1571503468214956
 31
0.0
  0
LINE
  5
100DE
  8
0
 10
281.959186272108127
 20
122.0768353842132967
 30
0.0
 11
281.959186272108127
 21
122.1571503468214956
 31
0.0
  0
LINE
  5
100DF
  8
0
 10
281.9674598516469928
 20
122.1571503468214956
 30
0.0
 11
281.9674598516469928
 21
122.0768353842132967
 31
0.0
  0
LINE
  5
100E0
  8
0
 10
281.9693707991469864
 20
122.0768353842132967
 30
0.0
 11
281.9693707991469864
 21
122.1571503468214956
 31
0.0
  0
LINE
  5
100E1
  8
0
 10
281.9724151437080764
 20
122.0768353842132967
 30
0.0
 11
281.9724151437080764
 21
122.1571503468214956
 31
0.0
  0
LINE
  5
100E2
  8
0
 10
281.9801703992470152
 20
122.0768353842132967
 30
0.0
 11
281.9801703992470152
 21
122.1571503468214956
 31
0.0
  0
LINE
  5
100E3
  8
0
 10
281.9816294491470217
 20
122.0768353842132967
 30
0.0
 11
281.9816294491470217
 21
122.1571503468214956
 31
0.0
  0
LINE
  5
100E4
  8
0
 10
281.984798629547015
 20
122.0768353842132967
 30
0.0
 11
281.984798629547015
 21
122.1571503468214956
 31
0.0
  0
LINE
  5
100E5
  8
0
 10
281.9920143177470209
 20
122.0768353842132967
 30
0.0
 11
281.9920143177470209
 21
122.1571503468214956
 31
0.0
  0
LINE
  5
100E6
  8
0
 10
281.9930174711469135
 20
122.0768353842132967
 30
0.0
 11
281.9930174711469135
 21
122.1571503468214956
 31
0.0
  0
LINE
  5
100E7
  8
0
 10
281.9963028140469987
 20
122.0768353842132967
 30
0.0
 11
281.9963028140469987
 21
122.1571503468214956
 31
0.0
  0
LINE
  5
100E8
  8
0
 10
282.002959143847022
 20
122.0768353842132967
 30
0.0
 11
282.002959143847022
 21
122.1571503468214956
 31
0.0
  0
LINE
  5
100E9
  8
0
 10
282.0035036510470263
 20
122.0768353842132967
 30
0.0
 11
282.0035036510470263
 21
122.1571503468214956
 31
0.0
  0
LINE
  5
100EA
  8
0
 10
282.0068373535469846
 20
122.0768353842132967
 30
0.0
 11
282.0068373535469846
 21
122.1571503468214956
 31
0.0
  0
LINE
  5
100EB
  8
0
 10
282.0129748786470145
 20
122.0768353842132967
 30
0.0
 11
282.0129748786470145
 21
122.1571503468214956
 31
0.0
  0
LINE
  5
100EC
  8
0
 10
282.0165496069470237
 20
122.0768353842132967
 30
0.0
 11
282.0165496069470237
 21
122.1571503468214956
 31
0.0
  0
LINE
  5
100ED
  8
0
 10
282.0220340695469758
 20
122.0768353842132967
 30
0.0
 11
282.0220340695469758
 21
122.1571503468214956
 31
0.0
  0
LINE
  5
100EE
  8
0
 10
282.0252367203469817
 20
122.0768353842132967
 30
0.0
 11
282.0252367203469817
 21
122.1571503468214956
 31
0.0
  0
LINE
  5
100EF
  8
0
 10
282.0301118861469831
 20
122.0768353842132967
 30
0.0
 11
282.0301118861469831
 21
122.1571503468214956
 31
0.0
  0
LINE
  5
100F0
  8
0
 10
282.032933681046984
 20
122.0768353842132967
 30
0.0
 11
282.032933681046984
 21
122.1571503468214956
 31
0.0
  0
LINE
  5
100F1
  8
0
 10
282.037186187546979
 20
122.0768353842132967
 30
0.0
 11
282.037186187546979
 21
122.1571503468214956
 31
0.0
  0
LINE
  5
100F2
  8
0
 10
282.0396193922470047
 20
122.0768353842132967
 30
0.0
 11
282.0396193922470047
 21
122.1571503468214956
 31
0.0
  0
LINE
  5
100F3
  8
0
 10
282.0432375835470111
 20
122.0768353842132967
 30
0.0
 11
282.0432375835470111
 21
122.1571503468214956
 31
0.0
  0
LINE
  5
100F4
  8
0
 10
282.0452755288470144
 20
122.0768353842132967
 30
0.0
 11
282.0452755288470144
 21
122.1571503468214956
 31
0.0
  0
LINE
  5
100F5
  8
0
 10
282.0482494878469879
 20
122.0768353842132967
 30
0.0
 11
282.0482494878469879
 21
122.1571503468214956
 31
0.0
  0
LINE
  5
100F6
  8
0
 10
282.0498865878469132
 20
122.0768353842132967
 30
0.0
 11
282.0498865878469132
 21
122.1571503468214956
 31
0.0
  0
LINE
  5
100F7
  8
0
 10
282.0522081630469984
 20
122.0768353842132967
 30
0.0
 11
282.0522081630469984
 21
122.1571503468214956
 31
0.0
  0
LINE
  5
100F8
  8
0
 10
282.0534399305469719
 20
122.0768353842132967
 30
0.0
 11
282.0534399305469719
 21
122.1571503468214956
 31
0.0
  0
LINE
  5
100F9
  8
0
 10
282.0551027588469992
 20
122.0768353842132967
 30
0.0
 11
282.0551027588469992
 21
122.1571503468214956
 31
0.0
  0
LINE
  5
100FA
  8
0
 10
282.0559258175470063
 20
122.0768353842132967
 30
0.0
 11
282.0559258175470063
 21
122.1571503468214956
 31
0.0
  0
LINE
  5
100FB
  8
0
 10
282.0569253411470072
 20
122.0768353842132967
 30
0.0
 11
282.0569253411470072
 21
122.1571503468214956
 31
0.0
  0
LINE
  5
100FC
  8
0
 10
282.0573374352470069
 20
122.0768353842132967
 30
0.0
 11
282.0573374352470069
 21
122.1571503468214956
 31
0.0
  0
LINE
  5
100FD
  8
0
 10
282.0576709144469874
 20
122.0768353842132967
 30
0.0
 11
282.0576709144469874
 21
122.1571503468214956
 31
0.0
  0
LINE
  5
100FE
  8
0
 10
281.3293443125469935
 20
122.0768353842132967
 30
0.0
 11
281.3293443125469935
 21
122.0571503468215013
 31
0.0
  0
LINE
  5
100FF
  8
0
 10
281.3293443125469935
 20
122.0571503468215013
 30
0.0
 11
281.9986353125469805
 21
122.0571503468215013
 31
0.0
  0
LINE
  5
10100
  8
0
 10
281.9986353125469805
 20
122.0571503468215013
 30
0.0
 11
281.9986353125469805
 21
122.0768353842132967
 31
0.0
  0
LINE
  5
10101
  8
0
 10
282.6679268204470077
 20
124.1250254910215034
 30
0.0
 11
285.187752463646973
 21
126.6448511342214971
 31
0.0
  0
LINE
  5
10102
  8
0
 10
282.6679268204470077
 20
126.6448511342214971
 30
0.0
 11
302.6679269238470056
 21
126.6448511342214971
 31
0.0
  0
LINE
  5
10103
  8
0
 10
282.6679268204470077
 20
128.2196542839214999
 30
0.0
 11
302.6679269238470056
 21
128.2196542839214999
 31
0.0
  0
LINE
  5
10104
  8
0
 10
282.7188793654469805
 20
128.2196542839214999
 30
0.0
 11
282.7188793654469805
 21
126.6448511342214971
 31
0.0
  0
LINE
  5
10105
  8
0
 10
282.7663520173470033
 20
128.3185676697214888
 30
0.0
 11
292.6088717023470167
 21
128.3185676697214888
 31
0.0
  0
LINE
  5
10106
  8
0
 10
292.6088717023470167
 20
128.3185676697214888
 30
0.0
 11
292.6088717023470167
 21
145.3658117642214904
 31
0.0
  0
LINE
  5
10107
  8
0
 10
292.6088717023470167
 20
145.3658117642214904
 30
0.0
 11
282.7663520173470033
 21
145.3658117642214904
 31
0.0
  0
LINE
  5
10108
  8
0
 10
282.7663520173470033
 20
145.3658117642214904
 30
0.0
 11
282.7663520173470033
 21
128.3185676697214888
 31
0.0
  0
LINE
  5
10109
  8
0
 10
282.6679268204470077
 20
146.2122684571214961
 30
0.0
 11
302.6679269238470056
 21
146.2122684571214961
 31
0.0
  0
LINE
  5
1010A
  8
0
 10
302.6679269238470056
 20
145.4642369610214985
 30
0.0
 11
282.6679268204470077
 21
145.4642369610214985
 31
0.0
  0
LINE
  5
1010B
  8
0
 10
282.7072968992470123
 20
146.2122684571214961
 30
0.0
 11
282.7072968992470123
 21
145.4642369610214985
 31
0.0
  0
LINE
  5
1010C
  8
0
 10
302.56950172694701
 20
154.9721109768215115
 30
0.0
 11
282.7663520173470033
 21
154.9721109768215115
 31
0.0
  0
LINE
  5
1010D
  8
0
 10
282.7663520173470033
 20
154.9721109768215115
 30
0.0
 11
282.7663520173470033
 21
146.3106936539215042
 31
0.0
  0
LINE
  5
1010E
  8
0
 10
282.7663520173470033
 20
146.3106936539215042
 30
0.0
 11
302.56950172694701
 21
146.3106936539215042
 31
0.0
  0
LINE
  5
1010F
  8
0
 10
288.2981630409469744
 20
151.0348117642215016
 30
0.0
 11
297.0576905999470227
 21
151.0348117642215016
 31
0.0
  0
LINE
  5
10110
  8
0
 10
297.0576905999470227
 20
150.2474101894214868
 30
0.0
 11
288.2981630409469744
 21
150.2474101894214868
 31
0.0
  0
ARC
  5
10111
  8
0
 10
288.2981630409469744
 20
150.2674101894214971
 30
0.0
 40
0.02
 50
180.0
 51
270.0
  0
LINE
  5
10112
  8
0
 10
288.2781630409469926
 20
150.2674101894214971
 30
0.0
 11
288.2781630409469926
 21
151.0148117642214913
 31
0.0
  0
ARC
  5
10113
  8
0
 10
288.2981630409469744
 20
151.0148117642214913
 30
0.0
 40
0.02
 50
90.0
 51
180.0
  0
LINE
  5
10114
  8
0
 10
282.6679268204470077
 20
155.0705361736214911
 30
0.0
 11
302.6679269238470056
 21
155.0705361736214911
 31
0.0
  0
LINE
  5
10115
  8
0
 10
282.7079268204469145
 20
156.6453393232214921
 30
0.0
 11
282.7079268204469145
 21
155.0705361736214911
 31
0.0
  0
LINE
  5
10116
  8
0
 10
284.3951940640263842
 20
155.0705361736214911
 30
0.0
 11
284.4375391427926729
 21
154.9721109768215115
 31
0.0
  0
LINE
  5
10117
  8
0
 10
290.6994228834470277
 20
155.0705361736214911
 30
0.0
 11
290.6994228834470277
 21
154.9721109768215115
 31
0.0
  0
LINE
  5
10118
  8
0
 10
282.6888499015469165
 20
152.1000155771714901
 30
0.0
 11
282.6888498921467772
 21
152.0999260507715007
 31
0.0
  0
LINE
  5
10119
  8
0
 10
282.6733001747472258
 20
152.9019087546215019
 30
0.0
 11
282.6733001747469984
 21
151.7480509185214999
 31
0.0
  0
ARC
  5
1011A
  8
0
 10
282.6425915133469857
 20
152.3025877610714929
 30
0.0
 40
0.2078740157
 50
282.8577248726061839
 51
306.5385160655008008
  0
ARC
  5
1011B
  8
0
 10
282.6425915133469857
 20
152.3473719138715126
 30
0.0
 40
0.2078740157
 50
53.4614839344991495
 51
77.1422751273938019
  0
ARC
  5
1011C
  8
0
 10
282.6933001747469802
 20
152.56953221347149
 30
0.0
 40
0.02
 50
180.0
 51
257.1423612970027079
  0
ARC
  5
1011D
  8
0
 10
282.6933001747469802
 20
152.080427461471487
 30
0.0
 40
0.02
 50
102.8576387029972068
 51
180.0
  0
ARC
  5
1011E
  8
0
 10
282.6633001747470075
 20
152.9019087563214896
 30
0.0
 40
0.0099999999999875
 50
359.9999902596454149
 51
62.4408185552748876
  0
ARC
  5
1011F
  8
0
 10
282.6633001747476897
 20
151.748050918520903
 30
0.0
 40
0.0099999999990867
 50
297.5591814403642843
 51
0.0000000036436434
  0
LINE
  5
10120
  8
0
 10
285.3277299700424123
 20
146.2122684571214961
 30
0.0
 11
285.3277299700844196
 21
146.2581361844214882
 31
0.0
  0
ARC
  5
10121
  8
0
 10
285.332729776952192
 20
146.2581361844169123
 30
0.0
 40
0.0049998068677759
 50
109.5229742572690981
 51
179.9999999475519132
  0
ARC
  5
10122
  8
0
 10
285.327709928813988
 20
146.2722937544810122
 30
0.0
 40
0.0100213670360832
 50
289.5229742572727218
 51
356.8615605392661791
  0
ARC
  5
10123
  8
0
 10
310.1094516685103031
 20
144.9134872728542121
 30
0.0
 40
24.8089447417186904
 50
176.8415247883060886
 51
176.8615605392662076
  0
ARC
  5
10124
  8
0
 10
285.3987396799229828
 20
146.2770663555033934
 30
0.0
 40
0.0606390442057716
 50
146.3203693702922976
 51
176.841524788304298
  0
ARC
  5
10125
  8
0
 10
286.0039312887848837
 20
146.2782135174259963
 30
0.0
 40
0.1260262112477246
 50
165.0648709129494875
 51
179.1209780121288873
  0
ARC
  5
10126
  8
0
 10
429.2674094105822178
 20
143.4180506787151899
 30
0.0
 40
143.4180507971611007
 50
178.8565112928075109
 51
178.8599730630986926
  0
ARC
  5
10127
  8
0
 10
285.8557658914348849
 20
146.270516452135098
 30
0.0
 40
0.0220026114695956
 50
325.7594030829142184
 51
2.5188326816200961
  0
LINE
  5
10128
  8
0
 10
285.873955056346972
 20
146.2122684571214961
 30
0.0
 11
285.873955056547004
 21
146.2581362589214962
 31
0.0
  0
ARC
  5
10129
  8
0
 10
285.868506784344504
 20
146.2574065685309108
 30
0.0
 40
0.0054969189605103
 50
7.6282641133595162
 51
81.9009155125137056
  0
LINE
  5
1012A
  8
0
 10
285.8692812200404205
 20
146.2628486607214882
 30
0.0
 11
285.3310589174470238
 21
146.2628485402215119
 31
0.0
  0
LINE
  5
1012B
  8
0
 10
286.094197351646983
 20
146.2122684571214961
 30
0.0
 11
286.094197351646983
 21
146.3106936539215042
 31
0.0
  0
LINE
  5
1012C
  8
0
 10
286.0641973516470102
 20
146.3106936539215042
 30
0.0
 11
286.0641973516470102
 21
146.2122684571214961
 31
0.0
  0
LINE
  5
1012D
  8
0
 10
286.0641973516470102
 20
146.2408197595214858
 30
0.0
 11
286.094197351646983
 21
146.2408197595214858
 31
0.0
  0
LINE
  5
1012E
  8
0
 10
286.0277299700470053
 20
146.2848097381215098
 30
0.0
 11
286.0641973516470102
 21
146.2848097381215098
 31
0.0
  0
LINE
  5
1012F
  8
0
 10
286.0277299700470053
 20
146.3106936539215042
 30
0.0
 11
286.0277299700470053
 21
146.2122684571214961
 31
0.0
  0
LINE
  5
10130
  8
0
 10
286.0199376097011736
 20
146.2972684571215041
 30
0.0
 11
286.0199376097011736
 21
146.2972684571215041
 31
0.0
  0
LINE
  5
10131
  8
0
 10
286.0277299700470053
 20
146.2972684571215041
 30
0.0
 11
285.8994660491470086
 21
146.2972684571215041
 31
0.0
  0
LINE
  5
10132
  8
0
 10
285.8879283565034939
 20
146.2122684571214961
 30
0.0
 11
285.8879341793182789
 21
146.2422922185214986
 31
0.0
  0
ARC
  5
10133
  8
0
 10
285.7835332371608956
 20
146.2704943175594963
 30
0.0
 40
0.1081430308133828
 50
344.8833433553331815
 51
358.2906377959390056
  0
ARC
  5
10134
  8
0
 10
286.0140945184451766
 20
146.2694624202644889
 30
0.0
 40
0.122486024849896
 50
171.6411792587468881
 51
181.026333832259013
  0
ARC
  5
10135
  8
0
 10
285.9156049337790932
 20
146.2829610632365984
 30
0.0
 40
0.023100419036449
 50
152.0722437505930031
 51
169.2535079261558053
  0
ARC
  5
10136
  8
0
 10
285.9006079777162199
 20
146.2915110218758059
 30
0.0
 40
0.0058695878446662
 50
101.2184395783952056
 51
157.2556004483579102
  0
LINE
  5
10137
  8
0
 10
285.8879341793182789
 20
146.2422922185214986
 30
0.0
 11
286.0077299700470235
 21
146.2422774168215085
 31
0.0
  0
LINE
  5
10138
  8
0
 10
286.0077299700470235
 20
146.2122684571214961
 30
0.0
 11
286.0077299700470235
 21
146.2422774168215085
 31
0.0
  0
ARC
  5
10139
  8
0
 10
285.9674101010842264
 20
146.27239432453581
 30
0.0
 40
0.0503261359876927
 50
323.2421243388026255
 51
356.8759566243834911
  0
ARC
  5
1013A
  8
0
 10
287.3594137748364119
 20
146.201504070264491
 30
0.0
 40
1.3434818210750421
 50
176.7224636378890068
 51
177.0924462708759108
  0
ARC
  5
1013B
  8
0
 10
286.0380737068468875
 20
146.277245469521489
 30
0.0
 40
0.0199728577999689
 50
121.1908011139721992
 51
176.932026151330291
  0
LINE
  5
1013C
  8
0
 10
286.0179436273479041
 20
146.274997246521508
 30
0.0
 11
286.0277299700470053
 21
146.274997246521508
 31
0.0
  0
LINE
  5
1013D
  8
0
 10
285.9269463776785756
 20
146.2696509664214943
 30
0.0
 11
286.0176614090245266
 21
146.2696509664214943
 31
0.0
  0
LINE
  5
1013E
  8
0
 10
285.8916281442470222
 20
146.2672684571215029
 30
0.0
 11
285.9152299700469939
 21
146.2672684571215029
 31
0.0
  0
ARC
  5
1013F
  8
0
 10
285.9152299700469939
 20
146.2972684571957984
 30
0.0
 40
0.0300000000742955
 50
270.0000000000032969
 51
340.5287792651819814
  0
ARC
  5
10140
  8
0
 10
285.9576563770519897
 20
146.2822684570649017
 30
0.0
 40
0.015000000095553
 50
90.0
 51
160.5287792651803898
  0
LINE
  5
10141
  8
0
 10
287.3577299700576191
 20
146.2122684571214961
 30
0.0
 11
287.3577299700156118
 21
146.2581361844214882
 31
0.0
  0
ARC
  5
10142
  8
0
 10
287.3527301631478963
 20
146.2581361844169123
 30
0.0
 40
0.0049998068677759
 50
0.00000005244811
 51
70.4770257427309303
  0
ARC
  5
10143
  8
0
 10
287.3577500112859866
 20
146.2722937544810122
 30
0.0
 40
0.0100213670360832
 50
183.1384394607337924
 51
250.4770257427273066
  0
ARC
  5
10144
  8
0
 10
262.5760082715897283
 20
144.9134872728542121
 30
0.0
 40
24.8089447417186904
 50
3.1384394607338328
 51
3.158475211693879
  0
ARC
  5
10145
  8
0
 10
287.2867202601771055
 20
146.2770663555033934
 30
0.0
 40
0.0606390442057716
 50
3.1584752116956838
 51
33.6796306297076526
  0
ARC
  5
10146
  8
0
 10
286.6815286513091223
 20
146.2782135174259963
 30
0.0
 40
0.1260262112477246
 50
0.8790219878711184
 51
14.9351290870504307
  0
ARC
  5
10147
  8
0
 10
143.418050529511703
 20
143.4180506787151899
 30
0.0
 40
143.4180507971611007
 50
1.140026936901265
 51
1.143488707192458
  0
ARC
  5
10148
  8
0
 10
286.8296940486591211
 20
146.270516452135098
 30
0.0
 40
0.0220026114695956
 50
177.481167318379903
 51
214.24059691708581
  0
LINE
  5
10149
  8
0
 10
286.8115048837469772
 20
146.2122684571214961
 30
0.0
 11
286.811504883547002
 21
146.2581362589214962
 31
0.0
  0
ARC
  5
1014A
  8
0
 10
286.8169531557493883
 20
146.2574065685309108
 30
0.0
 40
0.0054969189605103
 50
98.0990844874863086
 51
172.3717358866404936
  0
LINE
  5
1014B
  8
0
 10
286.8161787200535855
 20
146.2628486607214882
 30
0.0
 11
287.3544010226531213
 21
146.2628485402215119
 31
0.0
  0
LINE
  5
1014C
  8
0
 10
286.6241973516470125
 20
146.2122684571214961
 30
0.0
 11
286.6241973516470125
 21
146.3106936539215042
 31
0.0
  0
LINE
  5
1014D
  8
0
 10
286.6541973516469852
 20
146.3106936539215042
 30
0.0
 11
286.6541973516469852
 21
146.2122684571214961
 31
0.0
  0
LINE
  5
1014E
  8
0
 10
286.6541973516469852
 20
146.2408197595214858
 30
0.0
 11
286.6241973516470125
 21
146.2408197595214858
 31
0.0
  0
LINE
  5
1014F
  8
0
 10
286.6577299700470007
 20
146.2848097381215098
 30
0.0
 11
286.6541973516469852
 21
146.2848097381215098
 31
0.0
  0
LINE
  5
10150
  8
0
 10
286.6577299700470007
 20
146.3106936539215042
 30
0.0
 11
286.6577299700470007
 21
146.2122684571214961
 31
0.0
  0
LINE
  5
10151
  8
0
 10
286.6655223303927755
 20
146.2972684571215041
 30
0.0
 11
286.6655223303927755
 21
146.2972684571215041
 31
0.0
  0
LINE
  5
10152
  8
0
 10
286.6577299700470007
 20
146.2972684571215041
 30
0.0
 11
286.7859938909469975
 21
146.2972684571215041
 31
0.0
  0
LINE
  5
10153
  8
0
 10
286.7975315835903984
 20
146.2122684571214961
 30
0.0
 11
286.7975257607756134
 21
146.2422922185214986
 31
0.0
  0
ARC
  5
10154
  8
0
 10
286.9019267029329967
 20
146.2704943175594963
 30
0.0
 40
0.1081430308133828
 50
181.7093622040609944
 51
195.116656644665909
  0
ARC
  5
10155
  8
0
 10
286.6713654216487726
 20
146.2694624202644889
 30
0.0
 40
0.122486024849896
 50
358.973666167740987
 51
8.3588207412530728
  0
ARC
  5
10156
  8
0
 10
286.7698550063149128
 20
146.2829610632365984
 30
0.0
 40
0.023100419036449
 50
10.7464920738442107
 51
27.9277562494069684
  0
ARC
  5
10157
  8
0
 10
286.7848519623777861
 20
146.2915110218758059
 30
0.0
 40
0.0058695878446662
 50
22.7443995516421005
 51
78.7815604216047944
  0
LINE
  5
10158
  8
0
 10
286.7975257607756134
 20
146.2422922185214986
 30
0.0
 11
286.6777299700469825
 21
146.2422774168215085
 31
0.0
  0
LINE
  5
10159
  8
0
 10
286.6777299700469825
 20
146.2122684571214961
 30
0.0
 11
286.6777299700469825
 21
146.2422774168215085
 31
0.0
  0
ARC
  5
1015A
  8
0
 10
286.7180498390097796
 20
146.27239432453581
 30
0.0
 40
0.0503261359876927
 50
183.1240433756163952
 51
216.7578756611974029
  0
ARC
  5
1015B
  8
0
 10
285.3260461652577078
 20
146.201504070264491
 30
0.0
 40
1.3434818210750421
 50
2.90755372912413
 51
3.277536362110943
  0
ARC
  5
1015C
  8
0
 10
286.6473862332470048
 20
146.277245469521489
 30
0.0
 40
0.0199728577999689
 50
3.0679738486696562
 51
58.8091988860277866
  0
LINE
  5
1015D
  8
0
 10
286.6675163127461019
 20
146.274997246521508
 30
0.0
 11
286.6577299700470007
 21
146.274997246521508
 31
0.0
  0
LINE
  5
1015E
  8
0
 10
286.7585135624153736
 20
146.2696509664214943
 30
0.0
 11
286.6677985310694794
 21
146.2696509664214943
 31
0.0
  0
LINE
  5
1015F
  8
0
 10
286.7938317958469838
 20
146.2672684571215029
 30
0.0
 11
286.7702299700470121
 21
146.2672684571215029
 31
0.0
  0
ARC
  5
10160
  8
0
 10
286.7702299700470121
 20
146.2972684571957984
 30
0.0
 40
0.0300000000742955
 50
199.4712207348179902
 51
269.9999999999968168
  0
ARC
  5
10161
  8
0
 10
286.7278035630419026
 20
146.2822684570649017
 30
0.0
 40
0.015000000095553
 50
19.4712207348195392
 51
90.0
  0
LINE
  5
10162
  8
0
 10
291.8014701275467928
 20
141.4287015279714979
 30
0.0
 11
291.132808710248014
 21
141.4287015279714979
 31
0.0
  0
LINE
  5
10163
  8
0
 10
291.8014701275467928
 20
136.6649220003714902
 30
0.0
 11
291.132808710248014
 21
136.6649220003714902
 31
0.0
  0
LINE
  5
10164
  8
0
 10
291.1128087102479185
 20
141.4087015279714876
 30
0.0
 11
291.1128087102479185
 21
136.6849220003715004
 31
0.0
  0
LINE
  5
10165
  8
0
 10
291.821470127547002
 20
141.4087015279714876
 30
0.0
 11
291.821470127547002
 21
136.6849220003715004
 31
0.0
  0
ARC
  5
10166
  8
0
 10
291.132808710248014
 20
141.4087015279714876
 30
0.0
 40
0.02
 50
90.0
 51
179.9999999999967031
  0
ARC
  5
10167
  8
0
 10
291.8014701275467928
 20
141.4087015279714876
 30
0.0
 40
0.02
 50
359.9999999999968168
 51
90.0
  0
ARC
  5
10168
  8
0
 10
291.132808710248014
 20
136.6849220003715004
 30
0.0
 40
0.02
 50
180.0
 51
270.0
  0
ARC
  5
10169
  8
0
 10
291.8014701275467928
 20
136.6849220003715004
 30
0.0
 40
0.02
 50
270.0
 51
0.0
  0
LINE
  5
1016A
  8
0
 10
282.6679268204470077
 20
143.2662605831058897
 30
0.0
 11
282.7137945477469998
 21
143.2662605830639109
 31
0.0
  0
ARC
  5
1016B
  8
0
 10
282.7137945477423955
 20
143.2612607761961101
 30
0.0
 40
0.0049998068677759
 50
19.5229742572677587
 51
89.9999999475510748
  0
ARC
  5
1016C
  8
0
 10
282.7279521178065238
 20
143.2662806243343141
 30
0.0
 40
0.0100213670360832
 50
199.5229742572726934
 51
266.8615605392661791
  0
ARC
  5
1016D
  8
0
 10
281.3691456361797236
 20
118.484538884637999
 30
0.0
 40
24.8089447417186904
 50
86.8415247883060175
 51
86.8615605392662076
  0
ARC
  5
1016E
  8
0
 10
282.7327247188288766
 20
143.1952508732252056
 30
0.0
 40
0.0606390442057716
 50
56.3203693702914592
 51
86.8415247883060175
  0
ARC
  5
1016F
  8
0
 10
282.7338718807515079
 20
142.59005926436339
 30
0.0
 40
0.1260262112477246
 50
75.0648709129499139
 51
89.1209780121296831
  0
ARC
  5
10170
  8
0
 10
282.7261748154605812
 20
142.7382246617133887
 30
0.0
 40
0.0220026114695956
 50
235.7594030829129963
 51
272.5188326816194149
  0
LINE
  5
10171
  8
0
 10
282.6679268204470077
 20
142.7200354968013016
 30
0.0
 11
282.7137946222470077
 21
142.7200354966012981
 31
0.0
  0
ARC
  5
10172
  8
0
 10
282.7130649318564224
 20
142.7254837688037981
 30
0.0
 40
0.0054969189605103
 50
277.6282641133597053
 51
351.9009155125136772
  0
LINE
  5
10173
  8
0
 10
282.7185070240470282
 20
142.72470933310791
 30
0.0
 11
282.7185069035469951
 21
143.2629316357013067
 31
0.0
  0
LINE
  5
10174
  8
0
 10
282.6679268204470077
 20
142.4997932015012907
 30
0.0
 11
282.7663520172470157
 21
142.4997932015012907
 31
0.0
  0
LINE
  5
10175
  8
0
 10
282.7663520172470157
 20
142.5297932015012918
 30
0.0
 11
282.6679268204470077
 21
142.5297932015012918
 31
0.0
  0
LINE
  5
10176
  8
0
 10
282.6964781228469974
 20
142.5297932015012918
 30
0.0
 11
282.6964781228469974
 21
142.4997932015012907
 31
0.0
  0
LINE
  5
10177
  8
0
 10
282.7404681014469929
 20
142.5662605831012968
 30
0.0
 11
282.7404681014469929
 21
142.5297932015012918
 31
0.0
  0
LINE
  5
10178
  8
0
 10
282.7663520172470157
 20
142.5662605831012968
 30
0.0
 11
282.6679268204470077
 21
142.5662605831012968
 31
0.0
  0
LINE
  5
10179
  8
0
 10
282.7529268204469872
 20
142.5740529434471
 30
0.0
 11
282.7529268204469872
 21
142.5740529434471
 31
0.0
  0
LINE
  5
1017A
  8
0
 10
282.7529268204469872
 20
142.5662605831012968
 30
0.0
 11
282.7529268204469872
 21
142.6945245040012935
 31
0.0
  0
LINE
  5
1017B
  8
0
 10
282.6679268204470077
 20
142.7060621966448082
 30
0.0
 11
282.6979505818470102
 21
142.7060563738299095
 31
0.0
  0
ARC
  5
1017C
  8
0
 10
282.7261526808849794
 20
142.8104573159872928
 30
0.0
 40
0.1081430308133828
 50
254.8833433553348016
 51
268.290637795937414
  0
ARC
  5
1017D
  8
0
 10
282.7251207835900004
 20
142.579896034703097
 30
0.0
 40
0.122486024849896
 50
81.6411792587486644
 51
91.0263338322581887
  0
ARC
  5
1017E
  8
0
 10
282.7386194265620816
 20
142.6783856193692088
 30
0.0
 40
0.023100419036449
 50
62.0722437505933797
 51
79.2535079261562885
  0
ARC
  5
1017F
  8
0
 10
282.7471693852011754
 20
142.6933825754321106
 30
0.0
 40
0.0058695878446662
 50
11.2184395783953708
 51
67.2556004483574554
  0
LINE
  5
10180
  8
0
 10
282.6979505818470102
 20
142.7060563738299095
 30
0.0
 11
282.6979357801470201
 21
142.586260583101307
 31
0.0
  0
LINE
  5
10181
  8
0
 10
282.6679268204470077
 20
142.586260583101307
 30
0.0
 11
282.6979357801470201
 21
142.586260583101307
 31
0.0
  0
ARC
  5
10182
  8
0
 10
282.7280526878612932
 20
142.6265804520641041
 30
0.0
 40
0.0503261359876927
 50
233.2421243388008065
 51
266.8759566243834911
  0
ARC
  5
10183
  8
0
 10
282.6571624335899742
 20
141.2345767783118902
 30
0.0
 40
1.3434818210750421
 50
86.7224636378882536
 51
87.0924462708742055
  0
ARC
  5
10184
  8
0
 10
282.7329038328470006
 20
142.5559168463013009
 30
0.0
 40
0.0199728577999689
 50
31.19080111397178
 51
86.9320261513296231
  0
LINE
  5
10185
  8
0
 10
282.7306556098470196
 20
142.576046925800398
 30
0.0
 11
282.7306556098470196
 21
142.5662605831012968
 31
0.0
  0
LINE
  5
10186
  8
0
 10
282.7253093297470059
 20
142.6670441754696981
 30
0.0
 11
282.7253093297470059
 21
142.5763291441238039
 31
0.0
  0
LINE
  5
10187
  8
0
 10
282.7229268204470145
 20
142.7023624089013083
 30
0.0
 11
282.7229268204470145
 21
142.6787605831013082
 31
0.0
  0
ARC
  5
10188
  8
0
 10
282.7529268205212816
 20
142.6787605831013082
 30
0.0
 40
0.0300000000742955
 50
180.0000000000015916
 51
250.5287792651826919
  0
ARC
  5
10189
  8
0
 10
282.7379268203903848
 20
142.6363341760961987
 30
0.0
 40
0.015000000095553
 50
0.0
 51
70.5287792651794234
  0
LINE
  5
1018A
  8
0
 10
282.6679268204470077
 20
141.2362605830907114
 30
0.0
 11
282.7137945477469998
 21
141.236260583132605
 31
0.0
  0
ARC
  5
1018B
  8
0
 10
282.7137945477423955
 20
141.2412603900004058
 30
0.0
 40
0.0049998068677759
 50
270.000000052448911
 51
340.4770257427322235
  0
ARC
  5
1018C
  8
0
 10
282.7279521178065238
 20
141.2362405418622018
 30
0.0
 40
0.0100213670360832
 50
93.1384394607337924
 51
160.4770257427273066
  0
ARC
  5
1018D
  8
0
 10
281.3691456361797236
 20
166.0179822815584885
 30
0.0
 40
24.8089447417186904
 50
273.1384394607338209
 51
273.1584752116939967
  0
ARC
  5
1018E
  8
0
 10
282.7327247188288766
 20
141.3072702929713103
 30
0.0
 40
0.0606390442057716
 50
273.1584752116939967
 51
303.6796306297085835
  0
ARC
  5
1018F
  8
0
 10
282.7338718807515079
 20
141.9124619018392082
 30
0.0
 40
0.1260262112477246
 50
270.8790219878703169
 51
284.9351290870500861
  0
ARC
  5
10190
  8
0
 10
282.7261748154605812
 20
141.7642965044892094
 30
0.0
 40
0.0220026114695956
 50
87.4811673183806846
 51
124.2405969170870037
  0
LINE
  5
10191
  8
0
 10
282.6679268204470077
 20
141.7824856694012965
 30
0.0
 11
282.7137946222470077
 21
141.7824856696013001
 31
0.0
  0
ARC
  5
10192
  8
0
 10
282.7130649318564224
 20
141.7770373973988001
 30
0.0
 40
0.0054969189605103
 50
8.0990844874863033
 51
82.3717358866403657
  0
LINE
  5
10193
  8
0
 10
282.7185070240470282
 20
141.7778118330946882
 30
0.0
 11
282.7185069035469951
 21
141.2395895304952091
 31
0.0
  0
LINE
  5
10194
  8
0
 10
282.6679268204470077
 20
141.9697932015012896
 30
0.0
 11
282.7663520172470157
 21
141.9697932015012896
 31
0.0
  0
LINE
  5
10195
  8
0
 10
282.7663520172470157
 20
141.9397932015012884
 30
0.0
 11
282.6679268204470077
 21
141.9397932015012884
 31
0.0
  0
LINE
  5
10196
  8
0
 10
282.6964781228469974
 20
141.9397932015012884
 30
0.0
 11
282.6964781228469974
 21
141.9697932015012896
 31
0.0
  0
LINE
  5
10197
  8
0
 10
282.7404681014469929
 20
141.9362605831013013
 30
0.0
 11
282.7404681014469929
 21
141.9397932015012884
 31
0.0
  0
LINE
  5
10198
  8
0
 10
282.7663520172470157
 20
141.9362605831013013
 30
0.0
 11
282.6679268204470077
 21
141.9362605831013013
 31
0.0
  0
LINE
  5
10199
  8
0
 10
282.7529268204469872
 20
141.9284682227554981
 30
0.0
 11
282.7529268204469872
 21
141.9284682227554981
 31
0.0
  0
LINE
  5
1019A
  8
0
 10
282.7529268204469872
 20
141.9362605831013013
 30
0.0
 11
282.7529268204469872
 21
141.8079966622013046
 31
0.0
  0
LINE
  5
1019B
  8
0
 10
282.6679268204470077
 20
141.7964589695577899
 30
0.0
 11
282.6979505818470102
 21
141.7964647923726886
 31
0.0
  0
ARC
  5
1019C
  8
0
 10
282.7261526808849794
 20
141.6920638502153054
 30
0.0
 40
0.1081430308133828
 50
91.7093622040593601
 51
105.1166566446651984
  0
ARC
  5
1019D
  8
0
 10
282.7251207835900004
 20
141.9226251314995011
 30
0.0
 40
0.122486024849896
 50
268.9736661677417828
 51
278.3588207412512929
  0
ARC
  5
1019E
  8
0
 10
282.7386194265620816
 20
141.8241355468333893
 30
0.0
 40
0.023100419036449
 50
280.7464920738436831
 51
297.9277562494066274
  0
ARC
  5
1019F
  8
0
 10
282.7471693852011754
 20
141.8091385907704876
 30
0.0
 40
0.0058695878446662
 50
292.744399551642573
 51
348.7815604216045813
  0
LINE
  5
101A0
  8
0
 10
282.6979505818470102
 20
141.7964647923726886
 30
0.0
 11
282.6979357801470201
 21
141.9162605831012911
 31
0.0
  0
LINE
  5
101A1
  8
0
 10
282.6679268204470077
 20
141.9162605831012911
 30
0.0
 11
282.6979357801470201
 21
141.9162605831012911
 31
0.0
  0
ARC
  5
101A2
  8
0
 10
282.7280526878612932
 20
141.8759407141384941
 30
0.0
 40
0.0503261359876927
 50
93.1240433756165658
 51
126.7578756611991935
  0
ARC
  5
101A3
  8
0
 10
282.6571624335899742
 20
143.2679443878905943
 30
0.0
 40
1.3434818210750421
 50
272.9075537291225828
 51
273.2775363621116753
  0
ARC
  5
101A4
  8
0
 10
282.7329038328470006
 20
141.946604319901212
 30
0.0
 40
0.0199728577999689
 50
273.0679738486704196
 51
328.8091988860282981
  0
LINE
  5
101A5
  8
0
 10
282.7306556098470196
 20
141.9264742404020865
 30
0.0
 11
282.7306556098470196
 21
141.9362605831013013
 31
0.0
  0
LINE
  5
101A6
  8
0
 10
282.7253093297470059
 20
141.8354769907329
 30
0.0
 11
282.7253093297470059
 21
141.926192022078709
 31
0.0
  0
LINE
  5
101A7
  8
0
 10
282.7229268204470145
 20
141.8001587573012898
 30
0.0
 11
282.7229268204470145
 21
141.82376058310129
 31
0.0
  0
ARC
  5
101A8
  8
0
 10
282.7529268205212816
 20
141.82376058310129
 30
0.0
 40
0.0300000000742955
 50
109.4712207348171944
 51
179.9999999999974989
  0
ARC
  5
101A9
  8
0
 10
282.7379268203903848
 20
141.8661869901063994
 30
0.0
 40
0.015000000095553
 50
289.4712207348205766
 51
0.0
  0
LINE
  5
101AA
  8
0
 10
290.6994228834470277
 20
145.4642369610214985
 30
0.0
 11
290.6994228834470277
 21
145.3658117642214904
 31
0.0
  0
LINE
  5
101AB
  8
0
 10
292.6088717023470167
 20
144.8736857799214874
 30
0.0
 11
292.7269820419469966
 21
144.8736857799214874
 31
0.0
  0
LINE
  5
101AC
  8
0
 10
292.6088717023470167
 20
137.0382054650214911
 30
0.0
 11
292.7269820419469966
 21
137.0382054650214911
 31
0.0
  0
LINE
  5
101AD
  8
0
 10
292.6088717023470167
 20
136.4476542838214925
 30
0.0
 11
292.7269820419469966
 21
136.4476542838214925
 31
0.0
  0
LINE
  5
101AE
  8
0
 10
292.6088717023470167
 20
135.4634023153215026
 30
0.0
 11
292.7269820419469966
 21
135.4634023153215026
 31
0.0
  0
LINE
  5
101AF
  8
0
 10
282.7271417810470098
 20
141.7862778577012932
 30
0.0
 11
282.7358052773470263
 21
141.7864505218012994
 31
0.0
  0
LINE
  5
101B0
  8
0
 10
282.7271417810470098
 20
142.7162433085013049
 30
0.0
 11
282.7358052773470263
 21
142.7160706444012988
 31
0.0
  0
LINE
  5
101B1
  8
0
 10
282.6679268204470077
 20
132.517874756357287
 30
0.0
 11
282.7137945477469998
 21
132.5178747563153081
 31
0.0
  0
ARC
  5
101B2
  8
0
 10
282.7137945477423955
 20
132.5128749494475926
 30
0.0
 40
0.0049998068677759
 50
19.5229742572677587
 51
89.9999999475510748
  0
ARC
  5
101B3
  8
0
 10
282.7279521178065238
 20
132.5178947975857966
 30
0.0
 40
0.0100213670360832
 50
199.5229742572726934
 51
266.8615605392661791
  0
ARC
  5
101B4
  8
0
 10
281.3691456361797236
 20
107.7361530578893962
 30
0.0
 40
24.8089447417186904
 50
86.8415247883060175
 51
86.8615605392662076
  0
ARC
  5
101B5
  8
0
 10
282.7327247188288766
 20
132.4468650464766881
 30
0.0
 40
0.0606390442057716
 50
56.3203693702914592
 51
86.8415247883060175
  0
ARC
  5
101B6
  8
0
 10
282.7338718807515079
 20
131.8416734376149009
 30
0.0
 40
0.1260262112477246
 50
75.0648709129499139
 51
89.1209780121296831
  0
ARC
  5
101B7
  8
0
 10
282.7261748154605812
 20
131.9898388349648997
 30
0.0
 40
0.0220026114695956
 50
235.7594030829129963
 51
272.5188326816194149
  0
LINE
  5
101B8
  8
0
 10
282.6679268204470077
 20
131.9716496700528126
 30
0.0
 11
282.7137946222470077
 21
131.971649669852809
 31
0.0
  0
ARC
  5
101B9
  8
0
 10
282.7130649318564224
 20
131.9770979420551953
 30
0.0
 40
0.0054969189605103
 50
277.6282641133597053
 51
351.9009155125136772
  0
LINE
  5
101BA
  8
0
 10
282.7185070240470282
 20
131.9763235063593072
 30
0.0
 11
282.7185069035469951
 21
132.5145458089527892
 31
0.0
  0
LINE
  5
101BB
  8
0
 10
282.6679268204470077
 20
131.7514073747528016
 30
0.0
 11
282.7663520172470157
 21
131.7514073747528016
 31
0.0
  0
LINE
  5
101BC
  8
0
 10
282.7663520172470157
 20
131.7814073747528028
 30
0.0
 11
282.6679268204470077
 21
131.7814073747528028
 31
0.0
  0
LINE
  5
101BD
  8
0
 10
282.6964781228469974
 20
131.7814073747528028
 30
0.0
 11
282.6964781228469974
 21
131.7514073747528016
 31
0.0
  0
LINE
  5
101BE
  8
0
 10
282.7404681014469929
 20
131.8178747563528077
 30
0.0
 11
282.7404681014469929
 21
131.7814073747528028
 31
0.0
  0
LINE
  5
101BF
  8
0
 10
282.7663520172470157
 20
131.8178747563528077
 30
0.0
 11
282.6679268204470077
 21
131.8178747563528077
 31
0.0
  0
LINE
  5
101C0
  8
0
 10
282.7529268204469872
 20
131.8256671166986109
 30
0.0
 11
282.7529268204469872
 21
131.8256671166986109
 31
0.0
  0
LINE
  5
101C1
  8
0
 10
282.7529268204469872
 20
131.8178747563528077
 30
0.0
 11
282.7529268204469872
 21
131.9461386772528044
 31
0.0
  0
LINE
  5
101C2
  8
0
 10
282.6679268204470077
 20
131.9576763698962907
 30
0.0
 11
282.6979505818470102
 21
131.957670547081392
 31
0.0
  0
ARC
  5
101C3
  8
0
 10
282.7261526808849794
 20
132.0620714892388037
 30
0.0
 40
0.1081430308133828
 50
254.8833433553348016
 51
268.290637795937414
  0
ARC
  5
101C4
  8
0
 10
282.7251207835900004
 20
131.8315102079546079
 30
0.0
 40
0.122486024849896
 50
81.6411792587486644
 51
91.0263338322581887
  0
ARC
  5
101C5
  8
0
 10
282.7386194265620816
 20
131.9299997926206913
 30
0.0
 40
0.023100419036449
 50
62.0722437505933797
 51
79.2535079261562885
  0
ARC
  5
101C6
  8
0
 10
282.7471693852011754
 20
131.9449967486835078
 30
0.0
 40
0.0058695878446662
 50
11.2184395783953708
 51
67.2556004483574554
  0
LINE
  5
101C7
  8
0
 10
282.6979505818470102
 20
131.957670547081392
 30
0.0
 11
282.6979357801470201
 21
131.8378747563527895
 31
0.0
  0
LINE
  5
101C8
  8
0
 10
282.6679268204470077
 20
131.8378747563527895
 30
0.0
 11
282.6979357801470201
 21
131.8378747563527895
 31
0.0
  0
ARC
  5
101C9
  8
0
 10
282.7280526878612932
 20
131.8781946253155866
 30
0.0
 40
0.0503261359876927
 50
233.2421243388008065
 51
266.8759566243834911
  0
ARC
  5
101CA
  8
0
 10
282.6571624335899742
 20
130.4861909515634011
 30
0.0
 40
1.3434818210750421
 50
86.7224636378882536
 51
87.0924462708742055
  0
ARC
  5
101CB
  8
0
 10
282.7329038328470006
 20
131.8075310195528118
 30
0.0
 40
0.0199728577999689
 50
31.19080111397178
 51
86.9320261513296231
  0
LINE
  5
101CC
  8
0
 10
282.7306556098470196
 20
131.8276610990519089
 30
0.0
 11
282.7306556098470196
 21
131.8178747563528077
 31
0.0
  0
LINE
  5
101CD
  8
0
 10
282.7253093297470059
 20
131.918658348721209
 30
0.0
 11
282.7253093297470059
 21
131.8279433173752864
 31
0.0
  0
LINE
  5
101CE
  8
0
 10
282.7229268204470145
 20
131.9539765821527908
 30
0.0
 11
282.7229268204470145
 21
131.9303747563527907
 31
0.0
  0
ARC
  5
101CF
  8
0
 10
282.7529268205212816
 20
131.9303747563527907
 30
0.0
 40
0.0300000000742955
 50
180.0000000000015916
 51
250.5287792651826919
  0
ARC
  5
101D0
  8
0
 10
282.7379268203903848
 20
131.8879483493477096
 30
0.0
 40
0.015000000095553
 50
0.0
 51
70.5287792651794234
  0
LINE
  5
101D1
  8
0
 10
282.6679268204470077
 20
130.4878747563421086
 30
0.0
 11
282.7137945477469998
 21
130.4878747563840875
 31
0.0
  0
ARC
  5
101D2
  8
0
 10
282.7137945477423955
 20
130.4928745632518883
 30
0.0
 40
0.0049998068677759
 50
270.000000052448911
 51
340.4770257427322235
  0
ARC
  5
101D3
  8
0
 10
282.7279521178065238
 20
130.4878547151137127
 30
0.0
 40
0.0100213670360832
 50
93.1384394607337924
 51
160.4770257427273066
  0
ARC
  5
101D4
  8
0
 10
281.3691456361797236
 20
155.2695964548099994
 30
0.0
 40
24.8089447417186904
 50
273.1384394607338209
 51
273.1584752116939967
  0
ARC
  5
101D5
  8
0
 10
282.7327247188288766
 20
130.5588844662227075
 30
0.0
 40
0.0606390442057716
 50
273.1584752116939967
 51
303.6796306297085835
  0
ARC
  5
101D6
  8
0
 10
282.7338718807515079
 20
131.1640760750906907
 30
0.0
 40
0.1260262112477246
 50
270.8790219878703169
 51
284.9351290870500861
  0
ARC
  5
101D7
  8
0
 10
282.7261748154605812
 20
131.0159106777406066
 30
0.0
 40
0.0220026114695956
 50
87.4811673183806846
 51
124.2405969170870037
  0
LINE
  5
101D8
  8
0
 10
282.6679268204470077
 20
131.0340998426528074
 30
0.0
 11
282.7137946222470077
 21
131.034099842852811
 31
0.0
  0
ARC
  5
101D9
  8
0
 10
282.7130649318564224
 20
131.028651570650311
 30
0.0
 40
0.0054969189605103
 50
8.0990844874863033
 51
82.3717358866403657
  0
LINE
  5
101DA
  8
0
 10
282.7185070240470282
 20
131.0294260063461991
 30
0.0
 11
282.7185069035469951
 21
130.4912037037466916
 31
0.0
  0
LINE
  5
101DB
  8
0
 10
282.6679268204470077
 20
131.2214073747528005
 30
0.0
 11
282.7663520172470157
 21
131.2214073747528005
 31
0.0
  0
LINE
  5
101DC
  8
0
 10
282.7663520172470157
 20
131.1914073747527993
 30
0.0
 11
282.6679268204470077
 21
131.1914073747527993
 31
0.0
  0
LINE
  5
101DD
  8
0
 10
282.6964781228469974
 20
131.1914073747527993
 30
0.0
 11
282.6964781228469974
 21
131.2214073747528005
 31
0.0
  0
LINE
  5
101DE
  8
0
 10
282.7404681014469929
 20
131.1878747563528123
 30
0.0
 11
282.7404681014469929
 21
131.1914073747527993
 31
0.0
  0
LINE
  5
101DF
  8
0
 10
282.7663520172470157
 20
131.1878747563528123
 30
0.0
 11
282.6679268204470077
 21
131.1878747563528123
 31
0.0
  0
LINE
  5
101E0
  8
0
 10
282.7529268204469872
 20
131.180082396007009
 30
0.0
 11
282.7529268204469872
 21
131.180082396007009
 31
0.0
  0
LINE
  5
101E1
  8
0
 10
282.7529268204469872
 20
131.1878747563528123
 30
0.0
 11
282.7529268204469872
 21
131.0596108354527871
 31
0.0
  0
LINE
  5
101E2
  8
0
 10
282.6679268204470077
 20
131.0480731428093009
 30
0.0
 11
282.6979505818470102
 21
131.0480789656241996
 31
0.0
  0
ARC
  5
101E3
  8
0
 10
282.7261526808849794
 20
130.9436780234667026
 30
0.0
 40
0.1081430308133828
 50
91.7093622040593601
 51
105.1166566446651984
  0
ARC
  5
101E4
  8
0
 10
282.7251207835900004
 20
131.174239304751012
 30
0.0
 40
0.122486024849896
 50
268.9736661677417828
 51
278.3588207412512929
  0
ARC
  5
101E5
  8
0
 10
282.7386194265620816
 20
131.0757497200849002
 30
0.0
 40
0.023100419036449
 50
280.7464920738436831
 51
297.9277562494066274
  0
ARC
  5
101E6
  8
0
 10
282.7471693852011754
 20
131.0607527640219985
 30
0.0
 40
0.0058695878446662
 50
292.744399551642573
 51
348.7815604216045813
  0
LINE
  5
101E7
  8
0
 10
282.6979505818470102
 20
131.0480789656241996
 30
0.0
 11
282.6979357801470201
 21
131.167874756352802
 31
0.0
  0
LINE
  5
101E8
  8
0
 10
282.6679268204470077
 20
131.167874756352802
 30
0.0
 11
282.6979357801470201
 21
131.167874756352802
 31
0.0
  0
ARC
  5
101E9
  8
0
 10
282.7280526878612932
 20
131.127554887390005
 30
0.0
 40
0.0503261359876927
 50
93.1240433756165658
 51
126.7578756611991935
  0
ARC
  5
101EA
  8
0
 10
282.6571624335899742
 20
132.5195585611421052
 30
0.0
 40
1.3434818210750421
 50
272.9075537291225828
 51
273.2775363621116753
  0
ARC
  5
101EB
  8
0
 10
282.7329038328470006
 20
131.1982184931526945
 30
0.0
 40
0.0199728577999689
 50
273.0679738486704196
 51
328.8091988860282981
  0
LINE
  5
101EC
  8
0
 10
282.7306556098470196
 20
131.1780884136535974
 30
0.0
 11
282.7306556098470196
 21
131.1878747563528123
 31
0.0
  0
LINE
  5
101ED
  8
0
 10
282.7253093297470059
 20
131.087091163984411
 30
0.0
 11
282.7253093297470059
 21
131.1778061953301915
 31
0.0
  0
LINE
  5
101EE
  8
0
 10
282.7229268204470145
 20
131.0517729305528007
 30
0.0
 11
282.7229268204470145
 21
131.0753747563528009
 31
0.0
  0
ARC
  5
101EF
  8
0
 10
282.7529268205212816
 20
131.0753747563528009
 30
0.0
 40
0.0300000000742955
 50
109.4712207348171944
 51
179.9999999999974989
  0
ARC
  5
101F0
  8
0
 10
282.7379268203903848
 20
131.1178011633577967
 30
0.0
 40
0.015000000095553
 50
289.4712207348205766
 51
0.0
  0
LINE
  5
101F1
  8
0
 10
282.7271417810470098
 20
131.0378920309528041
 30
0.0
 11
282.7358052773470263
 21
131.0380646950528103
 31
0.0
  0
LINE
  5
101F2
  8
0
 10
282.7271417810470098
 20
131.9678574817527874
 30
0.0
 11
282.7358052773470263
 21
131.9676848176528097
 31
0.0
  0
LINE
  5
101F3
  8
0
 10
282.6679268204470077
 20
129.2432763311215069
 30
0.0
 11
282.7663520173470033
 21
129.2432763311215069
 31
0.0
  0
LINE
  5
101F4
  8
0
 10
304.6758009395470026
 20
156.6453393232214921
 30
0.0
 11
304.6758009395470026
 21
122.2752603468214971
 31
0.0
  0
LINE
  5
101F5
  8
0
 10
302.6679269238470056
 20
156.6453393232214921
 30
0.0
 11
302.6679269238470056
 21
122.2752603468214971
 31
0.0
  0
LINE
  5
101F6
  8
0
 10
304.6758009395470026
 20
122.2752603468214971
 30
0.0
 11
302.6679269238470056
 21
122.2752603468214971
 31
0.0
  0
LINE
  5
101F7
  8
0
 10
304.5576909395470011
 20
122.1571503468214956
 30
0.0
 11
302.7860369238470071
 21
122.1571503468214956
 31
0.0
  0
LINE
  5
101F8
  8
0
 10
304.6758009395470026
 20
122.2752603468214971
 30
0.0
 11
304.5576909395470011
 21
122.1571503468214956
 31
0.0
  0
LINE
  5
101F9
  8
0
 10
302.7860369238470071
 20
122.1571503468214956
 30
0.0
 11
302.6679269238470056
 21
122.2752603468214971
 31
0.0
  0
LINE
  5
101FA
  8
0
 10
304.065545020185823
 20
122.0768353842132967
 30
0.0
 11
303.2781828298470259
 21
122.0768353842132967
 31
0.0
  0
LINE
  5
101FB
  8
0
 10
304.065545020185823
 20
122.0768353842132967
 30
0.0
 11
304.065545020185823
 21
122.1571503468214956
 31
0.0
  0
LINE
  5
101FC
  8
0
 10
304.0652115409858993
 20
122.1571503468214956
 30
0.0
 11
304.0652115409858993
 21
122.0768353842132967
 31
0.0
  0
LINE
  5
101FD
  8
0
 10
304.064799446885786
 20
122.0768353842132967
 30
0.0
 11
304.064799446885786
 21
122.1571503468214956
 31
0.0
  0
LINE
  5
101FE
  8
0
 10
304.0637999232857283
 20
122.1571503468214956
 30
0.0
 11
304.0637999232857283
 21
122.0768353842132967
 31
0.0
  0
LINE
  5
101FF
  8
0
 10
304.0629768645858917
 20
122.0768353842132967
 30
0.0
 11
304.0629768645858917
 21
122.1571503468214956
 31
0.0
  0
LINE
  5
10200
  8
0
 10
304.0613140362858076
 20
122.1571503468214956
 30
0.0
 11
304.0613140362858076
 21
122.0768353842132967
 31
0.0
  0
LINE
  5
10201
  8
0
 10
304.0600822688858216
 20
122.0768353842132967
 30
0.0
 11
304.0600822688858216
 21
122.1571503468214956
 31
0.0
  0
LINE
  5
10202
  8
0
 10
304.0577606935859194
 20
122.1571503468214956
 30
0.0
 11
304.0577606935859194
 21
122.0768353842132967
 31
0.0
  0
LINE
  5
10203
  8
0
 10
304.0561235935858235
 20
122.0768353842132967
 30
0.0
 11
304.0561235935858235
 21
122.1571503468214956
 31
0.0
  0
LINE
  5
10204
  8
0
 10
304.0531496345857931
 20
122.1571503468214956
 30
0.0
 11
304.0531496345857931
 21
122.0768353842132967
 31
0.0
  0
LINE
  5
10205
  8
0
 10
304.0511437917858757
 20
122.1571503468214956
 30
0.0
 11
304.0511437917858757
 21
122.0768353842132967
 31
0.0
  0
LINE
  5
10206
  8
0
 10
304.0474934979857835
 20
122.1571503468214956
 30
0.0
 11
304.0474934979857835
 21
122.0768353842132967
 31
0.0
  0
LINE
  5
10207
  8
0
 10
304.0450602932859283
 20
122.0768353842132967
 30
0.0
 11
304.0450602932859283
 21
122.1571503468214956
 31
0.0
  0
LINE
  5
10208
  8
0
 10
304.0408077867858765
 20
122.1571503468214956
 30
0.0
 11
304.0408077867858765
 21
122.0768353842132967
 31
0.0
  0
LINE
  5
10209
  8
0
 10
304.0379859918858756
 20
122.0768353842132967
 30
0.0
 11
304.0379859918858756
 21
122.1571503468214956
 31
0.0
  0
LINE
  5
1020A
  8
0
 10
304.0331108260858173
 20
122.1571503468214956
 30
0.0
 11
304.0331108260858173
 21
122.0768353842132967
 31
0.0
  0
LINE
  5
1020B
  8
0
 10
304.0299081753859127
 20
122.0768353842132967
 30
0.0
 11
304.0299081753859127
 21
122.1571503468214956
 31
0.0
  0
LINE
  5
1020C
  8
0
 10
304.0244237127856763
 20
122.1571503468214956
 30
0.0
 11
304.0244237127856763
 21
122.0768353842132967
 31
0.0
  0
LINE
  5
1020D
  8
0
 10
304.020848984385907
 20
122.0768353842132967
 30
0.0
 11
304.020848984385907
 21
122.1571503468214956
 31
0.0
  0
LINE
  5
1020E
  8
0
 10
304.0147702574857931
 20
122.1571503468214956
 30
0.0
 11
304.0147702574857931
 21
122.0768353842132967
 31
0.0
  0
LINE
  5
1020F
  8
0
 10
304.0113777568857927
 20
122.0768353842132967
 30
0.0
 11
304.0113777568857927
 21
122.1571503468214956
 31
0.0
  0
LINE
  5
10210
  8
0
 10
304.0108332495860282
 20
122.0768353842132967
 30
0.0
 11
304.0108332495860282
 21
122.1571503468214956
 31
0.0
  0
LINE
  5
10211
  8
0
 10
304.0041769197858912
 20
122.1571503468214956
 30
0.0
 11
304.0041769197858912
 21
122.0768353842132967
 31
0.0
  0
LINE
  5
10212
  8
0
 10
304.0008915768859197
 20
122.0768353842132967
 30
0.0
 11
304.0008915768859197
 21
122.1571503468214956
 31
0.0
  0
LINE
  5
10213
  8
0
 10
303.9998884234859133
 20
122.0768353842132967
 30
0.0
 11
303.9998884234859133
 21
122.1571503468214956
 31
0.0
  0
LINE
  5
10214
  8
0
 10
303.9926727352856801
 20
122.1571503468214956
 30
0.0
 11
303.9926727352856801
 21
122.0768353842132967
 31
0.0
  0
LINE
  5
10215
  8
0
 10
303.9895035549859017
 20
122.0768353842132967
 30
0.0
 11
303.9895035549859017
 21
122.1571503468214956
 31
0.0
  0
LINE
  5
10216
  8
0
 10
303.988044504985794
 20
122.0768353842132967
 30
0.0
 11
303.988044504985794
 21
122.1571503468214956
 31
0.0
  0
LINE
  5
10217
  8
0
 10
303.9802892360859232
 20
122.1571503468214956
 30
0.0
 11
303.9802892360859232
 21
122.0768353842132967
 31
0.0
  0
LINE
  5
10218
  8
0
 10
303.9772449048858789
 20
122.0768353842132967
 30
0.0
 11
303.9772449048858789
 21
122.1571503468214956
 31
0.0
  0
LINE
  5
10219
  8
0
 10
303.975333957485816
 20
122.0768353842132967
 30
0.0
 11
303.975333957485816
 21
122.1571503468214956
 31
0.0
  0
LINE
  5
1021A
  8
0
 10
303.9670603645857909
 20
122.1571503468214956
 30
0.0
 11
303.9670603645857909
 21
122.0768353842132967
 31
0.0
  0
LINE
  5
1021B
  8
0
 10
303.9641492266858904
 20
122.0768353842132967
 30
0.0
 11
303.9641492266858904
 21
122.1571503468214956
 31
0.0
  0
LINE
  5
1021C
  8
0
 10
303.9617916195858243
 20
122.0768353842132967
 30
0.0
 11
303.9617916195858243
 21
122.1571503468214956
 31
0.0
  0
LINE
  5
1021D
  8
0
 10
303.9530223800858266
 20
122.1571503468214956
 30
0.0
 11
303.9530223800858266
 21
122.0768353842132967
 31
0.0
  0
LINE
  5
1021E
  8
0
 10
303.9502524148858242
 20
122.0768353842132967
 30
0.0
 11
303.9502524148858242
 21
122.1571503468214956
 31
0.0
  0
LINE
  5
1021F
  8
0
 10
303.9474546101859005
 20
122.0768353842132967
 30
0.0
 11
303.9474546101859005
 21
122.1571503468214956
 31
0.0
  0
LINE
  5
10220
  8
0
 10
303.9382137597858105
 20
122.1571503468214956
 30
0.0
 11
303.9382137597858105
 21
122.0768353842132967
 31
0.0
  0
LINE
  5
10221
  8
0
 10
303.9355925594858263
 20
122.0768353842132967
 30
0.0
 11
303.9355925594858263
 21
122.1571503468214956
 31
0.0
  0
LINE
  5
10222
  8
0
 10
303.9323622256857789
 20
122.0768353842132967
 30
0.0
 11
303.9323622256857789
 21
122.1571503468214956
 31
0.0
  0
LINE
  5
10223
  8
0
 10
303.9226750930857861
 20
122.1571503468214956
 30
0.0
 11
303.9226750930857861
 21
122.0768353842132967
 31
0.0
  0
LINE
  5
10224
  8
0
 10
303.9202098422857716
 20
122.0768353842132967
 30
0.0
 11
303.9202098422857716
 21
122.1571503468214956
 31
0.0
  0
LINE
  5
10225
  8
0
 10
303.9165558335859032
 20
122.0768353842132967
 30
0.0
 11
303.9165558335859032
 21
122.1571503468214956
 31
0.0
  0
LINE
  5
10226
  8
0
 10
303.9064489703858953
 20
122.1571503468214956
 30
0.0
 11
303.9064489703858953
 21
122.0768353842132967
 31
0.0
  0
LINE
  5
10227
  8
0
 10
303.9041464260856742
 20
122.0768353842132967
 30
0.0
 11
303.9041464260856742
 21
122.1571503468214956
 31
0.0
  0
LINE
  5
10228
  8
0
 10
303.900078757885808
 20
122.0768353842132967
 30
0.0
 11
303.900078757885808
 21
122.1571503468214956
 31
0.0
  0
LINE
  5
10229
  8
0
 10
303.8895798663858159
 20
122.1571503468214956
 30
0.0
 11
303.8895798663858159
 21
122.0768353842132967
 31
0.0
  0
LINE
  5
1022A
  8
0
 10
303.8874463397859245
 20
122.0768353842132967
 30
0.0
 11
303.8874463397859245
 21
122.1571503468214956
 31
0.0
  0
LINE
  5
1022B
  8
0
 10
303.8829761611859226
 20
122.0768353842132967
 30
0.0
 11
303.8829761611859226
 21
122.1571503468214956
 31
0.0
  0
LINE
  5
1022C
  8
0
 10
303.8721140180858811
 20
122.1571503468214956
 30
0.0
 11
303.8721140180858811
 21
122.0768353842132967
 31
0.0
  0
LINE
  5
1022D
  8
0
 10
303.8701553569858902
 20
122.0768353842132967
 30
0.0
 11
303.8701553569858902
 21
122.1571503468214956
 31
0.0
  0
LINE
  5
1022E
  8
0
 10
303.8653991183858807
 20
122.1571503468214956
 30
0.0
 11
303.8653991183858807
 21
122.0768353842132967
 31
0.0
  0
LINE
  5
1022F
  8
0
 10
303.8540992981858153
 20
122.1571503468214956
 30
0.0
 11
303.8540992981858153
 21
122.0768353842132967
 31
0.0
  0
LINE
  5
10230
  8
0
 10
303.852320871085908
 20
122.0768353842132967
 30
0.0
 11
303.852320871085908
 21
122.1571503468214956
 31
0.0
  0
LINE
  5
10231
  8
0
 10
303.8470834987858211
 20
122.0768353842132967
 30
0.0
 11
303.8470834987858211
 21
122.1571503468214956
 31
0.0
  0
LINE
  5
10232
  8
0
 10
303.8355850837858156
 20
122.1571503468214956
 30
0.0
 11
303.8355850837858156
 21
122.0768353842132967
 31
0.0
  0
LINE
  5
10233
  8
0
 10
303.8339917652858162
 20
122.0768353842132967
 30
0.0
 11
303.8339917652858162
 21
122.1571503468214956
 31
0.0
  0
LINE
  5
10234
  8
0
 10
303.8283918124859042
 20
122.0768353842132967
 30
0.0
 11
303.8283918124859042
 21
122.1571503468214956
 31
0.0
  0
LINE
  5
10235
  8
0
 10
303.8166221210856861
 20
122.1571503468214956
 30
0.0
 11
303.8166221210856861
 21
122.0768353842132967
 31
0.0
  0
LINE
  5
10236
  8
0
 10
303.8152182782858972
 20
122.0768353842132967
 30
0.0
 11
303.8152182782858972
 21
122.1571503468214956
 31
0.0
  0
LINE
  5
10237
  8
0
 10
303.8092710940857728
 20
122.0768353842132967
 30
0.0
 11
303.8092710940857728
 21
122.1571503468214956
 31
0.0
  0
LINE
  5
10238
  8
0
 10
303.7972623861858779
 20
122.1571503468214956
 30
0.0
 11
303.7972623861858779
 21
122.0768353842132967
 31
0.0
  0
LINE
  5
10239
  8
0
 10
303.7960518669859766
 20
122.0768353842132967
 30
0.0
 11
303.7960518669859766
 21
122.1571503468214956
 31
0.0
  0
LINE
  5
1023A
  8
0
 10
303.7897737521859085
 20
122.0768353842132967
 30
0.0
 11
303.7897737521859085
 21
122.1571503468214956
 31
0.0
  0
LINE
  5
1023B
  8
0
 10
303.7775589427860155
 20
122.1571503468214956
 30
0.0
 11
303.7775589427860155
 21
122.0768353842132967
 31
0.0
  0
LINE
  5
1023C
  8
0
 10
303.7765450651858146
 20
122.0768353842132967
 30
0.0
 11
303.7765450651858146
 21
122.1571503468214956
 31
0.0
  0
LINE
  5
1023D
  8
0
 10
303.7699532275859156
 20
122.0768353842132967
 30
0.0
 11
303.7699532275859156
 21
122.1571503468214956
 31
0.0
  0
LINE
  5
1023E
  8
0
 10
303.7575657966858103
 20
122.1571503468214956
 30
0.0
 11
303.7575657966858103
 21
122.0768353842132967
 31
0.0
  0
LINE
  5
1023F
  8
0
 10
303.7567513395857759
 20
122.0768353842132967
 30
0.0
 11
303.7567513395857759
 21
122.1571503468214956
 31
0.0
  0
LINE
  5
10240
  8
0
 10
303.749863847085976
 20
122.0768353842132967
 30
0.0
 11
303.749863847085976
 21
122.1571503468214956
 31
0.0
  0
LINE
  5
10241
  8
0
 10
303.7373377476860128
 20
122.1571503468214956
 30
0.0
 11
303.7373377476860128
 21
122.0768353842132967
 31
0.0
  0
LINE
  5
10242
  8
0
 10
303.7367249434859104
 20
122.0768353842132967
 30
0.0
 11
303.7367249434859104
 21
122.1571503468214956
 31
0.0
  0
LINE
  5
10243
  8
0
 10
303.729560674185791
 20
122.0768353842132967
 30
0.0
 11
303.729560674185791
 21
122.1571503468214956
 31
0.0
  0
LINE
  5
10244
  8
0
 10
303.716930239485805
 20
122.1571503468214956
 30
0.0
 11
303.716930239485805
 21
122.0768353842132967
 31
0.0
  0
LINE
  5
10245
  8
0
 10
303.7165207677858803
 20
122.0768353842132967
 30
0.0
 11
303.7165207677858803
 21
122.1571503468214956
 31
0.0
  0
LINE
  5
10246
  8
0
 10
303.7090993583860268
 20
122.0768353842132967
 30
0.0
 11
303.7090993583860268
 21
122.1571503468214956
 31
0.0
  0
LINE
  5
10247
  8
0
 10
303.6963992075857846
 20
122.1571503468214956
 30
0.0
 11
303.6963992075857846
 21
122.0768353842132967
 31
0.0
  0
LINE
  5
10248
  8
0
 10
303.68853598288581
 20
122.0768353842132967
 30
0.0
 11
303.68853598288581
 21
122.1571503468214956
 31
0.0
  0
LINE
  5
10249
  8
0
 10
303.6758009261859002
 20
122.1571503468214956
 30
0.0
 11
303.6758009261859002
 21
122.0768353842132967
 31
0.0
  0
LINE
  5
1024A
  8
0
 10
303.6679269104857894
 20
122.0768353842132967
 30
0.0
 11
303.6679269104857894
 21
122.1571503468214956
 31
0.0
  0
LINE
  5
1024B
  8
0
 10
303.6551918537858228
 20
122.1571503468214956
 30
0.0
 11
303.6551918537858228
 21
122.0768353842132967
 31
0.0
  0
LINE
  5
1024C
  8
0
 10
303.6473286290857914
 20
122.0768353842132967
 30
0.0
 11
303.6473286290857914
 21
122.1571503468214956
 31
0.0
  0
LINE
  5
1024D
  8
0
 10
303.6346284782858902
 20
122.1571503468214956
 30
0.0
 11
303.6346284782858902
 21
122.0768353842132967
 31
0.0
  0
LINE
  5
1024E
  8
0
 10
303.627207068885923
 20
122.0768353842132967
 30
0.0
 11
303.627207068885923
 21
122.1571503468214956
 31
0.0
  0
LINE
  5
1024F
  8
0
 10
303.6267975971858277
 20
122.0768353842132967
 30
0.0
 11
303.6267975971858277
 21
122.1571503468214956
 31
0.0
  0
LINE
  5
10250
  8
0
 10
303.6141671625858862
 20
122.1571503468214956
 30
0.0
 11
303.6141671625858862
 21
122.0768353842132967
 31
0.0
  0
LINE
  5
10251
  8
0
 10
303.6070028931860065
 20
122.0768353842132967
 30
0.0
 11
303.6070028931860065
 21
122.1571503468214956
 31
0.0
  0
LINE
  5
10252
  8
0
 10
303.6063900889859042
 20
122.0768353842132967
 30
0.0
 11
303.6063900889859042
 21
122.1571503468214956
 31
0.0
  0
LINE
  5
10253
  8
0
 10
303.5938639895858842
 20
122.1571503468214956
 30
0.0
 11
303.5938639895858842
 21
122.0768353842132967
 31
0.0
  0
LINE
  5
10254
  8
0
 10
303.5869764970859137
 20
122.0768353842132967
 30
0.0
 11
303.5869764970859137
 21
122.1571503468214956
 31
0.0
  0
LINE
  5
10255
  8
0
 10
303.5861620399858793
 20
122.0768353842132967
 30
0.0
 11
303.5861620399858793
 21
122.1571503468214956
 31
0.0
  0
LINE
  5
10256
  8
0
 10
303.5737746090858877
 20
122.1571503468214956
 30
0.0
 11
303.5737746090858877
 21
122.0768353842132967
 31
0.0
  0
LINE
  5
10257
  8
0
 10
303.5671827714858182
 20
122.0768353842132967
 30
0.0
 11
303.5671827714858182
 21
122.1571503468214956
 31
0.0
  0
LINE
  5
10258
  8
0
 10
303.566284149585897
 20
122.1571503468214956
 30
0.0
 11
303.566284149585897
 21
122.0768353842132967
 31
0.0
  0
LINE
  5
10259
  8
0
 10
303.5539540844857811
 20
122.1571503468214956
 30
0.0
 11
303.5539540844857811
 21
122.0768353842132967
 31
0.0
  0
LINE
  5
1025A
  8
0
 10
303.5476759696858835
 20
122.0768353842132967
 30
0.0
 11
303.5476759696858835
 21
122.1571503468214956
 31
0.0
  0
LINE
  5
1025B
  8
0
 10
303.5464654504859254
 20
122.0768353842132967
 30
0.0
 11
303.5464654504859254
 21
122.1571503468214956
 31
0.0
  0
LINE
  5
1025C
  8
0
 10
303.5344567425858031
 20
122.1571503468214956
 30
0.0
 11
303.5344567425858031
 21
122.0768353842132967
 31
0.0
  0
LINE
  5
1025D
  8
0
 10
303.5285095583856787
 20
122.0768353842132967
 30
0.0
 11
303.5285095583856787
 21
122.1571503468214956
 31
0.0
  0
LINE
  5
1025E
  8
0
 10
303.5271057155858898
 20
122.0768353842132967
 30
0.0
 11
303.5271057155858898
 21
122.1571503468214956
 31
0.0
  0
LINE
  5
1025F
  8
0
 10
303.5153360241857854
 20
122.1571503468214956
 30
0.0
 11
303.5153360241857854
 21
122.0768353842132967
 31
0.0
  0
LINE
  5
10260
  8
0
 10
303.5097360713858734
 20
122.0768353842132967
 30
0.0
 11
303.5097360713858734
 21
122.1571503468214956
 31
0.0
  0
LINE
  5
10261
  8
0
 10
303.508142752885874
 20
122.0768353842132967
 30
0.0
 11
303.508142752885874
 21
122.1571503468214956
 31
0.0
  0
LINE
  5
10262
  8
0
 10
303.4966443378859253
 20
122.1571503468214956
 30
0.0
 11
303.4966443378859253
 21
122.0768353842132967
 31
0.0
  0
LINE
  5
10263
  8
0
 10
303.4914069655858953
 20
122.0768353842132967
 30
0.0
 11
303.4914069655858953
 21
122.1571503468214956
 31
0.0
  0
LINE
  5
10264
  8
0
 10
303.4896285384858174
 20
122.0768353842132967
 30
0.0
 11
303.4896285384858174
 21
122.1571503468214956
 31
0.0
  0
LINE
  5
10265
  8
0
 10
303.4784329162858967
 20
122.1571503468214956
 30
0.0
 11
303.4784329162858967
 21
122.0768353842132967
 31
0.0
  0
LINE
  5
10266
  8
0
 10
303.4735724797859007
 20
122.0768353842132967
 30
0.0
 11
303.4735724797859007
 21
122.1571503468214956
 31
0.0
  0
LINE
  5
10267
  8
0
 10
303.4716138185856948
 20
122.0768353842132967
 30
0.0
 11
303.4716138185856948
 21
122.1571503468214956
 31
0.0
  0
LINE
  5
10268
  8
0
 10
303.4607516755858114
 20
122.1571503468214956
 30
0.0
 11
303.4607516755858114
 21
122.0768353842132967
 31
0.0
  0
LINE
  5
10269
  8
0
 10
303.4562814969858096
 20
122.0768353842132967
 30
0.0
 11
303.4562814969858096
 21
122.1571503468214956
 31
0.0
  0
LINE
  5
1026A
  8
0
 10
303.4541479702858169
 20
122.0768353842132967
 30
0.0
 11
303.4541479702858169
 21
122.1571503468214956
 31
0.0
  0
LINE
  5
1026B
  8
0
 10
303.443649078885926
 20
122.1571503468214956
 30
0.0
 11
303.443649078885926
 21
122.0768353842132967
 31
0.0
  0
LINE
  5
1026C
  8
0
 10
303.4395814105859017
 20
122.0768353842132967
 30
0.0
 11
303.4395814105859017
 21
122.1571503468214956
 31
0.0
  0
LINE
  5
1026D
  8
0
 10
303.4372788662856806
 20
122.0768353842132967
 30
0.0
 11
303.4372788662856806
 21
122.1571503468214956
 31
0.0
  0
LINE
  5
1026E
  8
0
 10
303.427172003185774
 20
122.1571503468214956
 30
0.0
 11
303.427172003185774
 21
122.0768353842132967
 31
0.0
  0
LINE
  5
1026F
  8
0
 10
303.423517994385918
 20
122.0768353842132967
 30
0.0
 11
303.423517994385918
 21
122.1571503468214956
 31
0.0
  0
LINE
  5
10270
  8
0
 10
303.4210527435857898
 20
122.0768353842132967
 30
0.0
 11
303.4210527435857898
 21
122.1571503468214956
 31
0.0
  0
LINE
  5
10271
  8
0
 10
303.411365610985797
 20
122.1571503468214956
 30
0.0
 11
303.411365610985797
 21
122.0768353842132967
 31
0.0
  0
LINE
  5
10272
  8
0
 10
303.4081352771858064
 20
122.0768353842132967
 30
0.0
 11
303.4081352771858064
 21
122.1571503468214956
 31
0.0
  0
LINE
  5
10273
  8
0
 10
303.4055140768858791
 20
122.0768353842132967
 30
0.0
 11
303.4055140768858791
 21
122.1571503468214956
 31
0.0
  0
LINE
  5
10274
  8
0
 10
303.3962732265857767
 20
122.1571503468214956
 30
0.0
 11
303.3962732265857767
 21
122.0768353842132967
 31
0.0
  0
LINE
  5
10275
  8
0
 10
303.3934754217859222
 20
122.0768353842132967
 30
0.0
 11
303.3934754217859222
 21
122.1571503468214956
 31
0.0
  0
LINE
  5
10276
  8
0
 10
303.3907054565858061
 20
122.0768353842132967
 30
0.0
 11
303.3907054565858061
 21
122.1571503468214956
 31
0.0
  0
LINE
  5
10277
  8
0
 10
303.3819362170858085
 20
122.1571503468214956
 30
0.0
 11
303.3819362170858085
 21
122.0768353842132967
 31
0.0
  0
LINE
  5
10278
  8
0
 10
303.3795786099857992
 20
122.0768353842132967
 30
0.0
 11
303.3795786099857992
 21
122.1571503468214956
 31
0.0
  0
LINE
  5
10279
  8
0
 10
303.3766674721858863
 20
122.0768353842132967
 30
0.0
 11
303.3766674721858863
 21
122.1571503468214956
 31
0.0
  0
LINE
  5
1027A
  8
0
 10
303.3683938926470205
 20
122.1571503468214956
 30
0.0
 11
303.3683938926470205
 21
122.0768353842132967
 31
0.0
  0
LINE
  5
1027B
  8
0
 10
303.3664829451470268
 20
122.0768353842132967
 30
0.0
 11
303.3664829451470268
 21
122.1571503468214956
 31
0.0
  0
LINE
  5
1027C
  8
0
 10
303.3634386005858801
 20
122.0768353842132967
 30
0.0
 11
303.3634386005858801
 21
122.1571503468214956
 31
0.0
  0
LINE
  5
1027D
  8
0
 10
303.3556833450469981
 20
122.0768353842132967
 30
0.0
 11
303.3556833450469981
 21
122.1571503468214956
 31
0.0
  0
LINE
  5
1027E
  8
0
 10
303.3542242951469916
 20
122.0768353842132967
 30
0.0
 11
303.3542242951469916
 21
122.1571503468214956
 31
0.0
  0
LINE
  5
1027F
  8
0
 10
303.3510551147469982
 20
122.0768353842132967
 30
0.0
 11
303.3510551147469982
 21
122.1571503468214956
 31
0.0
  0
LINE
  5
10280
  8
0
 10
303.3438394265469924
 20
122.0768353842132967
 30
0.0
 11
303.3438394265469924
 21
122.1571503468214956
 31
0.0
  0
LINE
  5
10281
  8
0
 10
303.3428362731469861
 20
122.0768353842132967
 30
0.0
 11
303.3428362731469861
 21
122.1571503468214956
 31
0.0
  0
LINE
  5
10282
  8
0
 10
303.3395509302470145
 20
122.0768353842132967
 30
0.0
 11
303.3395509302470145
 21
122.1571503468214956
 31
0.0
  0
LINE
  5
10283
  8
0
 10
303.3328946004469913
 20
122.0768353842132967
 30
0.0
 11
303.3328946004469913
 21
122.1571503468214956
 31
0.0
  0
LINE
  5
10284
  8
0
 10
303.3323500932469869
 20
122.0768353842132967
 30
0.0
 11
303.3323500932469869
 21
122.1571503468214956
 31
0.0
  0
LINE
  5
10285
  8
0
 10
303.3290163907469719
 20
122.0768353842132967
 30
0.0
 11
303.3290163907469719
 21
122.1571503468214956
 31
0.0
  0
LINE
  5
10286
  8
0
 10
303.3228788656469987
 20
122.0768353842132967
 30
0.0
 11
303.3228788656469987
 21
122.1571503468214956
 31
0.0
  0
LINE
  5
10287
  8
0
 10
303.3193041373469896
 20
122.0768353842132967
 30
0.0
 11
303.3193041373469896
 21
122.1571503468214956
 31
0.0
  0
LINE
  5
10288
  8
0
 10
303.3138196747469806
 20
122.0768353842132967
 30
0.0
 11
303.3138196747469806
 21
122.1571503468214956
 31
0.0
  0
LINE
  5
10289
  8
0
 10
303.3106170239469748
 20
122.0768353842132967
 30
0.0
 11
303.3106170239469748
 21
122.1571503468214956
 31
0.0
  0
LINE
  5
1028A
  8
0
 10
303.3057418581469733
 20
122.0768353842132967
 30
0.0
 11
303.3057418581469733
 21
122.1571503468214956
 31
0.0
  0
LINE
  5
1028B
  8
0
 10
303.3029200632469724
 20
122.0768353842132967
 30
0.0
 11
303.3029200632469724
 21
122.1571503468214956
 31
0.0
  0
LINE
  5
1028C
  8
0
 10
303.2986675567469774
 20
122.0768353842132967
 30
0.0
 11
303.2986675567469774
 21
122.1571503468214956
 31
0.0
  0
LINE
  5
1028D
  8
0
 10
303.2962343520470085
 20
122.0768353842132967
 30
0.0
 11
303.2962343520470085
 21
122.1571503468214956
 31
0.0
  0
LINE
  5
1028E
  8
0
 10
303.2926161607470021
 20
122.0768353842132967
 30
0.0
 11
303.2926161607470021
 21
122.1571503468214956
 31
0.0
  0
LINE
  5
1028F
  8
0
 10
303.2905782154469989
 20
122.0768353842132967
 30
0.0
 11
303.2905782154469989
 21
122.1571503468214956
 31
0.0
  0
LINE
  5
10290
  8
0
 10
303.2876042564470254
 20
122.0768353842132967
 30
0.0
 11
303.2876042564470254
 21
122.1571503468214956
 31
0.0
  0
LINE
  5
10291
  8
0
 10
303.2859671564469863
 20
122.0768353842132967
 30
0.0
 11
303.2859671564469863
 21
122.1571503468214956
 31
0.0
  0
LINE
  5
10292
  8
0
 10
303.2836455812470149
 20
122.0768353842132967
 30
0.0
 11
303.2836455812470149
 21
122.1571503468214956
 31
0.0
  0
LINE
  5
10293
  8
0
 10
303.2824138137469845
 20
122.0768353842132967
 30
0.0
 11
303.2824138137469845
 21
122.1571503468214956
 31
0.0
  0
LINE
  5
10294
  8
0
 10
303.280750985447014
 20
122.0768353842132967
 30
0.0
 11
303.280750985447014
 21
122.1571503468214956
 31
0.0
  0
LINE
  5
10295
  8
0
 10
303.2799279267470069
 20
122.0768353842132967
 30
0.0
 11
303.2799279267470069
 21
122.1571503468214956
 31
0.0
  0
LINE
  5
10296
  8
0
 10
303.2789284031470061
 20
122.0768353842132967
 30
0.0
 11
303.2789284031470061
 21
122.1571503468214956
 31
0.0
  0
LINE
  5
10297
  8
0
 10
303.2785163090470064
 20
122.0768353842132967
 30
0.0
 11
303.2785163090470064
 21
122.1571503468214956
 31
0.0
  0
LINE
  5
10298
  8
0
 10
303.2781828298470259
 20
122.0768353842132967
 30
0.0
 11
303.2781828298470259
 21
122.1571503468214956
 31
0.0
  0
LINE
  5
10299
  8
0
 10
304.0065094317470198
 20
122.0768353842132967
 30
0.0
 11
304.0065094317470198
 21
122.0571503468215013
 31
0.0
  0
LINE
  5
1029A
  8
0
 10
304.0065094317470198
 20
122.0571503468215013
 30
0.0
 11
303.337218431746976
 21
122.0571503468215013
 31
0.0
  0
LINE
  5
1029B
  8
0
 10
303.337218431746976
 20
122.0571503468215013
 30
0.0
 11
303.337218431746976
 21
122.0768353842132967
 31
0.0
  0
LINE
  5
1029C
  8
0
 10
302.6679269238470056
 20
124.1250254910215034
 30
0.0
 11
300.1481012806469835
 21
126.6448511342214971
 31
0.0
  0
LINE
  5
1029D
  8
0
 10
302.6169743788469759
 20
128.2196542839214999
 30
0.0
 11
302.6169743788469759
 21
126.6448511342214971
 31
0.0
  0
LINE
  5
1029E
  8
0
 10
302.56950172694701
 20
128.3185676697214888
 30
0.0
 11
292.7269820419469966
 21
128.3185676697214888
 31
0.0
  0
LINE
  5
1029F
  8
0
 10
292.7269820419469966
 20
128.3185676697214888
 30
0.0
 11
292.7269820419469966
 21
145.3658117642214904
 31
0.0
  0
LINE
  5
102A0
  8
0
 10
292.7269820419469966
 20
145.3658117642214904
 30
0.0
 11
302.56950172694701
 21
145.3658117642214904
 31
0.0
  0
LINE
  5
102A1
  8
0
 10
302.56950172694701
 20
145.3658117642214904
 30
0.0
 11
302.56950172694701
 21
128.3185676697214888
 31
0.0
  0
LINE
  5
102A2
  8
0
 10
302.6285568450470009
 20
146.2122684571214961
 30
0.0
 11
302.6285568450470009
 21
145.4642369610214985
 31
0.0
  0
LINE
  5
102A3
  8
0
 10
302.56950172694701
 20
154.9721109768215115
 30
0.0
 11
302.56950172694701
 21
146.3106936539215042
 31
0.0
  0
ARC
  5
102A4
  8
0
 10
297.037690703346982
 20
150.2674101894214971
 30
0.0
 40
0.02
 50
270.0
 51
0.0
  0
LINE
  5
102A5
  8
0
 10
297.0576907033470206
 20
150.2674101894214971
 30
0.0
 11
297.0576907033470206
 21
151.0148117642214913
 31
0.0
  0
ARC
  5
102A6
  8
0
 10
297.037690703346982
 20
151.0148117642214913
 30
0.0
 40
0.02
 50
0.0
 51
90.0
  0
LINE
  5
102A7
  8
0
 10
302.6279269238469851
 20
156.6453393232214921
 30
0.0
 11
302.6279269238469851
 21
155.0705361736214911
 31
0.0
  0
LINE
  5
102A8
  8
0
 10
300.9406596802675153
 20
155.0705361736214911
 30
0.0
 11
300.8983146015013972
 21
154.9721109768215115
 31
0.0
  0
LINE
  5
102A9
  8
0
 10
294.6364308608469855
 20
155.0705361736214911
 30
0.0
 11
294.6364308608469855
 21
154.9721109768215115
 31
0.0
  0
LINE
  5
102AA
  8
0
 10
302.6470038427470968
 20
152.1000155771714901
 30
0.0
 11
302.6470038521471793
 21
152.0999260507715007
 31
0.0
  0
LINE
  5
102AB
  8
0
 10
302.6625535695467875
 20
152.9019087546215019
 30
0.0
 11
302.6625535695470148
 21
151.7480509185214999
 31
0.0
  0
ARC
  5
102AC
  8
0
 10
302.6932622309470275
 20
152.3025877610714929
 30
0.0
 40
0.2078740157
 50
233.461483934499114
 51
257.1422751273938161
  0
ARC
  5
102AD
  8
0
 10
302.6932622309470275
 20
152.3473719138715126
 30
0.0
 40
0.2078740157
 50
102.8577248726061981
 51
126.5385160655008008
  0
ARC
  5
102AE
  8
0
 10
302.6425535695469762
 20
152.56953221347149
 30
0.0
 40
0.02
 50
282.8576387029971784
 51
0.0
  0
ARC
  5
102AF
  8
0
 10
302.6425535695469762
 20
152.080427461471487
 30
0.0
 40
0.02
 50
0.0
 51
77.1423612970027506
  0
ARC
  5
102B0
  8
0
 10
302.6725535695470057
 20
152.9019087563214896
 30
0.0
 40
0.0099999999999875
 50
117.5591814447250982
 51
180.0000097403544999
  0
ARC
  5
102B1
  8
0
 10
302.6725535695463236
 20
151.748050918520903
 30
0.0
 40
0.0099999999990867
 50
179.9999999963563084
 51
242.4408185596356873
  0
LINE
  5
102B2
  8
0
 10
300.0081237742516009
 20
146.2122684571214961
 30
0.0
 11
300.0081237742095936
 21
146.2581361844214882
 31
0.0
  0
ARC
  5
102B3
  8
0
 10
300.0031239673418213
 20
146.2581361844169123
 30
0.0
 40
0.0049998068677759
 50
0.00000005244811
 51
70.4770257427309303
  0
ARC
  5
102B4
  8
0
 10
300.0081438154800253
 20
146.2722937544810122
 30
0.0
 40
0.0100213670360832
 50
183.1384394607337924
 51
250.4770257427273066
  0
ARC
  5
102B5
  8
0
 10
275.2264020757837102
 20
144.9134872728542121
 30
0.0
 40
24.8089447417186904
 50
3.1384394607338328
 51
3.158475211693879
  0
ARC
  5
102B6
  8
0
 10
299.9371140643709737
 20
146.2770663555033934
 30
0.0
 40
0.0606390442057716
 50
3.1584752116956838
 51
33.6796306297076526
  0
ARC
  5
102B7
  8
0
 10
299.3319224555090159
 20
146.2782135174259963
 30
0.0
 40
0.1260262112477246
 50
0.8790219878711184
 51
14.9351290870504307
  0
ARC
  5
102B8
  8
0
 10
156.0684443337117102
 20
143.4180506787151899
 30
0.0
 40
143.4180507971611007
 50
1.140026936901265
 51
1.143488707192458
  0
ARC
  5
102B9
  8
0
 10
299.4800878528591284
 20
146.270516452135098
 30
0.0
 40
0.0220026114695956
 50
177.481167318379903
 51
214.2405969170852131
  0
LINE
  5
102BA
  8
0
 10
299.4618986879469844
 20
146.2122684571214961
 30
0.0
 11
299.4618986877470093
 21
146.2581362589214962
 31
0.0
  0
ARC
  5
102BB
  8
0
 10
299.4673469599493956
 20
146.2574065685309108
 30
0.0
 40
0.0054969189605103
 50
98.0990844874863086
 51
172.3717358866404936
  0
LINE
  5
102BC
  8
0
 10
299.4665725242535927
 20
146.2628486607214882
 30
0.0
 11
300.0047948268469895
 21
146.2628485402215119
 31
0.0
  0
LINE
  5
102BD
  8
0
 10
299.2416563926469735
 20
146.2122684571214961
 30
0.0
 11
299.2416563926469735
 21
146.3106936539215042
 31
0.0
  0
LINE
  5
102BE
  8
0
 10
299.271656392647003
 20
146.3106936539215042
 30
0.0
 11
299.271656392647003
 21
146.2122684571214961
 31
0.0
  0
LINE
  5
102BF
  8
0
 10
299.271656392647003
 20
146.2408197595214858
 30
0.0
 11
299.2416563926469735
 21
146.2408197595214858
 31
0.0
  0
LINE
  5
102C0
  8
0
 10
299.308123774247008
 20
146.2848097381215098
 30
0.0
 11
299.271656392647003
 21
146.2848097381215098
 31
0.0
  0
LINE
  5
102C1
  8
0
 10
299.308123774247008
 20
146.3106936539215042
 30
0.0
 11
299.308123774247008
 21
146.2122684571214961
 31
0.0
  0
LINE
  5
102C2
  8
0
 10
299.3159161345927828
 20
146.2972684571215041
 30
0.0
 11
299.3159161345927828
 21
146.2972684571215041
 31
0.0
  0
LINE
  5
102C3
  8
0
 10
299.308123774247008
 20
146.2972684571215041
 30
0.0
 11
299.4363876951470047
 21
146.2972684571215041
 31
0.0
  0
LINE
  5
102C4
  8
0
 10
299.4479253877905194
 20
146.2122684571214961
 30
0.0
 11
299.4479195649756207
 21
146.2422922185214986
 31
0.0
  0
ARC
  5
102C5
  8
0
 10
299.552320507133004
 20
146.2704943175594963
 30
0.0
 40
0.1081430308133828
 50
181.7093622040609944
 51
195.116656644665909
  0
ARC
  5
102C6
  8
0
 10
299.3217592258487798
 20
146.2694624202644889
 30
0.0
 40
0.122486024849896
 50
358.973666167740987
 51
8.3588207412530728
  0
ARC
  5
102C7
  8
0
 10
299.42024881051492
 20
146.2829610632365984
 30
0.0
 40
0.023100419036449
 50
10.7464920738442107
 51
27.9277562494069684
  0
ARC
  5
102C8
  8
0
 10
299.4352457665776797
 20
146.2915110218758059
 30
0.0
 40
0.0058695878446662
 50
22.7443995516421005
 51
78.7815604216047944
  0
LINE
  5
102C9
  8
0
 10
299.4479195649756207
 20
146.2422922185214986
 30
0.0
 11
299.3281237742469898
 21
146.2422774168215085
 31
0.0
  0
LINE
  5
102CA
  8
0
 10
299.3281237742469898
 20
146.2122684571214961
 30
0.0
 11
299.3281237742469898
 21
146.2422774168215085
 31
0.0
  0
ARC
  5
102CB
  8
0
 10
299.3684436432097868
 20
146.27239432453581
 30
0.0
 40
0.0503261359876927
 50
183.1240433756163952
 51
216.7578756611974029
  0
ARC
  5
102CC
  8
0
 10
297.9764399694577151
 20
146.201504070264491
 30
0.0
 40
1.3434818210750421
 50
2.90755372912413
 51
3.277536362110943
  0
ARC
  5
102CD
  8
0
 10
299.2977800374470121
 20
146.277245469521489
 30
0.0
 40
0.0199728577999689
 50
3.0679738486696562
 51
58.8091988860277866
  0
LINE
  5
102CE
  8
0
 10
299.3179101169461092
 20
146.274997246521508
 30
0.0
 11
299.308123774247008
 21
146.274997246521508
 31
0.0
  0
LINE
  5
102CF
  8
0
 10
299.4089073666153809
 20
146.2696509664214943
 30
0.0
 11
299.3181923352694866
 21
146.2696509664214943
 31
0.0
  0
LINE
  5
102D0
  8
0
 10
299.4442256000469911
 20
146.2672684571215029
 30
0.0
 11
299.4206237742470194
 21
146.2672684571215029
 31
0.0
  0
ARC
  5
102D1
  8
0
 10
299.4206237742470194
 20
146.2972684571957984
 30
0.0
 40
0.0300000000742955
 50
199.4712207348179902
 51
269.9999999999968168
  0
ARC
  5
102D2
  8
0
 10
299.3781973672419099
 20
146.2822684570649017
 30
0.0
 40
0.015000000095553
 50
19.4712207348195392
 51
90.0
  0
LINE
  5
102D3
  8
0
 10
297.9781237742362805
 20
146.2122684571214961
 30
0.0
 11
297.9781237742784015
 21
146.2581361844214882
 31
0.0
  0
ARC
  5
102D4
  8
0
 10
297.983123581146117
 20
146.2581361844169123
 30
0.0
 40
0.0049998068677759
 50
109.5229742572690981
 51
179.9999999475519132
  0
ARC
  5
102D5
  8
0
 10
297.978103733007913
 20
146.2722937544810122
 30
0.0
 40
0.0100213670360832
 50
289.5229742572727218
 51
356.8615605392661791
  0
ARC
  5
102D6
  8
0
 10
322.7598454727042281
 20
144.9134872728542121
 30
0.0
 40
24.8089447417186904
 50
176.8415247883060886
 51
176.8615605392662076
  0
ARC
  5
102D7
  8
0
 10
298.0491334841170215
 20
146.2770663555033934
 30
0.0
 40
0.0606390442057716
 50
146.3203693702922976
 51
176.841524788304298
  0
ARC
  5
102D8
  8
0
 10
298.6543250929848909
 20
146.2782135174259963
 30
0.0
 40
0.1260262112477246
 50
165.0648709129494875
 51
179.1209780121288873
  0
ARC
  5
102D9
  8
0
 10
441.917803214782225
 20
143.4180506787151899
 30
0.0
 40
143.4180507971611007
 50
178.8565112928075109
 51
178.8599730630986926
  0
ARC
  5
102DA
  8
0
 10
298.5061596956347785
 20
146.270516452135098
 30
0.0
 40
0.0220026114695956
 50
325.7594030829142184
 51
2.5188326816200961
  0
LINE
  5
102DB
  8
0
 10
298.5243488605469793
 20
146.2122684571214961
 30
0.0
 11
298.5243488607470113
 21
146.2581362589214962
 31
0.0
  0
ARC
  5
102DC
  8
0
 10
298.5189005885445113
 20
146.2574065685309108
 30
0.0
 40
0.0054969189605103
 50
7.6282641133595162
 51
81.9009155125137056
  0
LINE
  5
102DD
  8
0
 10
298.5196750242404278
 20
146.2628486607214882
 30
0.0
 11
297.9814527216408919
 21
146.2628485402215119
 31
0.0
  0
LINE
  5
102DE
  8
0
 10
298.7116563926470008
 20
146.2122684571214961
 30
0.0
 11
298.7116563926470008
 21
146.3106936539215042
 31
0.0
  0
LINE
  5
102DF
  8
0
 10
298.681656392647028
 20
146.3106936539215042
 30
0.0
 11
298.681656392647028
 21
146.2122684571214961
 31
0.0
  0
LINE
  5
102E0
  8
0
 10
298.681656392647028
 20
146.2408197595214858
 30
0.0
 11
298.7116563926470008
 21
146.2408197595214858
 31
0.0
  0
LINE
  5
102E1
  8
0
 10
298.6781237742470125
 20
146.2848097381215098
 30
0.0
 11
298.681656392647028
 21
146.2848097381215098
 31
0.0
  0
LINE
  5
102E2
  8
0
 10
298.6781237742470125
 20
146.3106936539215042
 30
0.0
 11
298.6781237742470125
 21
146.2122684571214961
 31
0.0
  0
LINE
  5
102E3
  8
0
 10
298.6703314139011809
 20
146.2972684571215041
 30
0.0
 11
298.6703314139011809
 21
146.2972684571215041
 31
0.0
  0
LINE
  5
102E4
  8
0
 10
298.6781237742470125
 20
146.2972684571215041
 30
0.0
 11
298.5498598533470158
 21
146.2972684571215041
 31
0.0
  0
LINE
  5
102E5
  8
0
 10
298.5383221607035011
 20
146.2122684571214961
 30
0.0
 11
298.5383279835183998
 21
146.2422922185214986
 31
0.0
  0
ARC
  5
102E6
  8
0
 10
298.4339270413610166
 20
146.2704943175594963
 30
0.0
 40
0.1081430308133828
 50
344.8833433553339773
 51
358.2906377959390056
  0
ARC
  5
102E7
  8
0
 10
298.6644883226451839
 20
146.2694624202644889
 30
0.0
 40
0.122486024849896
 50
171.6411792587468881
 51
181.026333832259013
  0
ARC
  5
102E8
  8
0
 10
298.5659987379791005
 20
146.2829610632365984
 30
0.0
 40
0.023100419036449
 50
152.0722437505930031
 51
169.2535079261558053
  0
ARC
  5
102E9
  8
0
 10
298.5510017819162272
 20
146.2915110218758059
 30
0.0
 40
0.0058695878446662
 50
101.2184395783952056
 51
157.2556004483579102
  0
LINE
  5
102EA
  8
0
 10
298.5383279835183998
 20
146.2422922185214986
 30
0.0
 11
298.6581237742469739
 21
146.2422774168215085
 31
0.0
  0
LINE
  5
102EB
  8
0
 10
298.6581237742469739
 20
146.2122684571214961
 30
0.0
 11
298.6581237742469739
 21
146.2422774168215085
 31
0.0
  0
ARC
  5
102EC
  8
0
 10
298.61780390528412
 20
146.27239432453581
 30
0.0
 40
0.0503261359876927
 50
323.2421243388026255
 51
356.8759566243834911
  0
ARC
  5
102ED
  8
0
 10
300.0098075790364192
 20
146.201504070264491
 30
0.0
 40
1.3434818210750421
 50
176.7224636378890068
 51
177.0924462708759108
  0
ARC
  5
102EE
  8
0
 10
298.6884675110470084
 20
146.277245469521489
 30
0.0
 40
0.0199728577999689
 50
121.1908011139721992
 51
176.932026151330291
  0
LINE
  5
102EF
  8
0
 10
298.6683374315479114
 20
146.274997246521508
 30
0.0
 11
298.6781237742470125
 21
146.274997246521508
 31
0.0
  0
LINE
  5
102F0
  8
0
 10
298.5773401818785828
 20
146.2696509664214943
 30
0.0
 11
298.668055213224477
 21
146.2696509664214943
 31
0.0
  0
LINE
  5
102F1
  8
0
 10
298.5420219484469726
 20
146.2672684571215029
 30
0.0
 11
298.5656237742470012
 21
146.2672684571215029
 31
0.0
  0
ARC
  5
102F2
  8
0
 10
298.5656237742470012
 20
146.2972684571957984
 30
0.0
 40
0.0300000000742955
 50
270.0000000000032969
 51
340.5287792651819814
  0
ARC
  5
102F3
  8
0
 10
298.6080501812521106
 20
146.2822684570649017
 30
0.0
 40
0.015000000095553
 50
90.0
 51
160.5287792651803898
  0
LINE
  5
102F4
  8
0
 10
293.5343836167472205
 20
141.4287015279714979
 30
0.0
 11
294.2030450340459993
 21
141.4287015279714979
 31
0.0
  0
LINE
  5
102F5
  8
0
 10
293.5343836167472205
 20
136.6649220003714902
 30
0.0
 11
294.2030450340459993
 21
136.6649220003714902
 31
0.0
  0
LINE
  5
102F6
  8
0
 10
294.2230450340459811
 20
141.4087015279714876
 30
0.0
 11
294.2230450340459811
 21
136.6849220003715004
 31
0.0
  0
LINE
  5
102F7
  8
0
 10
293.5143836167470113
 20
141.4087015279714876
 30
0.0
 11
293.5143836167470113
 21
136.6849220003715004
 31
0.0
  0
ARC
  5
102F8
  8
0
 10
294.2030450340459993
 20
141.4087015279714876
 30
0.0
 40
0.02
 50
0.0000000000032569
 51
90.0
  0
ARC
  5
102F9
  8
0
 10
293.5343836167472205
 20
141.4087015279714876
 30
0.0
 40
0.02
 50
90.0
 51
180.0000000000032117
  0
ARC
  5
102FA
  8
0
 10
294.2030450340459993
 20
136.6849220003715004
 30
0.0
 40
0.02
 50
270.0
 51
0.0
  0
ARC
  5
102FB
  8
0
 10
293.5343836167472205
 20
136.6849220003715004
 30
0.0
 40
0.02
 50
180.0
 51
270.0
  0
LINE
  5
102FC
  8
0
 10
302.6679269238470056
 20
143.2662605831058897
 30
0.0
 11
302.6220591965470135
 21
143.2662605830639109
 31
0.0
  0
ARC
  5
102FD
  8
0
 10
302.6220591965516178
 20
143.2612607761961101
 30
0.0
 40
0.0049998068677759
 50
90.0000000524489252
 51
160.4770257427321951
  0
ARC
  5
102FE
  8
0
 10
302.6079016264874895
 20
143.2662806243343141
 30
0.0
 40
0.0100213670360832
 50
273.1384394607338209
 51
340.4770257427272782
  0
ARC
  5
102FF
  8
0
 10
303.966708108114176
 20
118.484538884637999
 30
0.0
 40
24.8089447417186904
 50
93.1384394607337924
 51
93.1584752116939825
  0
ARC
  5
10300
  8
0
 10
302.6031290254650798
 20
143.1952508732252056
 30
0.0
 40
0.0606390442057716
 50
93.1584752116939825
 51
123.6796306297084982
  0
ARC
  5
10301
  8
0
 10
302.6019818635425054
 20
142.59005926436339
 30
0.0
 40
0.1260262112477246
 50
90.8790219878703027
 51
104.9351290870500009
  0
ARC
  5
10302
  8
0
 10
302.609678928833489
 20
142.7382246617133887
 30
0.0
 40
0.0220026114695956
 50
267.4811673183805851
 51
304.2405969170869753
  0
LINE
  5
10303
  8
0
 10
302.6679269238470056
 20
142.7200354968013016
 30
0.0
 11
302.6220591220470055
 21
142.7200354966012981
 31
0.0
  0
ARC
  5
10304
  8
0
 10
302.6227888124375909
 20
142.7254837688037981
 30
0.0
 40
0.0054969189605103
 50
188.0990844874862944
 51
262.3717358866404084
  0
LINE
  5
10305
  8
0
 10
302.6173467202469851
 20
142.72470933310791
 30
0.0
 11
302.6173468407470182
 21
143.2629316357013067
 31
0.0
  0
LINE
  5
10306
  8
0
 10
302.6679269238470056
 20
142.4997932015012907
 30
0.0
 11
302.5695017270469975
 21
142.4997932015012907
 31
0.0
  0
LINE
  5
10307
  8
0
 10
302.5695017270469975
 20
142.5297932015012918
 30
0.0
 11
302.6679269238470056
 21
142.5297932015012918
 31
0.0
  0
LINE
  5
10308
  8
0
 10
302.6393756214470159
 20
142.5297932015012918
 30
0.0
 11
302.6393756214470159
 21
142.4997932015012907
 31
0.0
  0
LINE
  5
10309
  8
0
 10
302.5953856428470203
 20
142.5662605831012968
 30
0.0
 11
302.5953856428470203
 21
142.5297932015012918
 31
0.0
  0
LINE
  5
1030A
  8
0
 10
302.5695017270469975
 20
142.5662605831012968
 30
0.0
 11
302.6679269238470056
 21
142.5662605831012968
 31
0.0
  0
LINE
  5
1030B
  8
0
 10
302.582926923847026
 20
142.5740529434471
 30
0.0
 11
302.582926923847026
 21
142.5740529434471
 31
0.0
  0
LINE
  5
1030C
  8
0
 10
302.582926923847026
 20
142.5662605831012968
 30
0.0
 11
302.582926923847026
 21
142.6945245040012935
 31
0.0
  0
LINE
  5
1030D
  8
0
 10
302.6679269238470056
 20
142.7060621966448082
 30
0.0
 11
302.6379031624470031
 21
142.7060563738299095
 31
0.0
  0
ARC
  5
1030E
  8
0
 10
302.609701063408977
 20
142.8104573159872928
 30
0.0
 40
0.1081430308133828
 50
271.709362204062586
 51
285.1166566446652268
  0
ARC
  5
1030F
  8
0
 10
302.6107329607040128
 20
142.579896034703097
 30
0.0
 40
0.122486024849896
 50
88.9736661677418113
 51
98.358820741251364
  0
ARC
  5
10310
  8
0
 10
302.5972343177318749
 20
142.6783856193692088
 30
0.0
 40
0.023100419036449
 50
100.7464920738436973
 51
117.927756249406599
  0
ARC
  5
10311
  8
0
 10
302.5886843590927242
 20
142.6933825754321106
 30
0.0
 40
0.0058695878446662
 50
112.7443995516425019
 51
168.7815604216046097
  0
LINE
  5
10312
  8
0
 10
302.6379031624470031
 20
142.7060563738299095
 30
0.0
 11
302.6379179641469932
 21
142.586260583101307
 31
0.0
  0
LINE
  5
10313
  8
0
 10
302.6679269238470056
 20
142.586260583101307
 30
0.0
 11
302.6379179641469932
 21
142.586260583101307
 31
0.0
  0
ARC
  5
10314
  8
0
 10
302.6078010564327201
 20
142.6265804520641041
 30
0.0
 40
0.0503261359876927
 50
273.1240433756166226
 51
306.7578756611991935
  0
ARC
  5
10315
  8
0
 10
302.6786913107039254
 20
141.2345767783118902
 30
0.0
 40
1.3434818210750421
 50
92.9075537291258087
 51
93.2775363621117748
  0
ARC
  5
10316
  8
0
 10
302.6029499114470127
 20
142.5559168463013009
 30
0.0
 40
0.0199728577999689
 50
93.0679738486703769
 51
148.8091988860282129
  0
LINE
  5
10317
  8
0
 10
302.6051981344469937
 20
142.576046925800398
 30
0.0
 11
302.6051981344469937
 21
142.5662605831012968
 31
0.0
  0
LINE
  5
10318
  8
0
 10
302.6105444145470074
 20
142.6670441754696981
 30
0.0
 11
302.6105444145470074
 21
142.5763291441238039
 31
0.0
  0
LINE
  5
10319
  8
0
 10
302.6129269238469988
 20
142.7023624089013083
 30
0.0
 11
302.6129269238469988
 21
142.6787605831013082
 31
0.0
  0
ARC
  5
1031A
  8
0
 10
302.5829269237726749
 20
142.6787605831013082
 30
0.0
 40
0.0300000000742955
 50
289.4712207348172228
 51
359.9999999999984084
  0
ARC
  5
1031B
  8
0
 10
302.5979269239035716
 20
142.6363341760961987
 30
0.0
 40
0.015000000095553
 50
109.471220734820605
 51
180.0
  0
LINE
  5
1031C
  8
0
 10
302.6679269238470056
 20
141.2362605830907114
 30
0.0
 11
302.6220591965470135
 21
141.236260583132605
 31
0.0
  0
ARC
  5
1031D
  8
0
 10
302.6220591965516178
 20
141.2412603900004058
 30
0.0
 40
0.0049998068677759
 50
199.5229742572676912
 51
269.999999947551089
  0
ARC
  5
1031E
  8
0
 10
302.6079016264874895
 20
141.2362405418622018
 30
0.0
 40
0.0100213670360832
 50
19.5229742572726899
 51
86.8615605392662076
  0
ARC
  5
1031F
  8
0
 10
303.966708108114176
 20
166.0179822815584885
 30
0.0
 40
24.8089447417186904
 50
266.841524788306117
 51
266.8615605392661791
  0
ARC
  5
10320
  8
0
 10
302.6031290254650798
 20
141.3072702929713103
 30
0.0
 40
0.0606390442057716
 50
236.3203693702915018
 51
266.8415247883028201
  0
ARC
  5
10321
  8
0
 10
302.6019818635425054
 20
141.9124619018392082
 30
0.0
 40
0.1260262112477246
 50
255.0648709129499991
 51
269.1209780121296831
  0
ARC
  5
10322
  8
0
 10
302.609678928833489
 20
141.7642965044892094
 30
0.0
 40
0.0220026114695956
 50
55.7594030829130105
 51
92.5188326816193154
  0
LINE
  5
10323
  8
0
 10
302.6679269238470056
 20
141.7824856694012965
 30
0.0
 11
302.6220591220470055
 21
141.7824856696013001
 31
0.0
  0
ARC
  5
10324
  8
0
 10
302.6227888124375909
 20
141.7770373973988001
 30
0.0
 40
0.0054969189605103
 50
97.6282641133596343
 51
171.9009155125137056
  0
LINE
  5
10325
  8
0
 10
302.6173467202469851
 20
141.7778118330946882
 30
0.0
 11
302.6173468407470182
 21
141.2395895304952091
 31
0.0
  0
LINE
  5
10326
  8
0
 10
302.6679269238470056
 20
141.9697932015012896
 30
0.0
 11
302.5695017270469975
 21
141.9697932015012896
 31
0.0
  0
LINE
  5
10327
  8
0
 10
302.5695017270469975
 20
141.9397932015012884
 30
0.0
 11
302.6679269238470056
 21
141.9397932015012884
 31
0.0
  0
LINE
  5
10328
  8
0
 10
302.6393756214470159
 20
141.9397932015012884
 30
0.0
 11
302.6393756214470159
 21
141.9697932015012896
 31
0.0
  0
LINE
  5
10329
  8
0
 10
302.5953856428470203
 20
141.9362605831013013
 30
0.0
 11
302.5953856428470203
 21
141.9397932015012884
 31
0.0
  0
LINE
  5
1032A
  8
0
 10
302.5695017270469975
 20
141.9362605831013013
 30
0.0
 11
302.6679269238470056
 21
141.9362605831013013
 31
0.0
  0
LINE
  5
1032B
  8
0
 10
302.582926923847026
 20
141.9284682227554981
 30
0.0
 11
302.582926923847026
 21
141.9284682227554981
 31
0.0
  0
LINE
  5
1032C
  8
0
 10
302.582926923847026
 20
141.9362605831013013
 30
0.0
 11
302.582926923847026
 21
141.8079966622013046
 31
0.0
  0
LINE
  5
1032D
  8
0
 10
302.6679269238470056
 20
141.7964589695577899
 30
0.0
 11
302.6379031624470031
 21
141.7964647923726886
 31
0.0
  0
ARC
  5
1032E
  8
0
 10
302.609701063408977
 20
141.6920638502153054
 30
0.0
 40
0.1081430308133828
 50
74.8833433553348016
 51
88.2906377959406541
  0
ARC
  5
1032F
  8
0
 10
302.6107329607040128
 20
141.9226251314995011
 30
0.0
 40
0.122486024849896
 50
261.6411792587487071
 51
271.0263338322582172
  0
ARC
  5
10330
  8
0
 10
302.5972343177318749
 20
141.8241355468333893
 30
0.0
 40
0.023100419036449
 50
242.072243750593401
 51
259.2535079261563169
  0
ARC
  5
10331
  8
0
 10
302.5886843590927242
 20
141.8091385907704876
 30
0.0
 40
0.0058695878446662
 50
191.218439578395305
 51
247.2556004483575123
  0
LINE
  5
10332
  8
0
 10
302.6379031624470031
 20
141.7964647923726886
 30
0.0
 11
302.6379179641469932
 21
141.9162605831012911
 31
0.0
  0
LINE
  5
10333
  8
0
 10
302.6679269238470056
 20
141.9162605831012911
 30
0.0
 11
302.6379179641469932
 21
141.9162605831012911
 31
0.0
  0
ARC
  5
10334
  8
0
 10
302.6078010564327201
 20
141.8759407141384941
 30
0.0
 40
0.0503261359876927
 50
53.2421243388008278
 51
86.8759566243834342
  0
ARC
  5
10335
  8
0
 10
302.6786913107039254
 20
143.2679443878905943
 30
0.0
 40
1.3434818210750421
 50
266.722463637888211
 51
267.0924462708774172
  0
ARC
  5
10336
  8
0
 10
302.6029499114470127
 20
141.946604319901212
 30
0.0
 40
0.0199728577999689
 50
211.1908011139717871
 51
266.9320261513295804
  0
LINE
  5
10337
  8
0
 10
302.6051981344469937
 20
141.9264742404020865
 30
0.0
 11
302.6051981344469937
 21
141.9362605831013013
 31
0.0
  0
LINE
  5
10338
  8
0
 10
302.6105444145470074
 20
141.8354769907329
 30
0.0
 11
302.6105444145470074
 21
141.926192022078709
 31
0.0
  0
LINE
  5
10339
  8
0
 10
302.6129269238469988
 20
141.8001587573012898
 30
0.0
 11
302.6129269238469988
 21
141.82376058310129
 31
0.0
  0
ARC
  5
1033A
  8
0
 10
302.5829269237726749
 20
141.82376058310129
 30
0.0
 40
0.0300000000742955
 50
0.0000000000024427
 51
70.528779265182763
  0
ARC
  5
1033B
  8
0
 10
302.5979269239035716
 20
141.8661869901063994
 30
0.0
 40
0.015000000095553
 50
180.0
 51
250.528779265179395
  0
LINE
  5
1033C
  8
0
 10
294.6364308608469855
 20
145.4642369610214985
 30
0.0
 11
294.6364308608469855
 21
145.3658117642214904
 31
0.0
  0
LINE
  5
1033D
  8
0
 10
302.6087119632470035
 20
141.7862778577012932
 30
0.0
 11
302.600048466946987
 21
141.7864505218012994
 31
0.0
  0
LINE
  5
1033E
  8
0
 10
302.6087119632470035
 20
142.7162433085013049
 30
0.0
 11
302.600048466946987
 21
142.7160706444012988
 31
0.0
  0
LINE
  5
1033F
  8
0
 10
302.6679269238470056
 20
132.517874756357287
 30
0.0
 11
302.6220591965470135
 21
132.5178747563153081
 31
0.0
  0
ARC
  5
10340
  8
0
 10
302.6220591965516178
 20
132.5128749494475926
 30
0.0
 40
0.0049998068677759
 50
90.0000000524489252
 51
160.4770257427329909
  0
ARC
  5
10341
  8
0
 10
302.6079016264874895
 20
132.5178947975857966
 30
0.0
 40
0.0100213670360832
 50
273.1384394607338209
 51
340.4770257427272782
  0
ARC
  5
10342
  8
0
 10
303.966708108114176
 20
107.7361530578893962
 30
0.0
 40
24.8089447417186904
 50
93.1384394607337924
 51
93.1584752116939825
  0
ARC
  5
10343
  8
0
 10
302.6031290254650798
 20
132.4468650464766881
 30
0.0
 40
0.0606390442057716
 50
93.1584752116939825
 51
123.6796306297084982
  0
ARC
  5
10344
  8
0
 10
302.6019818635425054
 20
131.8416734376149009
 30
0.0
 40
0.1260262112477246
 50
90.8790219878703027
 51
104.9351290870500009
  0
ARC
  5
10345
  8
0
 10
302.609678928833489
 20
131.9898388349648997
 30
0.0
 40
0.0220026114695956
 50
267.4811673183805851
 51
304.2405969170869753
  0
LINE
  5
10346
  8
0
 10
302.6679269238470056
 20
131.9716496700528126
 30
0.0
 11
302.6220591220470055
 21
131.971649669852809
 31
0.0
  0
ARC
  5
10347
  8
0
 10
302.6227888124375909
 20
131.9770979420551953
 30
0.0
 40
0.0054969189605103
 50
188.0990844874862944
 51
262.3717358866404084
  0
LINE
  5
10348
  8
0
 10
302.6173467202469851
 20
131.9763235063593072
 30
0.0
 11
302.6173468407470182
 21
132.5145458089527892
 31
0.0
  0
LINE
  5
10349
  8
0
 10
302.6679269238470056
 20
131.7514073747528016
 30
0.0
 11
302.5695017270469975
 21
131.7514073747528016
 31
0.0
  0
LINE
  5
1034A
  8
0
 10
302.5695017270469975
 20
131.7814073747528028
 30
0.0
 11
302.6679269238470056
 21
131.7814073747528028
 31
0.0
  0
LINE
  5
1034B
  8
0
 10
302.6393756214470159
 20
131.7814073747528028
 30
0.0
 11
302.6393756214470159
 21
131.7514073747528016
 31
0.0
  0
LINE
  5
1034C
  8
0
 10
302.5953856428470203
 20
131.8178747563528077
 30
0.0
 11
302.5953856428470203
 21
131.7814073747528028
 31
0.0
  0
LINE
  5
1034D
  8
0
 10
302.5695017270469975
 20
131.8178747563528077
 30
0.0
 11
302.6679269238470056
 21
131.8178747563528077
 31
0.0
  0
LINE
  5
1034E
  8
0
 10
302.582926923847026
 20
131.8256671166986109
 30
0.0
 11
302.582926923847026
 21
131.8256671166986109
 31
0.0
  0
LINE
  5
1034F
  8
0
 10
302.582926923847026
 20
131.8178747563528077
 30
0.0
 11
302.582926923847026
 21
131.9461386772528044
 31
0.0
  0
LINE
  5
10350
  8
0
 10
302.6679269238470056
 20
131.9576763698962907
 30
0.0
 11
302.6379031624470031
 21
131.957670547081392
 31
0.0
  0
ARC
  5
10351
  8
0
 10
302.609701063408977
 20
132.0620714892388037
 30
0.0
 40
0.1081430308133828
 50
271.709362204062586
 51
285.1166566446652268
  0
ARC
  5
10352
  8
0
 10
302.6107329607040128
 20
131.8315102079546079
 30
0.0
 40
0.122486024849896
 50
88.9736661677418113
 51
98.358820741251364
  0
ARC
  5
10353
  8
0
 10
302.5972343177318749
 20
131.9299997926206913
 30
0.0
 40
0.023100419036449
 50
100.7464920738436973
 51
117.927756249406599
  0
ARC
  5
10354
  8
0
 10
302.5886843590927242
 20
131.9449967486835078
 30
0.0
 40
0.0058695878446662
 50
112.7443995516425019
 51
168.7815604216046097
  0
LINE
  5
10355
  8
0
 10
302.6379031624470031
 20
131.957670547081392
 30
0.0
 11
302.6379179641469932
 21
131.8378747563527895
 31
0.0
  0
LINE
  5
10356
  8
0
 10
302.6679269238470056
 20
131.8378747563527895
 30
0.0
 11
302.6379179641469932
 21
131.8378747563527895
 31
0.0
  0
ARC
  5
10357
  8
0
 10
302.6078010564327201
 20
131.8781946253155866
 30
0.0
 40
0.0503261359876927
 50
273.1240433756166226
 51
306.7578756611991935
  0
ARC
  5
10358
  8
0
 10
302.6786913107039254
 20
130.4861909515634011
 30
0.0
 40
1.3434818210750421
 50
92.9075537291258087
 51
93.2775363621117748
  0
ARC
  5
10359
  8
0
 10
302.6029499114470127
 20
131.8075310195528118
 30
0.0
 40
0.0199728577999689
 50
93.0679738486703769
 51
148.8091988860282129
  0
LINE
  5
1035A
  8
0
 10
302.6051981344469937
 20
131.8276610990519089
 30
0.0
 11
302.6051981344469937
 21
131.8178747563528077
 31
0.0
  0
LINE
  5
1035B
  8
0
 10
302.6105444145470074
 20
131.918658348721209
 30
0.0
 11
302.6105444145470074
 21
131.8279433173752864
 31
0.0
  0
LINE
  5
1035C
  8
0
 10
302.6129269238469988
 20
131.9539765821527908
 30
0.0
 11
302.6129269238469988
 21
131.9303747563527907
 31
0.0
  0
ARC
  5
1035D
  8
0
 10
302.5829269237726749
 20
131.9303747563527907
 30
0.0
 40
0.0300000000742955
 50
289.4712207348172228
 51
359.9999999999984084
  0
ARC
  5
1035E
  8
0
 10
302.5979269239035716
 20
131.8879483493477096
 30
0.0
 40
0.015000000095553
 50
109.471220734820605
 51
180.0
  0
LINE
  5
1035F
  8
0
 10
302.6679269238470056
 20
130.4878747563421086
 30
0.0
 11
302.6220591965470135
 21
130.4878747563840875
 31
0.0
  0
ARC
  5
10360
  8
0
 10
302.6220591965516178
 20
130.4928745632518883
 30
0.0
 40
0.0049998068677759
 50
199.5229742572670091
 51
269.999999947551089
  0
ARC
  5
10361
  8
0
 10
302.6079016264874895
 20
130.4878547151137127
 30
0.0
 40
0.0100213670360832
 50
19.5229742572726899
 51
86.8615605392662076
  0
ARC
  5
10362
  8
0
 10
303.966708108114176
 20
155.2695964548099994
 30
0.0
 40
24.8089447417186904
 50
266.841524788306117
 51
266.8615605392661791
  0
ARC
  5
10363
  8
0
 10
302.6031290254650798
 20
130.5588844662227075
 30
0.0
 40
0.0606390442057716
 50
236.3203693702915018
 51
266.8415247883028201
  0
ARC
  5
10364
  8
0
 10
302.6019818635425054
 20
131.1640760750906907
 30
0.0
 40
0.1260262112477246
 50
255.0648709129499991
 51
269.1209780121296831
  0
ARC
  5
10365
  8
0
 10
302.609678928833489
 20
131.0159106777406066
 30
0.0
 40
0.0220026114695956
 50
55.7594030829130105
 51
92.5188326816193154
  0
LINE
  5
10366
  8
0
 10
302.6679269238470056
 20
131.0340998426528074
 30
0.0
 11
302.6220591220470055
 21
131.034099842852811
 31
0.0
  0
ARC
  5
10367
  8
0
 10
302.6227888124375909
 20
131.028651570650311
 30
0.0
 40
0.0054969189605103
 50
97.6282641133596343
 51
171.9009155125137056
  0
LINE
  5
10368
  8
0
 10
302.6173467202469851
 20
131.0294260063461991
 30
0.0
 11
302.6173468407470182
 21
130.4912037037466916
 31
0.0
  0
LINE
  5
10369
  8
0
 10
302.6679269238470056
 20
131.2214073747528005
 30
0.0
 11
302.5695017270469975
 21
131.2214073747528005
 31
0.0
  0
LINE
  5
1036A
  8
0
 10
302.5695017270469975
 20
131.1914073747527993
 30
0.0
 11
302.6679269238470056
 21
131.1914073747527993
 31
0.0
  0
LINE
  5
1036B
  8
0
 10
302.6393756214470159
 20
131.1914073747527993
 30
0.0
 11
302.6393756214470159
 21
131.2214073747528005
 31
0.0
  0
LINE
  5
1036C
  8
0
 10
302.5953856428470203
 20
131.1878747563528123
 30
0.0
 11
302.5953856428470203
 21
131.1914073747527993
 31
0.0
  0
LINE
  5
1036D
  8
0
 10
302.5695017270469975
 20
131.1878747563528123
 30
0.0
 11
302.6679269238470056
 21
131.1878747563528123
 31
0.0
  0
LINE
  5
1036E
  8
0
 10
302.582926923847026
 20
131.180082396007009
 30
0.0
 11
302.582926923847026
 21
131.180082396007009
 31
0.0
  0
LINE
  5
1036F
  8
0
 10
302.582926923847026
 20
131.1878747563528123
 30
0.0
 11
302.582926923847026
 21
131.0596108354527871
 31
0.0
  0
LINE
  5
10370
  8
0
 10
302.6679269238470056
 20
131.0480731428093009
 30
0.0
 11
302.6379031624470031
 21
131.0480789656241996
 31
0.0
  0
ARC
  5
10371
  8
0
 10
302.609701063408977
 20
130.9436780234667026
 30
0.0
 40
0.1081430308133828
 50
74.8833433553348016
 51
88.2906377959406541
  0
ARC
  5
10372
  8
0
 10
302.6107329607040128
 20
131.174239304751012
 30
0.0
 40
0.122486024849896
 50
261.6411792587487071
 51
271.0263338322582172
  0
ARC
  5
10373
  8
0
 10
302.5972343177318749
 20
131.0757497200849002
 30
0.0
 40
0.023100419036449
 50
242.072243750593401
 51
259.2535079261563169
  0
ARC
  5
10374
  8
0
 10
302.5886843590927242
 20
131.0607527640219985
 30
0.0
 40
0.0058695878446662
 50
191.218439578395305
 51
247.2556004483575123
  0
LINE
  5
10375
  8
0
 10
302.6379031624470031
 20
131.0480789656241996
 30
0.0
 11
302.6379179641469932
 21
131.167874756352802
 31
0.0
  0
LINE
  5
10376
  8
0
 10
302.6679269238470056
 20
131.167874756352802
 30
0.0
 11
302.6379179641469932
 21
131.167874756352802
 31
0.0
  0
ARC
  5
10377
  8
0
 10
302.6078010564327201
 20
131.127554887390005
 30
0.0
 40
0.0503261359876927
 50
53.2421243388008278
 51
86.8759566243834342
  0
ARC
  5
10378
  8
0
 10
302.6786913107039254
 20
132.5195585611421052
 30
0.0
 40
1.3434818210750421
 50
266.722463637888211
 51
267.0924462708774172
  0
ARC
  5
10379
  8
0
 10
302.6029499114470127
 20
131.1982184931526945
 30
0.0
 40
0.0199728577999689
 50
211.1908011139717871
 51
266.9320261513295804
  0
LINE
  5
1037A
  8
0
 10
302.6051981344469937
 20
131.1780884136535974
 30
0.0
 11
302.6051981344469937
 21
131.1878747563528123
 31
0.0
  0
LINE
  5
1037B
  8
0
 10
302.6105444145470074
 20
131.087091163984411
 30
0.0
 11
302.6105444145470074
 21
131.1778061953301915
 31
0.0
  0
LINE
  5
1037C
  8
0
 10
302.6129269238469988
 20
131.0517729305528007
 30
0.0
 11
302.6129269238469988
 21
131.0753747563528009
 31
0.0
  0
ARC
  5
1037D
  8
0
 10
302.5829269237726749
 20
131.0753747563528009
 30
0.0
 40
0.0300000000742955
 50
0.0000000000024427
 51
70.528779265182763
  0
ARC
  5
1037E
  8
0
 10
302.5979269239035716
 20
131.1178011633577967
 30
0.0
 40
0.015000000095553
 50
180.0
 51
250.528779265179395
  0
LINE
  5
1037F
  8
0
 10
302.6087119632470035
 20
131.0378920309528041
 30
0.0
 11
302.600048466946987
 21
131.0380646950528103
 31
0.0
  0
LINE
  5
10380
  8
0
 10
302.6087119632470035
 20
131.9678574817527874
 30
0.0
 11
302.600048466946987
 21
131.9676848176528097
 31
0.0
  0
LINE
  5
10381
  8
0
 10
302.6679269238470056
 20
129.2432763311215069
 30
0.0
 11
302.56950172694701
 21
129.2432763311215069
 31
0.0
  0
LINE
  5
10382
  8
0
 10
292.667926927494193
 20
122.0571503468215013
 30
0.0
 11
262.9510496173185174
 21
92.5575397979936554
 31
0.0
  0
ENDBLK
  5
10386
  8
0
  0
ENDSEC
  0
SECTION
  2
ENTITIES
  0
ATTDEF
  5
829
  8
DEFPOINTS
 10
2385.7800029026921038
 20
408.7629323587428871
 30
0.0
 40
0.001
  1
K-40639-BD1
  3

  2
MODELNUMBER
 70
     0
1001
ACDBATTR
1070
     0
1070
     1
  0
ATTDEF
  5
82A
  8
DEFPOINTS
 10
2385.7800029026921038
 20
408.7612656920762788
 30
0.0
 40
0.001
  1
KOHLER
  3

  2
BRANDNAME
 70
     0
1001
ACDBATTR
1070
     0
1070
     1
  0
ATTDEF
  5
82B
  8
DEFPOINTS
 10
2385.7800029026921038
 20
408.7595990254095
 30
0.0
 40
0.001
  1
VANITY CABINET
  3

  2
PRODUCT
 70
     0
1001
ACDBATTR
1070
     0
1070
     1
  0
LINE
  5
136F4
  8
0
 10
2377.2016796052330392
 20
391.4749890383970978
 30
0.0
 11
2377.2016796269999759
 21
402.1505875962017171
 31
0.0
  0
LINE
  5
136F5
  8
0
 10
2393.7764827736750703
 20
390.929987928795299
 30
0.0
 11
2377.7922307888338764
 21
390.929987928795299
 31
0.0
  0
ARC
  5
136F6
  8
0
 10
2377.7929210033089475
 20
391.5231905044211089
 30
0.0
 40
0.5932029771715606
 50
184.6607802803756044
 51
269.9333341422703256
  0
LINE
  5
136F7
  8
0
 10
2393.7764827736550615
 20
402.7409879288952084
 30
0.0
 11
2377.7922307888338764
 21
402.7409879288952084
 31
0.0
  0
ARC
  5
136F8
  8
0
 10
2377.7922307888338764
 20
402.150436747795311
 30
0.0
 40
0.59055118109994
 50
90.0
 51
179.9853645587303959
  0
LINE
  5
136F9
  8
0
 10
2394.3670339547747972
 20
391.5205391098951964
 30
0.0
 11
2394.3670339547747972
 21
402.150436747795311
 31
0.0
  0
ARC
  5
136FA
  8
0
 10
2393.779152116151181
 20
402.1531060902706258
 30
0.0
 40
0.5878878988157256
 50
359.7398439672680865
 51
90.2601560338458171
  0
ARC
  5
136FB
  8
0
 10
2393.7764827736750703
 20
391.5205391098951964
 30
0.0
 40
0.5905511811000252
 50
270.0
 51
0.0
  0
CIRCLE
  5
136FC
  8
0
 10
2385.7843567894751686
 20
399.5796099761951723
 30
0.0
 40
1.16801340820001
  0
CIRCLE
  5
136FD
  8
0
 10
2385.7843567894751686
 20
399.5796091534953121
 30
0.0
 40
0.8267724761999788
  0
CIRCLE
  5
136FE
  8
0
 10
2385.7843567894751686
 20
405.615003676895185
 30
0.0
 40
0.6899999999999999
  0
POINT
  5
136FF
  8
DEFPOINTS
 10
2385.7843567894751686
 20
405.615003676895185
 30
0.0
  0
LINE
  5
13700
  8
0
 10
2381.394592902828208
 20
385.8318540705952273
 30
0.0
 11
2381.394592902828208
 21
386.3236650942952792
 31
0.0
  0
LINE
  5
13701
  8
0
 10
2390.1541204619279597
 20
385.8118540705953023
 30
0.0
 11
2381.4145929028281898
 21
385.8118540705953023
 31
0.0
  0
LINE
  5
13702
  8
0
 10
2390.1741204619279415
 20
385.8318540705952273
 30
0.0
 11
2390.1741204619279415
 21
386.3236650942952792
 31
0.0
  0
ARC
  5
13703
  8
0
 10
2390.1541204619279597
 20
385.8318540705952273
 30
0.0
 40
0.02
 50
269.9999999999478746
 51
0.0000000000618809
  0
ARC
  5
13704
  8
0
 10
2381.4145929028281898
 20
385.8318540705952273
 30
0.0
 40
0.02
 50
179.9999999999575948
 51
270.0
  0
LINE
  5
13705
  8
0
 10
2384.2292385722280414
 20
386.3236650942952792
 30
0.0
 11
2384.2292385722280414
 21
386.0874760701822197
 31
0.0
  0
LINE
  5
13706
  8
0
 10
2384.9378999895279776
 20
386.0874716595154723
 30
0.0
 11
2384.9378999895270681
 21
386.3236650942952792
 31
0.0
  0
LINE
  5
13707
  8
0
 10
2386.6308133753282164
 20
386.3236650942952792
 30
0.0
 11
2386.6308133753282164
 21
386.0874611229227753
 31
0.0
  0
LINE
  5
13708
  8
0
 10
2387.3394747926281525
 20
386.3236650942952792
 30
0.0
 11
2387.3394747926281525
 21
386.0874567122560848
 31
0.0
  0
LINE
  5
13709
  8
0
 10
2382.2860733552279271
 20
386.0874881643273966
 30
0.0
 11
2389.2826430488771621
 21
386.0874446180919222
 31
0.0
  0
LINE
  5
1370A
  8
0
 10
2382.0971781967277821
 20
386.3236650942952792
 30
0.0
 11
2382.0971781967277821
 21
386.2055548580952973
 31
0.0
  0
LINE
  5
1370B
  8
0
 10
2389.268608141454024
 20
386.3236650942952792
 30
0.0
 11
2389.2686083702278665
 21
386.2055548542919041
 31
0.0
  0
ARC
  5
1370C
  8
0
 10
2389.1504976319210982
 20
386.2055552971979751
 30
0.0
 40
0.1181107383075639
 50
285.5511288946091781
 51
359.9997851452844202
  0
LINE
  5
1370D
  8
0
 10
2389.4715351681279571
 20
386.3236650942952792
 30
0.0
 11
2389.4715351681279571
 21
386.2055548546986756
 31
0.0
  0
CIRCLE
  5
1370E
  8
0
 10
2381.7843567894751686
 20
405.615003676895185
 30
0.0
 40
0.6899999999999999
  0
CIRCLE
  5
1370F
  8
0
 10
2389.7843567894751686
 20
405.615003676895185
 30
0.0
 40
0.6899999999999999
  0
ARC
  5
13710
  8
0
 10
2385.7843594420228328
 20
593.997644866547148
 30
0.0
 40
191.4744951437016027
 50
269.217374706305975
 51
270.7826184957783084
  0
LINE
  5
13711
  8
0
 10
2404.2303567894750813
 20
386.3236650942952792
 30
0.0
 11
2367.3383567894748012
 21
386.3236650942952792
 31
0.0
  0
LINE
  5
13712
  8
0
 10
2404.2693567894748412
 20
386.3626650942953233
 30
0.0
 11
2404.2303567894750813
 21
386.3236650942952792
 31
0.0
  0
LINE
  5
13713
  8
0
 10
2367.3383567894748012
 20
386.3236650942952792
 30
0.0
 11
2367.2993567894750413
 21
386.3626650942953233
 31
0.0
  0
LINE
  5
13714
  8
0
 10
2404.2303567894750813
 20
408.7646099761951746
 30
0.0
 11
2404.2303567894750813
 21
386.3626650942953233
 31
0.0
  0
LINE
  5
13715
  8
0
 10
2404.2303567894750813
 20
386.3626650942953233
 30
0.0
 11
2367.3383567894748012
 21
386.3626650942953233
 31
0.0
  0
LINE
  5
13716
  8
0
 10
2367.3383567894748012
 20
386.3626650942953233
 30
0.0
 11
2367.3383567894748012
 21
408.7646099761951746
 31
0.0
  0
LINE
  5
13717
  8
0
 10
2404.2303567894750813
 20
386.3626650942953233
 30
0.0
 11
2404.2498567894749613
 21
386.3431650942952729
 31
0.0
  0
LINE
  5
13718
  8
0
 10
2367.3383567894748012
 20
386.3626650942953233
 30
0.0
 11
2367.3188567894749212
 21
386.3431650942952729
 31
0.0
  0
LINE
  5
13719
  8
0
 10
2367.3787268682758622
 20
408.7246099761953246
 30
0.0
 11
2404.1899867107758837
 21
408.7246099761953246
 31
0.0
  0
LINE
  5
1371A
  8
0
 10
2404.1899867107758837
 20
408.7246099761953246
 30
0.0
 11
2404.1899867107758837
 21
408.0959485587952145
 31
0.0
  0
LINE
  5
1371B
  8
0
 10
2404.1899867107758837
 20
408.0959485587952145
 30
0.0
 11
2367.3787268682758622
 21
408.0959485587952145
 31
0.0
  0
LINE
  5
1371C
  8
0
 10
2404.2303567894750813
 20
408.0559485587953077
 30
0.0
 11
2367.3383567894748012
 21
408.0559485587953077
 31
0.0
  0
LINE
  5
1371D
  8
0
 10
2367.3787268682758622
 20
408.0959485587952145
 30
0.0
 11
2367.3787268682758622
 21
408.7246099761953246
 31
0.0
  0
LINE
  5
1371E
  8
0
 10
2404.1899867107758837
 20
408.7246099761953246
 30
0.0
 11
2404.2303567894750813
 21
408.7646099761951746
 31
0.0
  0
LINE
  5
1371F
  8
0
 10
2367.3787268682758622
 20
408.0959485587952145
 30
0.0
 11
2367.3383567894748012
 21
408.0559485587953077
 31
0.0
  0
LINE
  5
13720
  8
0
 10
2367.3787268682758622
 20
408.7246099761953246
 30
0.0
 11
2367.3383567894748012
 21
408.7646099761951746
 31
0.0
  0
LINE
  5
13721
  8
0
 10
2404.1899867107758837
 20
408.0959485587952145
 30
0.0
 11
2404.2303567894750813
 21
408.0559485587953077
 31
0.0
  0
ARC
  5
13722
  8
0
 10
2389.2820175847118662
 20
386.3348568431316039
 30
0.0
 40
0.2474130156327142
 50
270.1448448256347206
 51
298.0857624886691042
  0
ARC
  5
13723
  8
0
 10
2389.3516178738700546
 20
386.2295251234054945
 30
0.0
 40
0.1222895385713597
 50
292.541470886709817
 51
348.6961274366303769
  0
LINE
  5
13724
  8
0
 10
2382.3001052021281794
 20
386.3236650942952792
 30
0.0
 11
2382.3001052021281794
 21
386.2055548579953097
 31
0.0
  0
ARC
  5
13725
  8
0
 10
2382.418215438327934
 20
386.2055548579953097
 30
0.0
 40
0.1181102361999378
 50
179.9999999999870113
 51
268.4585710396710283
  0
ARC
  5
13726
  8
0
 10
2382.2113852009279071
 20
386.2248385710258844
 30
0.0
 40
0.1158235787424515
 50
189.5839256084929048
 51
249.1790125594270933
  0
ARC
  5
13727
  8
0
 10
2382.2879871148529674
 20
386.3403649716688051
 30
0.0
 40
0.2528840488585484
 50
242.243638795884408
 51
269.5663965494962895
  0
LINE
  5
13728
  8
0
 10
2367.2993567894750413
 20
386.3626650942953233
 30
0.0
 11
2367.2993567894750413
 21
408.7646099761951746
 31
0.0
  0
LINE
  5
13729
  8
0
 10
2404.2693567894748412
 20
386.3626650942953233
 30
0.0
 11
2404.2693567894748412
 21
408.7646099761951746
 31
0.0
  0
LINE
  5
1372A
  8
0
 10
2367.2993567894750413
 20
408.7646099761951746
 30
0.0
 11
2404.2693567894748412
 21
408.7646099761951746
 31
0.0
  0
ARC
  5
1372C
  8
0
 10
2385.6858640241061948
 20
390.7592819398676056
 30
0.0
 40
0.3532718421606265
 50
108.8811507303377937
 51
151.1044588387393048
  0
ARC
  5
1372D
  8
0
 10
2385.7791743596021661
 20
390.5450665592632049
 30
0.0
 40
0.5864633164570292
 50
89.4936849149564466
 51
110.7345993775711008
  0
ARC
  5
1372E
  8
0
 10
2385.8828495548441424
 20
390.7592819398676056
 30
0.0
 40
0.3532718421606265
 50
28.895541161260649
 51
71.1188492696621779
  0
ARC
  5
1372F
  8
0
 10
2385.7895392193481712
 20
390.5450665592632049
 30
0.0
 40
0.5864633164570292
 50
69.2654006224288139
 51
90.5063150850435534
  0
ARC
  5
13730
  8
0
 10
2387.9076904573898901
 20
448.8400508199196111
 30
0.0
 40
46.3016530859940616
 50
270.608821598190616
 51
275.3617563252007017
  0
ARC
  5
13731
  8
0
 10
2383.796215926001878
 20
452.5185322391766931
 30
0.0
 40
49.981455653084943
 50
264.822720234567214
 51
269.2809966548783223
  0
ENDSEC
  0
EOF
