  0
SECTION
  2
HEADER
  9
$ACADVER
  1
AC1009
  9
$INSBASE
 10
2515.1518997593898348
 20
392.9211100320179071
 30
0.0
  9
$EXTMIN
 10
2492.0259386255352183
 20
392.9139367349167173
 30
-0.0000000000000058
  9
$EXTMAX
 10
2515.2460310241399384
 20
432.7254906114890218
 30
0.0000000000000104
  9
$LIMMIN
 10
0.0
 20
0.0
  9
$LIMMAX
 10
11.6929133858000007
 20
8.2677165353999982
  9
$ORTHOMODE
 70
     1
  9
$REGENMODE
 70
     1
  9
$FILLMODE
 70
     1
  9
$QTEXTMODE
 70
     0
  9
$MIRRTEXT
 70
     0
  9
$DRAGMODE
 70
     2
  9
$LTSCALE
 40
0.6431102362
  9
$OSMODE
 70
  4095
  9
$ATTMODE
 70
     1
  9
$TEXTSIZE
 40
0.2
  9
$TRACEWID
 40
0.05
  9
$TEXTSTYLE
  7
STANDARD
  9
$CLAYER
  8
0
  9
$CELTYPE
  6
BYLAYER
  9
$CECOLOR
 62
   256
  9
$DIMSCALE
 40
1.0
  9
$DIMASZ
 40
0.1875
  9
$DIMEXO
 40
0.0625
  9
$DIMDLI
 40
0.4443307087
  9
$DIMRND
 40
0.0
  9
$DIMDLE
 40
0.0
  9
$DIMEXE
 40
0.125
  9
$DIMTP
 40
0.01
  9
$DIMTM
 40
0.01
  9
$DIMTXT
 40
1.0
  9
$DIMCEN
 40
0.1052362205
  9
$DIMTSZ
 40
0.0
  9
$DIMTOL
 70
     1
  9
$DIMLIM
 70
     0
  9
$DIMTIH
 70
     0
  9
$DIMTOH
 70
     1
  9
$DIMSE1
 70
     0
  9
$DIMSE2
 70
     0
  9
$DIMTAD
 70
     0
  9
$DIMZIN
 70
     0
  9
$DIMBLK
  1

  9
$DIMASO
 70
     1
  9
$DIMSHO
 70
     1
  9
$DIMPOST
  1
\X
  9
$DIMAPOST
  1

  9
$DIMALT
 70
     1
  9
$DIMALTD
 70
     2
  9
$DIMALTF
 40
25.3999999999999986
  9
$DIMLFAC
 40
1.0
  9
$DIMTOFL
 70
     0
  9
$DIMTVP
 40
0.0
  9
$DIMTIX
 70
     0
  9
$DIMSOXD
 70
     0
  9
$DIMSAH
 70
     0
  9
$DIMBLK1
  1

  9
$DIMBLK2
  1

  9
$DIMSTYLE
  2
STANDARD
  9
$DIMCLRD
 70
     0
  9
$DIMCLRE
 70
     0
  9
$DIMCLRT
 70
     0
  9
$DIMTFAC
 40
1.0
  9
$DIMGAP
 40
0.09
  9
$LUNITS
 70
     2
  9
$LUPREC
 70
     4
  9
$SKETCHINC
 40
0.1
  9
$FILLETRAD
 40
0.0
  9
$AUNITS
 70
     0
  9
$AUPREC
 70
     0
  9
$MENU
  1
.
  9
$ELEVATION
 40
0.0
  9
$PELEVATION
 40
0.0
  9
$THICKNESS
 40
0.0
  9
$LIMCHECK
 70
     0
  9
$BLIPMODE
 70
     0
  9
$CHAMFERA
 40
0.0
  9
$CHAMFERB
 40
0.0
  9
$SKPOLY
 70
     0
  9
$TDCREATE
 40
2458172.5207638889551163
  9
$TDUPDATE
 40
2460944.0765277771279216
  9
$TDINDWG
 40
0.5515400694
  9
$TDUSRTIMER
 40
0.5515400694
  9
$USRTIMER
 70
     1
  9
$ANGBASE
 50
0.0
  9
$ANGDIR
 70
     0
  9
$PDMODE
 70
     0
  9
$PDSIZE
 40
0.3125
  9
$PLINEWID
 40
0.0
  9
$COORDS
 70
     1
  9
$SPLFRAME
 70
     0
  9
$SPLINETYPE
 70
     6
  9
$SPLINESEGS
 70
     8
  9
$ATTDIA
 70
     1
  9
$ATTREQ
 70
     1
  9
$HANDLING
 70
     1
  9
$HANDSEED
  5
14EF0
  9
$SURFTAB1
 70
     6
  9
$SURFTAB2
 70
     6
  9
$SURFTYPE
 70
     6
  9
$SURFU
 70
     6
  9
$SURFV
 70
     6
  9
$UCSNAME
  2

  9
$UCSORG
 10
0.0
 20
0.0
 30
0.0
  9
$UCSXDIR
 10
1.0
 20
0.0
 30
0.0
  9
$UCSYDIR
 10
0.0
 20
1.0
 30
0.0
  9
$PUCSNAME
  2

  9
$PUCSORG
 10
0.0
 20
0.0
 30
0.0
  9
$PUCSXDIR
 10
1.0
 20
0.0
 30
0.0
  9
$PUCSYDIR
 10
0.0
 20
1.0
 30
0.0
  9
$USERI1
 70
     0
  9
$USERI2
 70
     0
  9
$USERI3
 70
     0
  9
$USERI4
 70
     0
  9
$USERI5
 70
     0
  9
$USERR1
 40
0.0
  9
$USERR2
 40
0.0
  9
$USERR3
 40
0.0
  9
$USERR4
 40
0.0
  9
$USERR5
 40
0.0
  9
$WORLDVIEW
 70
     1
  9
$SHADEDGE
 70
     3
  9
$SHADEDIF
 70
    70
  9
$TILEMODE
 70
     1
  9
$MAXACTVP
 70
    64
  9
$PLIMCHECK
 70
     0
  9
$PEXTMIN
 10
1.0000000000000000E+20
 20
1.0000000000000000E+20
 30
1.0000000000000000E+20
  9
$PEXTMAX
 10
-1.0000000000000000E+20
 20
-1.0000000000000000E+20
 30
-1.0000000000000000E+20
  9
$PLIMMIN
 10
0.0
 20
0.0
  9
$PLIMMAX
 10
12.0
 20
9.0
  9
$UNITMODE
 70
     0
  9
$VISRETAIN
 70
     1
  9
$PLINEGEN
 70
     0
  9
$PSLTSCALE
 70
     1
  0
ENDSEC
  0
SECTION
  2
TABLES
  0
TABLE
  2
VPORT
 70
     1
  0
VPORT
  2
*ACTIVE
 70
     0
 10
0.0
 20
0.0
 11
1.0
 21
1.0
 12
2036.893783117006933
 22
323.68656655327311
 13
0.0
 23
0.0
 14
1.0
 24
1.0
 15
0.0
 25
0.0
 16
0.0
 26
0.0
 36
24.1179433675886514
 17
466.74220170783002
 27
89.133147119929788
 37
0.0
 40
40.0870663601472117
 41
2.204387990762124
 42
50.0
 43
0.0
 44
0.0
 50
0.0
 51
0.0
 71
     0
 72
   100
 73
     1
 74
     1
 75
     0
 76
     0
 77
     0
 78
     0
  0
ENDTAB
  0
TABLE
  2
LTYPE
 70
     2
  0
LTYPE
  2
CONTINUOUS
 70
     0
  3
Solid line
 72
    65
 73
     0
 40
0.0
  0
LTYPE
  2
PHANTOM2
 70
     0
  3
___ _ _ ___ _ _ ___ _ _ ___ _ _
 72
    65
 73
     6
 40
1.25
 49
0.625
 49
-0.125
 49
0.125
 49
-0.125
 49
0.125
 49
-0.125
  0
ENDTAB
  0
TABLE
  2
LAYER
 70
     2
  0
LAYER
  2
0
 70
     0
 62
   255
  6
CONTINUOUS
  0
LAYER
  2
DEFPOINTS
 70
     0
 62
     7
  6
CONTINUOUS
  0
ENDTAB
  0
TABLE
  2
STYLE
 70
     1
  0
STYLE
  2
STANDARD
 70
     0
 40
0.0
 41
0.8
 50
0.0
 71
     0
 42
0.2
  3
txt
  4

  0
ENDTAB
  0
TABLE
  2
VIEW
 70
     0
  0
ENDTAB
  0
TABLE
  2
UCS
 70
     0
  0
ENDTAB
  0
TABLE
  2
APPID
 70
    11
  0
APPID
  2
ACAD
 70
     0
  0
APPID
  2
ACAD_MLEADERVER
 70
     0
  0
APPID
  2
ACAD_EXEMPT_FROM_CAD_STANDARDS
 70
     0
  0
APPID
  2
ACAD_DSTYLE_DIMJAG
 70
     0
  0
APPID
  2
ACAD_DSTYLE_DIMTALN
 70
     0
  0
APPID
  2
ACAD_NAV_VCDISPLAY
 70
     0
  0
APPID
  2
ACAECLAYERSTANDARD
 70
     0
  0
APPID
  2
ACCMTRANSPARENCY
 70
     0
  0
APPID
  2
DCO15
 70
     0
  0
APPID
  2
ACDBATTR
 70
     0
  0
APPID
  2
ACADANNOTATIVE
 70
     0
  0
ENDTAB
  0
TABLE
  2
DIMSTYLE
 70
     1
  0
DIMSTYLE
  2
STANDARD
 70
     0
  3

  4

  5

  6

  7

 40
1.0
 41
0.1875
 42
0.0625
 43
0.38
 44
0.125
 45
0.0
 46
0.0
 47
0.01
 48
0.01
140
0.15625
141
0.09
142
0.0
143
25.3999999999999986
144
1.0
145
0.0
146
1.0
147
0.09
 71
     1
 72
     0
 73
     1
 74
     1
 75
     0
 76
     0
 77
     0
 78
     4
170
     0
171
     2
172
     0
173
     0
174
     0
175
     0
176
     0
177
     0
178
     0
  0
ENDTAB
  0
ENDSEC
  0
SECTION
  2
BLOCKS
  0
BLOCK
  8
0
  2
$MODEL_SPACE
 70
     0
 10
0.0
 20
0.0
 30
0.0
  3
$MODEL_SPACE
  1

  0
ENDBLK
  5
21
  8
0
  0
BLOCK
 67
     1
  8
0
  2
$PAPER_SPACE
 70
     0
 10
0.0
 20
0.0
 30
0.0
  3
$PAPER_SPACE
  1

  0
ENDBLK
  5
1D
 67
     1
  8
0
  0
BLOCK
  8
0
  2
_FILLED
 70
     0
 10
0.0
 20
0.0
 30
0.0
  3
_FILLED
  1

  0
SOLID
  5
DBD5
  8
0
  6
BYBLOCK
 62
     0
 10
0.0
 20
0.0
 30
0.0
 11
-1.0
 21
0.1666666667
 31
0.0
 12
-1.0
 22
-0.1666666667
 32
0.0
 13
-1.0
 23
-0.1666666667
 33
0.0
  0
ENDBLK
  5
DBD6
  8
0
  6
BYBLOCK
 62
     0
  0
BLOCK
  8
0
  2
A$CF46DDDAC
 70
     0
 10
0.0
 20
0.0
 30
0.0
  3
A$CF46DDDAC
  1

  0
LINE
  5
10043
  8
0
 10
280.2472970062942181
 20
161.8421897169214958
 30
0.0
 11
280.2072970062941977
 21
161.8021897169215038
 31
0.0
  0
LINE
  5
10044
  8
0
 10
280.2072970062941977
 20
161.8021897169215038
 30
0.0
 11
305.1285568487941759
 21
161.8021897169215038
 31
0.0
  0
LINE
  5
10045
  8
0
 10
305.1285568487941759
 20
161.8021897169215038
 30
0.0
 11
305.0885568487942123
 21
161.8421897169214958
 31
0.0
  0
LINE
  5
10046
  8
0
 10
305.0885568487942123
 20
161.8421897169214958
 30
0.0
 11
280.2472970062942181
 21
161.8421897169214958
 31
0.0
  0
LINE
  5
10047
  8
0
 10
280.2069269274941803
 20
157.8264416854215142
 30
0.0
 11
280.167926927494193
 21
157.7874416854214985
 31
0.0
  0
LINE
  5
10048
  8
0
 10
280.167926927494193
 20
157.7874416854214985
 30
0.0
 11
280.167926927494193
 21
156.6843393232215078
 31
0.0
  0
LINE
  5
10049
  8
0
 10
280.167926927494193
 20
156.6843393232215078
 30
0.0
 11
280.2069269274941803
 21
156.6453393232214921
 31
0.0
  0
LINE
  5
1004A
  8
0
 10
280.2069269274941803
 20
156.6453393232214921
 30
0.0
 11
305.1289269274942058
 21
156.6453393232214921
 31
0.0
  0
LINE
  5
1004B
  8
0
 10
305.1289269274942058
 20
156.6453393232214921
 30
0.0
 11
305.167926927494193
 21
156.6843393232215078
 31
0.0
  0
LINE
  5
1004C
  8
0
 10
305.167926927494193
 20
156.6843393232215078
 30
0.0
 11
305.167926927494193
 21
157.7874416854214985
 31
0.0
  0
LINE
  5
1004D
  8
0
 10
305.167926927494193
 20
157.7874416854214985
 30
0.0
 11
305.1289269274942058
 21
157.8264416854215142
 31
0.0
  0
LINE
  5
1004E
  8
0
 10
305.1289269274942058
 20
157.8264416854215142
 30
0.0
 11
280.2069269274941803
 21
157.8264416854215142
 31
0.0
  0
LINE
  5
1004F
  8
0
 10
280.2072970062941977
 20
161.8021897169215038
 30
0.0
 11
280.2072970062941977
 21
157.8264416854215142
 31
0.0
  0
LINE
  5
10050
  8
0
 10
305.1285568487941759
 20
161.8021897169215038
 30
0.0
 11
305.1285568487941759
 21
157.8264416854215142
 31
0.0
  0
LINE
  5
10051
  8
0
 10
280.206926820446995
 20
157.7874416854214985
 30
0.0
 11
305.1289268204470204
 21
157.7874416854214985
 31
0.0
  0
LINE
  5
10052
  8
0
 10
305.1289268204470204
 20
157.7874416854214985
 30
0.0
 11
305.1289268204470204
 21
156.6843393232215078
 31
0.0
  0
LINE
  5
10053
  8
0
 10
305.1289268204470204
 20
156.6843393232215078
 30
0.0
 11
280.206926820446995
 21
156.6843393232215078
 31
0.0
  0
LINE
  5
10054
  8
0
 10
280.206926820446995
 20
156.6843393232215078
 30
0.0
 11
280.206926820446995
 21
157.7874416854214985
 31
0.0
  0
LINE
  5
10055
  8
0
 10
305.1289268204470204
 20
156.6843393232215078
 30
0.0
 11
305.1484268739706067
 21
156.6648392696978931
 31
0.0
  0
LINE
  5
10056
  8
0
 10
305.1289268204470204
 20
157.7874416854214985
 30
0.0
 11
305.1484269274941994
 21
157.8069416854214921
 31
0.0
  0
LINE
  5
10057
  8
0
 10
280.206926820446995
 20
157.7874416854214985
 30
0.0
 11
280.187426873970594
 21
157.8069416318978995
 31
0.0
  0
LINE
  5
10058
  8
0
 10
280.206926820446995
 20
156.6843393232215078
 30
0.0
 11
280.187426873970594
 21
156.6648393767451068
 31
0.0
  0
LINE
  5
10059
  8
0
 10
280.6600528047470107
 20
156.6453393232214921
 30
0.0
 11
280.6600528047470107
 21
122.2752603468214971
 31
0.0
  0
LINE
  5
1005A
  8
0
 10
282.6679268204470077
 20
156.6453393232214921
 30
0.0
 11
282.6679268204470077
 21
122.2752603468214971
 31
0.0
  0
LINE
  5
1005B
  8
0
 10
280.6600528047470107
 20
122.2752603468214971
 30
0.0
 11
282.6679268204470077
 21
122.2752603468214971
 31
0.0
  0
LINE
  5
1005C
  8
0
 10
280.7781628047470122
 20
122.1571503468214956
 30
0.0
 11
282.5498168204470062
 21
122.1571503468214956
 31
0.0
  0
LINE
  5
1005D
  8
0
 10
280.6600528047470107
 20
122.2752603468214971
 30
0.0
 11
280.7781628047470122
 21
122.1571503468214956
 31
0.0
  0
LINE
  5
1005E
  8
0
 10
282.5498168204470062
 20
122.1571503468214956
 30
0.0
 11
282.6679268204470077
 21
122.2752603468214971
 31
0.0
  0
LINE
  5
1005F
  8
0
 10
281.2703087241080766
 20
122.0768353842132967
 30
0.0
 11
282.0576709144469874
 21
122.0768353842132967
 31
0.0
  0
LINE
  5
10060
  8
0
 10
281.2703087241080766
 20
122.0768353842132967
 30
0.0
 11
281.2703087241080766
 21
122.1571503468214956
 31
0.0
  0
LINE
  5
10061
  8
0
 10
281.2706422033081139
 20
122.1571503468214956
 30
0.0
 11
281.2706422033081139
 21
122.0768353842132967
 31
0.0
  0
LINE
  5
10062
  8
0
 10
281.2710542974082273
 20
122.0768353842132967
 30
0.0
 11
281.2710542974082273
 21
122.1571503468214956
 31
0.0
  0
LINE
  5
10063
  8
0
 10
281.2720538210082282
 20
122.1571503468214956
 30
0.0
 11
281.2720538210082282
 21
122.0768353842132967
 31
0.0
  0
LINE
  5
10064
  8
0
 10
281.2728768797080079
 20
122.0768353842132967
 30
0.0
 11
281.2728768797080079
 21
122.1571503468214956
 31
0.0
  0
LINE
  5
10065
  8
0
 10
281.2745397080082057
 20
122.1571503468214956
 30
0.0
 11
281.2745397080082057
 21
122.0768353842132967
 31
0.0
  0
LINE
  5
10066
  8
0
 10
281.275771475408078
 20
122.0768353842132967
 30
0.0
 11
281.275771475408078
 21
122.1571503468214956
 31
0.0
  0
LINE
  5
10067
  8
0
 10
281.2780930507079802
 20
122.1571503468214956
 30
0.0
 11
281.2780930507079802
 21
122.0768353842132967
 31
0.0
  0
LINE
  5
10068
  8
0
 10
281.2797301507081897
 20
122.0768353842132967
 30
0.0
 11
281.2797301507081897
 21
122.1571503468214956
 31
0.0
  0
LINE
  5
10069
  8
0
 10
281.2827041097082201
 20
122.1571503468214956
 30
0.0
 11
281.2827041097082201
 21
122.0768353842132967
 31
0.0
  0
LINE
  5
1006A
  8
0
 10
281.2847099525080807
 20
122.1571503468214956
 30
0.0
 11
281.2847099525080807
 21
122.0768353842132967
 31
0.0
  0
LINE
  5
1006B
  8
0
 10
281.2883602463081729
 20
122.1571503468214956
 30
0.0
 11
281.2883602463081729
 21
122.0768353842132967
 31
0.0
  0
LINE
  5
1006C
  8
0
 10
281.2907934510080281
 20
122.0768353842132967
 30
0.0
 11
281.2907934510080281
 21
122.1571503468214956
 31
0.0
  0
LINE
  5
1006D
  8
0
 10
281.2950459575080799
 20
122.1571503468214956
 30
0.0
 11
281.2950459575080799
 21
122.0768353842132967
 31
0.0
  0
LINE
  5
1006E
  8
0
 10
281.2978677524080808
 20
122.0768353842132967
 30
0.0
 11
281.2978677524080808
 21
122.1571503468214956
 31
0.0
  0
LINE
  5
1006F
  8
0
 10
281.3027429182080823
 20
122.1571503468214956
 30
0.0
 11
281.3027429182080823
 21
122.0768353842132967
 31
0.0
  0
LINE
  5
10070
  8
0
 10
281.3059455689081005
 20
122.0768353842132967
 30
0.0
 11
281.3059455689081005
 21
122.1571503468214956
 31
0.0
  0
LINE
  5
10071
  8
0
 10
281.3114300315082232
 20
122.1571503468214956
 30
0.0
 11
281.3114300315082232
 21
122.0768353842132967
 31
0.0
  0
LINE
  5
10072
  8
0
 10
281.3150047599079926
 20
122.0768353842132967
 30
0.0
 11
281.3150047599079926
 21
122.1571503468214956
 31
0.0
  0
LINE
  5
10073
  8
0
 10
281.3210834868081065
 20
122.1571503468214956
 30
0.0
 11
281.3210834868081065
 21
122.0768353842132967
 31
0.0
  0
LINE
  5
10074
  8
0
 10
281.3244759874082206
 20
122.0768353842132967
 30
0.0
 11
281.3244759874082206
 21
122.1571503468214956
 31
0.0
  0
LINE
  5
10075
  8
0
 10
281.3250204947079851
 20
122.0768353842132967
 30
0.0
 11
281.3250204947079851
 21
122.1571503468214956
 31
0.0
  0
LINE
  5
10076
  8
0
 10
281.3316768245081221
 20
122.1571503468214956
 30
0.0
 11
281.3316768245081221
 21
122.0768353842132967
 31
0.0
  0
LINE
  5
10077
  8
0
 10
281.3349621674079799
 20
122.0768353842132967
 30
0.0
 11
281.3349621674079799
 21
122.1571503468214956
 31
0.0
  0
LINE
  5
10078
  8
0
 10
281.3359653208080999
 20
122.0768353842132967
 30
0.0
 11
281.3359653208080999
 21
122.1571503468214956
 31
0.0
  0
LINE
  5
10079
  8
0
 10
281.3431810090082195
 20
122.1571503468214956
 30
0.0
 11
281.3431810090082195
 21
122.0768353842132967
 31
0.0
  0
LINE
  5
1007A
  8
0
 10
281.3463501893081116
 20
122.0768353842132967
 30
0.0
 11
281.3463501893081116
 21
122.1571503468214956
 31
0.0
  0
LINE
  5
1007B
  8
0
 10
281.3478092393081056
 20
122.0768353842132967
 30
0.0
 11
281.3478092393081056
 21
122.1571503468214956
 31
0.0
  0
LINE
  5
1007C
  8
0
 10
281.3555645082079764
 20
122.1571503468214956
 30
0.0
 11
281.3555645082079764
 21
122.0768353842132967
 31
0.0
  0
LINE
  5
1007D
  8
0
 10
281.3586088394080775
 20
122.0768353842132967
 30
0.0
 11
281.3586088394080775
 21
122.1571503468214956
 31
0.0
  0
LINE
  5
1007E
  8
0
 10
281.3605197868081973
 20
122.0768353842132967
 30
0.0
 11
281.3605197868081973
 21
122.1571503468214956
 31
0.0
  0
LINE
  5
1007F
  8
0
 10
281.3687933797082223
 20
122.1571503468214956
 30
0.0
 11
281.3687933797082223
 21
122.0768353842132967
 31
0.0
  0
LINE
  5
10080
  8
0
 10
281.3717045176081228
 20
122.0768353842132967
 30
0.0
 11
281.3717045176081228
 21
122.1571503468214956
 31
0.0
  0
LINE
  5
10081
  8
0
 10
281.3740621247080753
 20
122.0768353842132967
 30
0.0
 11
281.3740621247080753
 21
122.1571503468214956
 31
0.0
  0
LINE
  5
10082
  8
0
 10
281.382831364208073
 20
122.1571503468214956
 30
0.0
 11
281.382831364208073
 21
122.0768353842132967
 31
0.0
  0
LINE
  5
10083
  8
0
 10
281.385601329408189
 20
122.0768353842132967
 30
0.0
 11
281.385601329408189
 21
122.1571503468214956
 31
0.0
  0
LINE
  5
10084
  8
0
 10
281.3883991341079991
 20
122.0768353842132967
 30
0.0
 11
281.3883991341079991
 21
122.1571503468214956
 31
0.0
  0
LINE
  5
10085
  8
0
 10
281.3976399845082028
 20
122.1571503468214956
 30
0.0
 11
281.3976399845082028
 21
122.0768353842132967
 31
0.0
  0
LINE
  5
10086
  8
0
 10
281.4002611848080733
 20
122.0768353842132967
 30
0.0
 11
281.4002611848080733
 21
122.1571503468214956
 31
0.0
  0
LINE
  5
10087
  8
0
 10
281.4034915186081776
 20
122.0768353842132967
 30
0.0
 11
281.4034915186081776
 21
122.1571503468214956
 31
0.0
  0
LINE
  5
10088
  8
0
 10
281.4131786512082272
 20
122.1571503468214956
 30
0.0
 11
281.4131786512082272
 21
122.0768353842132967
 31
0.0
  0
LINE
  5
10089
  8
0
 10
281.4156439020081848
 20
122.0768353842132967
 30
0.0
 11
281.4156439020081848
 21
122.1571503468214956
 31
0.0
  0
LINE
  5
1008A
  8
0
 10
281.4192979107079964
 20
122.0768353842132967
 30
0.0
 11
281.4192979107079964
 21
122.1571503468214956
 31
0.0
  0
LINE
  5
1008B
  8
0
 10
281.4294047739080042
 20
122.1571503468214956
 30
0.0
 11
281.4294047739080042
 21
122.0768353842132967
 31
0.0
  0
LINE
  5
1008C
  8
0
 10
281.4317073182082254
 20
122.0768353842132967
 30
0.0
 11
281.4317073182082254
 21
122.1571503468214956
 31
0.0
  0
LINE
  5
1008D
  8
0
 10
281.4357749864082052
 20
122.0768353842132967
 30
0.0
 11
281.4357749864082052
 21
122.1571503468214956
 31
0.0
  0
LINE
  5
1008E
  8
0
 10
281.4462738779080837
 20
122.1571503468214956
 30
0.0
 11
281.4462738779080837
 21
122.0768353842132967
 31
0.0
  0
LINE
  5
1008F
  8
0
 10
281.4484074045080888
 20
122.0768353842132967
 30
0.0
 11
281.4484074045080888
 21
122.1571503468214956
 31
0.0
  0
LINE
  5
10090
  8
0
 10
281.4528775831080907
 20
122.0768353842132967
 30
0.0
 11
281.4528775831080907
 21
122.1571503468214956
 31
0.0
  0
LINE
  5
10091
  8
0
 10
281.4637397262080754
 20
122.1571503468214956
 30
0.0
 11
281.4637397262080754
 21
122.0768353842132967
 31
0.0
  0
LINE
  5
10092
  8
0
 10
281.4656983873080094
 20
122.0768353842132967
 30
0.0
 11
281.4656983873080094
 21
122.1571503468214956
 31
0.0
  0
LINE
  5
10093
  8
0
 10
281.4704546259080757
 20
122.1571503468214956
 30
0.0
 11
281.4704546259080757
 21
122.0768353842132967
 31
0.0
  0
LINE
  5
10094
  8
0
 10
281.481754446108198
 20
122.1571503468214956
 30
0.0
 11
281.481754446108198
 21
122.0768353842132967
 31
0.0
  0
LINE
  5
10095
  8
0
 10
281.4835328732081052
 20
122.0768353842132967
 30
0.0
 11
281.4835328732081052
 21
122.1571503468214956
 31
0.0
  0
LINE
  5
10096
  8
0
 10
281.4887702455081921
 20
122.0768353842132967
 30
0.0
 11
281.4887702455081921
 21
122.1571503468214956
 31
0.0
  0
LINE
  5
10097
  8
0
 10
281.5002686605081976
 20
122.1571503468214956
 30
0.0
 11
281.5002686605081976
 21
122.0768353842132967
 31
0.0
  0
LINE
  5
10098
  8
0
 10
281.5018619790081971
 20
122.0768353842132967
 30
0.0
 11
281.5018619790081971
 21
122.1571503468214956
 31
0.0
  0
LINE
  5
10099
  8
0
 10
281.5074619318081091
 20
122.0768353842132967
 30
0.0
 11
281.5074619318081091
 21
122.1571503468214956
 31
0.0
  0
LINE
  5
1009A
  8
0
 10
281.5192316232082135
 20
122.1571503468214956
 30
0.0
 11
281.5192316232082135
 21
122.0768353842132967
 31
0.0
  0
LINE
  5
1009B
  8
0
 10
281.5206354660081161
 20
122.0768353842132967
 30
0.0
 11
281.5206354660081161
 21
122.1571503468214956
 31
0.0
  0
LINE
  5
1009C
  8
0
 10
281.5265826502081268
 20
122.0768353842132967
 30
0.0
 11
281.5265826502081268
 21
122.1571503468214956
 31
0.0
  0
LINE
  5
1009D
  8
0
 10
281.5385913581080217
 20
122.1571503468214956
 30
0.0
 11
281.5385913581080217
 21
122.0768353842132967
 31
0.0
  0
LINE
  5
1009E
  8
0
 10
281.5398018773079798
 20
122.0768353842132967
 30
0.0
 11
281.5398018773079798
 21
122.1571503468214956
 31
0.0
  0
LINE
  5
1009F
  8
0
 10
281.5460799921081048
 20
122.0768353842132967
 30
0.0
 11
281.5460799921081048
 21
122.1571503468214956
 31
0.0
  0
LINE
  5
100A0
  8
0
 10
281.5582948015079978
 20
122.1571503468214956
 30
0.0
 11
281.5582948015079978
 21
122.0768353842132967
 31
0.0
  0
LINE
  5
100A1
  8
0
 10
281.5593086791081987
 20
122.0768353842132967
 30
0.0
 11
281.5593086791081987
 21
122.1571503468214956
 31
0.0
  0
LINE
  5
100A2
  8
0
 10
281.5659005167080977
 20
122.0768353842132967
 30
0.0
 11
281.5659005167080977
 21
122.1571503468214956
 31
0.0
  0
LINE
  5
100A3
  8
0
 10
281.578287947608203
 20
122.1571503468214956
 30
0.0
 11
281.578287947608203
 21
122.0768353842132967
 31
0.0
  0
LINE
  5
100A4
  8
0
 10
281.5791024047081805
 20
122.0768353842132967
 30
0.0
 11
281.5791024047081805
 21
122.1571503468214956
 31
0.0
  0
LINE
  5
100A5
  8
0
 10
281.5859898972079804
 20
122.0768353842132967
 30
0.0
 11
281.5859898972079804
 21
122.1571503468214956
 31
0.0
  0
LINE
  5
100A6
  8
0
 10
281.5985159966080005
 20
122.1571503468214956
 30
0.0
 11
281.5985159966080005
 21
122.0768353842132967
 31
0.0
  0
LINE
  5
100A7
  8
0
 10
281.5991288008079891
 20
122.0768353842132967
 30
0.0
 11
281.5991288008079891
 21
122.1571503468214956
 31
0.0
  0
LINE
  5
100A8
  8
0
 10
281.6062930701082223
 20
122.0768353842132967
 30
0.0
 11
281.6062930701082223
 21
122.1571503468214956
 31
0.0
  0
LINE
  5
100A9
  8
0
 10
281.6189235048080945
 20
122.1571503468214956
 30
0.0
 11
281.6189235048080945
 21
122.0768353842132967
 31
0.0
  0
LINE
  5
100AA
  8
0
 10
281.6193329765080193
 20
122.0768353842132967
 30
0.0
 11
281.6193329765080193
 21
122.1571503468214956
 31
0.0
  0
LINE
  5
100AB
  8
0
 10
281.6267543859079865
 20
122.0768353842132967
 30
0.0
 11
281.6267543859079865
 21
122.1571503468214956
 31
0.0
  0
LINE
  5
100AC
  8
0
 10
281.639454536708115
 20
122.1571503468214956
 30
0.0
 11
281.639454536708115
 21
122.0768353842132967
 31
0.0
  0
LINE
  5
100AD
  8
0
 10
281.6473177614080896
 20
122.0768353842132967
 30
0.0
 11
281.6473177614080896
 21
122.1571503468214956
 31
0.0
  0
LINE
  5
100AE
  8
0
 10
281.6600528181081131
 20
122.1571503468214956
 30
0.0
 11
281.6600528181081131
 21
122.0768353842132967
 31
0.0
  0
LINE
  5
100AF
  8
0
 10
281.6679268338082238
 20
122.0768353842132967
 30
0.0
 11
281.6679268338082238
 21
122.1571503468214956
 31
0.0
  0
LINE
  5
100B0
  8
0
 10
281.6806618905080768
 20
122.1571503468214956
 30
0.0
 11
281.6806618905080768
 21
122.0768353842132967
 31
0.0
  0
LINE
  5
100B1
  8
0
 10
281.6885251152082219
 20
122.0768353842132967
 30
0.0
 11
281.6885251152082219
 21
122.1571503468214956
 31
0.0
  0
LINE
  5
100B2
  8
0
 10
281.7012252660081231
 20
122.1571503468214956
 30
0.0
 11
281.7012252660081231
 21
122.0768353842132967
 31
0.0
  0
LINE
  5
100B3
  8
0
 10
281.7086466754079765
 20
122.0768353842132967
 30
0.0
 11
281.7086466754079765
 21
122.1571503468214956
 31
0.0
  0
LINE
  5
100B4
  8
0
 10
281.7090561471080719
 20
122.0768353842132967
 30
0.0
 11
281.7090561471080719
 21
122.1571503468214956
 31
0.0
  0
LINE
  5
100B5
  8
0
 10
281.7216865817081271
 20
122.1571503468214956
 30
0.0
 11
281.7216865817081271
 21
122.0768353842132967
 31
0.0
  0
LINE
  5
100B6
  8
0
 10
281.7288508511080067
 20
122.0768353842132967
 30
0.0
 11
281.7288508511080067
 21
122.1571503468214956
 31
0.0
  0
LINE
  5
100B7
  8
0
 10
281.7294636553079954
 20
122.0768353842132967
 30
0.0
 11
281.7294636553079954
 21
122.1571503468214956
 31
0.0
  0
LINE
  5
100B8
  8
0
 10
281.7419897547080723
 20
122.1571503468214956
 30
0.0
 11
281.7419897547080723
 21
122.0768353842132967
 31
0.0
  0
LINE
  5
100B9
  8
0
 10
281.7488772472080996
 20
122.0768353842132967
 30
0.0
 11
281.7488772472080996
 21
122.1571503468214956
 31
0.0
  0
LINE
  5
100BA
  8
0
 10
281.7496917043080771
 20
122.0768353842132967
 30
0.0
 11
281.7496917043080771
 21
122.1571503468214956
 31
0.0
  0
LINE
  5
100BB
  8
0
 10
281.7620791352080118
 20
122.1571503468214956
 30
0.0
 11
281.7620791352080118
 21
122.0768353842132967
 31
0.0
  0
LINE
  5
100BC
  8
0
 10
281.7686709728080814
 20
122.0768353842132967
 30
0.0
 11
281.7686709728080814
 21
122.1571503468214956
 31
0.0
  0
LINE
  5
100BD
  8
0
 10
281.7695695947081163
 20
122.1571503468214956
 30
0.0
 11
281.7695695947081163
 21
122.0768353842132967
 31
0.0
  0
LINE
  5
100BE
  8
0
 10
281.7818996598081753
 20
122.1571503468214956
 30
0.0
 11
281.7818996598081753
 21
122.0768353842132967
 31
0.0
  0
LINE
  5
100BF
  8
0
 10
281.7881777746080729
 20
122.0768353842132967
 30
0.0
 11
281.7881777746080729
 21
122.1571503468214956
 31
0.0
  0
LINE
  5
100C0
  8
0
 10
281.7893882938079742
 20
122.0768353842132967
 30
0.0
 11
281.7893882938079742
 21
122.1571503468214956
 31
0.0
  0
LINE
  5
100C1
  8
0
 10
281.8013970017080965
 20
122.1571503468214956
 30
0.0
 11
281.8013970017080965
 21
122.0768353842132967
 31
0.0
  0
LINE
  5
100C2
  8
0
 10
281.8073441859082209
 20
122.0768353842132967
 30
0.0
 11
281.8073441859082209
 21
122.1571503468214956
 31
0.0
  0
LINE
  5
100C3
  8
0
 10
281.8087480287081235
 20
122.0768353842132967
 30
0.0
 11
281.8087480287081235
 21
122.1571503468214956
 31
0.0
  0
LINE
  5
100C4
  8
0
 10
281.8205177201082279
 20
122.1571503468214956
 30
0.0
 11
281.8205177201082279
 21
122.0768353842132967
 31
0.0
  0
LINE
  5
100C5
  8
0
 10
281.826117672908083
 20
122.0768353842132967
 30
0.0
 11
281.826117672908083
 21
122.1571503468214956
 31
0.0
  0
LINE
  5
100C6
  8
0
 10
281.8277109914080825
 20
122.0768353842132967
 30
0.0
 11
281.8277109914080825
 21
122.1571503468214956
 31
0.0
  0
LINE
  5
100C7
  8
0
 10
281.8392094064080879
 20
122.1571503468214956
 30
0.0
 11
281.8392094064080879
 21
122.0768353842132967
 31
0.0
  0
LINE
  5
100C8
  8
0
 10
281.8444467787080043
 20
122.0768353842132967
 30
0.0
 11
281.8444467787080043
 21
122.1571503468214956
 31
0.0
  0
LINE
  5
100C9
  8
0
 10
281.8462252058080821
 20
122.0768353842132967
 30
0.0
 11
281.8462252058080821
 21
122.1571503468214956
 31
0.0
  0
LINE
  5
100CA
  8
0
 10
281.8574208280081166
 20
122.1571503468214956
 30
0.0
 11
281.8574208280081166
 21
122.0768353842132967
 31
0.0
  0
LINE
  5
100CB
  8
0
 10
281.8622812645079989
 20
122.0768353842132967
 30
0.0
 11
281.8622812645079989
 21
122.1571503468214956
 31
0.0
  0
LINE
  5
100CC
  8
0
 10
281.8642399257082047
 20
122.0768353842132967
 30
0.0
 11
281.8642399257082047
 21
122.1571503468214956
 31
0.0
  0
LINE
  5
100CD
  8
0
 10
281.8751020687082018
 20
122.1571503468214956
 30
0.0
 11
281.8751020687082018
 21
122.0768353842132967
 31
0.0
  0
LINE
  5
100CE
  8
0
 10
281.8795722473082037
 20
122.0768353842132967
 30
0.0
 11
281.8795722473082037
 21
122.1571503468214956
 31
0.0
  0
LINE
  5
100CF
  8
0
 10
281.8817057740080827
 20
122.0768353842132967
 30
0.0
 11
281.8817057740080827
 21
122.1571503468214956
 31
0.0
  0
LINE
  5
100D0
  8
0
 10
281.8922046654080873
 20
122.1571503468214956
 30
0.0
 11
281.8922046654080873
 21
122.0768353842132967
 31
0.0
  0
LINE
  5
100D1
  8
0
 10
281.8962723337079979
 20
122.0768353842132967
 30
0.0
 11
281.8962723337079979
 21
122.1571503468214956
 31
0.0
  0
LINE
  5
100D2
  8
0
 10
281.898574878008219
 20
122.0768353842132967
 30
0.0
 11
281.898574878008219
 21
122.1571503468214956
 31
0.0
  0
LINE
  5
100D3
  8
0
 10
281.9086817411081825
 20
122.1571503468214956
 30
0.0
 11
281.9086817411081825
 21
122.0768353842132967
 31
0.0
  0
LINE
  5
100D4
  8
0
 10
281.9123357499080953
 20
122.0768353842132967
 30
0.0
 11
281.9123357499080953
 21
122.1571503468214956
 31
0.0
  0
LINE
  5
100D5
  8
0
 10
281.9148010007081098
 20
122.0768353842132967
 30
0.0
 11
281.9148010007081098
 21
122.1571503468214956
 31
0.0
  0
LINE
  5
100D6
  8
0
 10
281.9244881333081025
 20
122.1571503468214956
 30
0.0
 11
281.9244881333081025
 21
122.0768353842132967
 31
0.0
  0
LINE
  5
100D7
  8
0
 10
281.9277184671080931
 20
122.0768353842132967
 30
0.0
 11
281.9277184671080931
 21
122.1571503468214956
 31
0.0
  0
LINE
  5
100D8
  8
0
 10
281.9303396674080773
 20
122.0768353842132967
 30
0.0
 11
281.9303396674080773
 21
122.1571503468214956
 31
0.0
  0
LINE
  5
100D9
  8
0
 10
281.9395805177081797
 20
122.1571503468214956
 30
0.0
 11
281.9395805177081797
 21
122.0768353842132967
 31
0.0
  0
LINE
  5
100DA
  8
0
 10
281.9423783225080911
 20
122.0768353842132967
 30
0.0
 11
281.9423783225080911
 21
122.1571503468214956
 31
0.0
  0
LINE
  5
100DB
  8
0
 10
281.9451482877080934
 20
122.0768353842132967
 30
0.0
 11
281.9451482877080934
 21
122.1571503468214956
 31
0.0
  0
LINE
  5
100DC
  8
0
 10
281.9539175272080911
 20
122.1571503468214956
 30
0.0
 11
281.9539175272080911
 21
122.0768353842132967
 31
0.0
  0
LINE
  5
100DD
  8
0
 10
281.9562751343082141
 20
122.0768353842132967
 30
0.0
 11
281.9562751343082141
 21
122.1571503468214956
 31
0.0
  0
LINE
  5
100DE
  8
0
 10
281.959186272108127
 20
122.0768353842132967
 30
0.0
 11
281.959186272108127
 21
122.1571503468214956
 31
0.0
  0
LINE
  5
100DF
  8
0
 10
281.9674598516469928
 20
122.1571503468214956
 30
0.0
 11
281.9674598516469928
 21
122.0768353842132967
 31
0.0
  0
LINE
  5
100E0
  8
0
 10
281.9693707991469864
 20
122.0768353842132967
 30
0.0
 11
281.9693707991469864
 21
122.1571503468214956
 31
0.0
  0
LINE
  5
100E1
  8
0
 10
281.9724151437080764
 20
122.0768353842132967
 30
0.0
 11
281.9724151437080764
 21
122.1571503468214956
 31
0.0
  0
LINE
  5
100E2
  8
0
 10
281.9801703992470152
 20
122.0768353842132967
 30
0.0
 11
281.9801703992470152
 21
122.1571503468214956
 31
0.0
  0
LINE
  5
100E3
  8
0
 10
281.9816294491470217
 20
122.0768353842132967
 30
0.0
 11
281.9816294491470217
 21
122.1571503468214956
 31
0.0
  0
LINE
  5
100E4
  8
0
 10
281.984798629547015
 20
122.0768353842132967
 30
0.0
 11
281.984798629547015
 21
122.1571503468214956
 31
0.0
  0
LINE
  5
100E5
  8
0
 10
281.9920143177470209
 20
122.0768353842132967
 30
0.0
 11
281.9920143177470209
 21
122.1571503468214956
 31
0.0
  0
LINE
  5
100E6
  8
0
 10
281.9930174711469135
 20
122.0768353842132967
 30
0.0
 11
281.9930174711469135
 21
122.1571503468214956
 31
0.0
  0
LINE
  5
100E7
  8
0
 10
281.9963028140469987
 20
122.0768353842132967
 30
0.0
 11
281.9963028140469987
 21
122.1571503468214956
 31
0.0
  0
LINE
  5
100E8
  8
0
 10
282.002959143847022
 20
122.0768353842132967
 30
0.0
 11
282.002959143847022
 21
122.1571503468214956
 31
0.0
  0
LINE
  5
100E9
  8
0
 10
282.0035036510470263
 20
122.0768353842132967
 30
0.0
 11
282.0035036510470263
 21
122.1571503468214956
 31
0.0
  0
LINE
  5
100EA
  8
0
 10
282.0068373535469846
 20
122.0768353842132967
 30
0.0
 11
282.0068373535469846
 21
122.1571503468214956
 31
0.0
  0
LINE
  5
100EB
  8
0
 10
282.0129748786470145
 20
122.0768353842132967
 30
0.0
 11
282.0129748786470145
 21
122.1571503468214956
 31
0.0
  0
LINE
  5
100EC
  8
0
 10
282.0165496069470237
 20
122.0768353842132967
 30
0.0
 11
282.0165496069470237
 21
122.1571503468214956
 31
0.0
  0
LINE
  5
100ED
  8
0
 10
282.0220340695469758
 20
122.0768353842132967
 30
0.0
 11
282.0220340695469758
 21
122.1571503468214956
 31
0.0
  0
LINE
  5
100EE
  8
0
 10
282.0252367203469817
 20
122.0768353842132967
 30
0.0
 11
282.0252367203469817
 21
122.1571503468214956
 31
0.0
  0
LINE
  5
100EF
  8
0
 10
282.0301118861469831
 20
122.0768353842132967
 30
0.0
 11
282.0301118861469831
 21
122.1571503468214956
 31
0.0
  0
LINE
  5
100F0
  8
0
 10
282.032933681046984
 20
122.0768353842132967
 30
0.0
 11
282.032933681046984
 21
122.1571503468214956
 31
0.0
  0
LINE
  5
100F1
  8
0
 10
282.037186187546979
 20
122.0768353842132967
 30
0.0
 11
282.037186187546979
 21
122.1571503468214956
 31
0.0
  0
LINE
  5
100F2
  8
0
 10
282.0396193922470047
 20
122.0768353842132967
 30
0.0
 11
282.0396193922470047
 21
122.1571503468214956
 31
0.0
  0
LINE
  5
100F3
  8
0
 10
282.0432375835470111
 20
122.0768353842132967
 30
0.0
 11
282.0432375835470111
 21
122.1571503468214956
 31
0.0
  0
LINE
  5
100F4
  8
0
 10
282.0452755288470144
 20
122.0768353842132967
 30
0.0
 11
282.0452755288470144
 21
122.1571503468214956
 31
0.0
  0
LINE
  5
100F5
  8
0
 10
282.0482494878469879
 20
122.0768353842132967
 30
0.0
 11
282.0482494878469879
 21
122.1571503468214956
 31
0.0
  0
LINE
  5
100F6
  8
0
 10
282.0498865878469132
 20
122.0768353842132967
 30
0.0
 11
282.0498865878469132
 21
122.1571503468214956
 31
0.0
  0
LINE
  5
100F7
  8
0
 10
282.0522081630469984
 20
122.0768353842132967
 30
0.0
 11
282.0522081630469984
 21
122.1571503468214956
 31
0.0
  0
LINE
  5
100F8
  8
0
 10
282.0534399305469719
 20
122.0768353842132967
 30
0.0
 11
282.0534399305469719
 21
122.1571503468214956
 31
0.0
  0
LINE
  5
100F9
  8
0
 10
282.0551027588469992
 20
122.0768353842132967
 30
0.0
 11
282.0551027588469992
 21
122.1571503468214956
 31
0.0
  0
LINE
  5
100FA
  8
0
 10
282.0559258175470063
 20
122.0768353842132967
 30
0.0
 11
282.0559258175470063
 21
122.1571503468214956
 31
0.0
  0
LINE
  5
100FB
  8
0
 10
282.0569253411470072
 20
122.0768353842132967
 30
0.0
 11
282.0569253411470072
 21
122.1571503468214956
 31
0.0
  0
LINE
  5
100FC
  8
0
 10
282.0573374352470069
 20
122.0768353842132967
 30
0.0
 11
282.0573374352470069
 21
122.1571503468214956
 31
0.0
  0
LINE
  5
100FD
  8
0
 10
282.0576709144469874
 20
122.0768353842132967
 30
0.0
 11
282.0576709144469874
 21
122.1571503468214956
 31
0.0
  0
LINE
  5
100FE
  8
0
 10
281.3293443125469935
 20
122.0768353842132967
 30
0.0
 11
281.3293443125469935
 21
122.0571503468215013
 31
0.0
  0
LINE
  5
100FF
  8
0
 10
281.3293443125469935
 20
122.0571503468215013
 30
0.0
 11
281.9986353125469805
 21
122.0571503468215013
 31
0.0
  0
LINE
  5
10100
  8
0
 10
281.9986353125469805
 20
122.0571503468215013
 30
0.0
 11
281.9986353125469805
 21
122.0768353842132967
 31
0.0
  0
LINE
  5
10101
  8
0
 10
282.6679268204470077
 20
124.1250254910215034
 30
0.0
 11
285.187752463646973
 21
126.6448511342214971
 31
0.0
  0
LINE
  5
10102
  8
0
 10
282.6679268204470077
 20
126.6448511342214971
 30
0.0
 11
302.6679269238470056
 21
126.6448511342214971
 31
0.0
  0
LINE
  5
10103
  8
0
 10
282.6679268204470077
 20
128.2196542839214999
 30
0.0
 11
302.6679269238470056
 21
128.2196542839214999
 31
0.0
  0
LINE
  5
10104
  8
0
 10
282.7188793654469805
 20
128.2196542839214999
 30
0.0
 11
282.7188793654469805
 21
126.6448511342214971
 31
0.0
  0
LINE
  5
10105
  8
0
 10
282.7663520173470033
 20
128.3185676697214888
 30
0.0
 11
292.6088717023470167
 21
128.3185676697214888
 31
0.0
  0
LINE
  5
10106
  8
0
 10
292.6088717023470167
 20
128.3185676697214888
 30
0.0
 11
292.6088717023470167
 21
145.3658117642214904
 31
0.0
  0
LINE
  5
10107
  8
0
 10
292.6088717023470167
 20
145.3658117642214904
 30
0.0
 11
282.7663520173470033
 21
145.3658117642214904
 31
0.0
  0
LINE
  5
10108
  8
0
 10
282.7663520173470033
 20
145.3658117642214904
 30
0.0
 11
282.7663520173470033
 21
128.3185676697214888
 31
0.0
  0
LINE
  5
10109
  8
0
 10
282.6679268204470077
 20
146.2122684571214961
 30
0.0
 11
302.6679269238470056
 21
146.2122684571214961
 31
0.0
  0
LINE
  5
1010A
  8
0
 10
302.6679269238470056
 20
145.4642369610214985
 30
0.0
 11
282.6679268204470077
 21
145.4642369610214985
 31
0.0
  0
LINE
  5
1010B
  8
0
 10
282.7072968992470123
 20
146.2122684571214961
 30
0.0
 11
282.7072968992470123
 21
145.4642369610214985
 31
0.0
  0
LINE
  5
1010C
  8
0
 10
302.56950172694701
 20
154.9721109768215115
 30
0.0
 11
282.7663520173470033
 21
154.9721109768215115
 31
0.0
  0
LINE
  5
1010D
  8
0
 10
282.7663520173470033
 20
154.9721109768215115
 30
0.0
 11
282.7663520173470033
 21
146.3106936539215042
 31
0.0
  0
LINE
  5
1010E
  8
0
 10
282.7663520173470033
 20
146.3106936539215042
 30
0.0
 11
302.56950172694701
 21
146.3106936539215042
 31
0.0
  0
LINE
  5
1010F
  8
0
 10
288.2981630409469744
 20
151.0348117642215016
 30
0.0
 11
297.0576905999470227
 21
151.0348117642215016
 31
0.0
  0
LINE
  5
10110
  8
0
 10
297.0576905999470227
 20
150.2474101894214868
 30
0.0
 11
288.2981630409469744
 21
150.2474101894214868
 31
0.0
  0
ARC
  5
10111
  8
0
 10
288.2981630409469744
 20
150.2674101894214971
 30
0.0
 40
0.02
 50
180.0
 51
270.0
  0
LINE
  5
10112
  8
0
 10
288.2781630409469926
 20
150.2674101894214971
 30
0.0
 11
288.2781630409469926
 21
151.0148117642214913
 31
0.0
  0
ARC
  5
10113
  8
0
 10
288.2981630409469744
 20
151.0148117642214913
 30
0.0
 40
0.02
 50
90.0
 51
180.0
  0
LINE
  5
10114
  8
0
 10
282.6679268204470077
 20
155.0705361736214911
 30
0.0
 11
302.6679269238470056
 21
155.0705361736214911
 31
0.0
  0
LINE
  5
10115
  8
0
 10
282.7079268204469145
 20
156.6453393232214921
 30
0.0
 11
282.7079268204469145
 21
155.0705361736214911
 31
0.0
  0
LINE
  5
10116
  8
0
 10
284.3951940640263842
 20
155.0705361736214911
 30
0.0
 11
284.4375391427926729
 21
154.9721109768215115
 31
0.0
  0
LINE
  5
10117
  8
0
 10
290.6994228834470277
 20
155.0705361736214911
 30
0.0
 11
290.6994228834470277
 21
154.9721109768215115
 31
0.0
  0
LINE
  5
10118
  8
0
 10
282.6888499015469165
 20
152.1000155771714901
 30
0.0
 11
282.6888498921467772
 21
152.0999260507715007
 31
0.0
  0
LINE
  5
10119
  8
0
 10
282.6733001747472258
 20
152.9019087546215019
 30
0.0
 11
282.6733001747469984
 21
151.7480509185214999
 31
0.0
  0
ARC
  5
1011A
  8
0
 10
282.6425915133469857
 20
152.3025877610714929
 30
0.0
 40
0.2078740157
 50
282.8577248726061839
 51
306.5385160655008008
  0
ARC
  5
1011B
  8
0
 10
282.6425915133469857
 20
152.3473719138715126
 30
0.0
 40
0.2078740157
 50
53.4614839344991495
 51
77.1422751273938019
  0
ARC
  5
1011C
  8
0
 10
282.6933001747469802
 20
152.56953221347149
 30
0.0
 40
0.02
 50
180.0
 51
257.1423612970027079
  0
ARC
  5
1011D
  8
0
 10
282.6933001747469802
 20
152.080427461471487
 30
0.0
 40
0.02
 50
102.8576387029972068
 51
180.0
  0
ARC
  5
1011E
  8
0
 10
282.6633001747470075
 20
152.9019087563214896
 30
0.0
 40
0.0099999999999875
 50
359.9999902596454149
 51
62.4408185552748876
  0
ARC
  5
1011F
  8
0
 10
282.6633001747476897
 20
151.748050918520903
 30
0.0
 40
0.0099999999990867
 50
297.5591814403642843
 51
0.0000000036436434
  0
LINE
  5
10120
  8
0
 10
285.3277299700424123
 20
146.2122684571214961
 30
0.0
 11
285.3277299700844196
 21
146.2581361844214882
 31
0.0
  0
ARC
  5
10121
  8
0
 10
285.332729776952192
 20
146.2581361844169123
 30
0.0
 40
0.0049998068677759
 50
109.5229742572690981
 51
179.9999999475519132
  0
ARC
  5
10122
  8
0
 10
285.327709928813988
 20
146.2722937544810122
 30
0.0
 40
0.0100213670360832
 50
289.5229742572727218
 51
356.8615605392661791
  0
ARC
  5
10123
  8
0
 10
310.1094516685103031
 20
144.9134872728542121
 30
0.0
 40
24.8089447417186904
 50
176.8415247883060886
 51
176.8615605392662076
  0
ARC
  5
10124
  8
0
 10
285.3987396799229828
 20
146.2770663555033934
 30
0.0
 40
0.0606390442057716
 50
146.3203693702922976
 51
176.841524788304298
  0
ARC
  5
10125
  8
0
 10
286.0039312887848837
 20
146.2782135174259963
 30
0.0
 40
0.1260262112477246
 50
165.0648709129494875
 51
179.1209780121288873
  0
ARC
  5
10126
  8
0
 10
429.2674094105822178
 20
143.4180506787151899
 30
0.0
 40
143.4180507971611007
 50
178.8565112928075109
 51
178.8599730630986926
  0
ARC
  5
10127
  8
0
 10
285.8557658914348849
 20
146.270516452135098
 30
0.0
 40
0.0220026114695956
 50
325.7594030829142184
 51
2.5188326816200961
  0
LINE
  5
10128
  8
0
 10
285.873955056346972
 20
146.2122684571214961
 30
0.0
 11
285.873955056547004
 21
146.2581362589214962
 31
0.0
  0
ARC
  5
10129
  8
0
 10
285.868506784344504
 20
146.2574065685309108
 30
0.0
 40
0.0054969189605103
 50
7.6282641133595162
 51
81.9009155125137056
  0
LINE
  5
1012A
  8
0
 10
285.8692812200404205
 20
146.2628486607214882
 30
0.0
 11
285.3310589174470238
 21
146.2628485402215119
 31
0.0
  0
LINE
  5
1012B
  8
0
 10
286.094197351646983
 20
146.2122684571214961
 30
0.0
 11
286.094197351646983
 21
146.3106936539215042
 31
0.0
  0
LINE
  5
1012C
  8
0
 10
286.0641973516470102
 20
146.3106936539215042
 30
0.0
 11
286.0641973516470102
 21
146.2122684571214961
 31
0.0
  0
LINE
  5
1012D
  8
0
 10
286.0641973516470102
 20
146.2408197595214858
 30
0.0
 11
286.094197351646983
 21
146.2408197595214858
 31
0.0
  0
LINE
  5
1012E
  8
0
 10
286.0277299700470053
 20
146.2848097381215098
 30
0.0
 11
286.0641973516470102
 21
146.2848097381215098
 31
0.0
  0
LINE
  5
1012F
  8
0
 10
286.0277299700470053
 20
146.3106936539215042
 30
0.0
 11
286.0277299700470053
 21
146.2122684571214961
 31
0.0
  0
LINE
  5
10130
  8
0
 10
286.0199376097011736
 20
146.2972684571215041
 30
0.0
 11
286.0199376097011736
 21
146.2972684571215041
 31
0.0
  0
LINE
  5
10131
  8
0
 10
286.0277299700470053
 20
146.2972684571215041
 30
0.0
 11
285.8994660491470086
 21
146.2972684571215041
 31
0.0
  0
LINE
  5
10132
  8
0
 10
285.8879283565034939
 20
146.2122684571214961
 30
0.0
 11
285.8879341793182789
 21
146.2422922185214986
 31
0.0
  0
ARC
  5
10133
  8
0
 10
285.7835332371608956
 20
146.2704943175594963
 30
0.0
 40
0.1081430308133828
 50
344.8833433553331815
 51
358.2906377959390056
  0
ARC
  5
10134
  8
0
 10
286.0140945184451766
 20
146.2694624202644889
 30
0.0
 40
0.122486024849896
 50
171.6411792587468881
 51
181.026333832259013
  0
ARC
  5
10135
  8
0
 10
285.9156049337790932
 20
146.2829610632365984
 30
0.0
 40
0.023100419036449
 50
152.0722437505930031
 51
169.2535079261558053
  0
ARC
  5
10136
  8
0
 10
285.9006079777162199
 20
146.2915110218758059
 30
0.0
 40
0.0058695878446662
 50
101.2184395783952056
 51
157.2556004483579102
  0
LINE
  5
10137
  8
0
 10
285.8879341793182789
 20
146.2422922185214986
 30
0.0
 11
286.0077299700470235
 21
146.2422774168215085
 31
0.0
  0
LINE
  5
10138
  8
0
 10
286.0077299700470235
 20
146.2122684571214961
 30
0.0
 11
286.0077299700470235
 21
146.2422774168215085
 31
0.0
  0
ARC
  5
10139
  8
0
 10
285.9674101010842264
 20
146.27239432453581
 30
0.0
 40
0.0503261359876927
 50
323.2421243388026255
 51
356.8759566243834911
  0
ARC
  5
1013A
  8
0
 10
287.3594137748364119
 20
146.201504070264491
 30
0.0
 40
1.3434818210750421
 50
176.7224636378890068
 51
177.0924462708759108
  0
ARC
  5
1013B
  8
0
 10
286.0380737068468875
 20
146.277245469521489
 30
0.0
 40
0.0199728577999689
 50
121.1908011139721992
 51
176.932026151330291
  0
LINE
  5
1013C
  8
0
 10
286.0179436273479041
 20
146.274997246521508
 30
0.0
 11
286.0277299700470053
 21
146.274997246521508
 31
0.0
  0
LINE
  5
1013D
  8
0
 10
285.9269463776785756
 20
146.2696509664214943
 30
0.0
 11
286.0176614090245266
 21
146.2696509664214943
 31
0.0
  0
LINE
  5
1013E
  8
0
 10
285.8916281442470222
 20
146.2672684571215029
 30
0.0
 11
285.9152299700469939
 21
146.2672684571215029
 31
0.0
  0
ARC
  5
1013F
  8
0
 10
285.9152299700469939
 20
146.2972684571957984
 30
0.0
 40
0.0300000000742955
 50
270.0000000000032969
 51
340.5287792651819814
  0
ARC
  5
10140
  8
0
 10
285.9576563770519897
 20
146.2822684570649017
 30
0.0
 40
0.015000000095553
 50
90.0
 51
160.5287792651803898
  0
LINE
  5
10141
  8
0
 10
287.3577299700576191
 20
146.2122684571214961
 30
0.0
 11
287.3577299700156118
 21
146.2581361844214882
 31
0.0
  0
ARC
  5
10142
  8
0
 10
287.3527301631478963
 20
146.2581361844169123
 30
0.0
 40
0.0049998068677759
 50
0.00000005244811
 51
70.4770257427309303
  0
ARC
  5
10143
  8
0
 10
287.3577500112859866
 20
146.2722937544810122
 30
0.0
 40
0.0100213670360832
 50
183.1384394607337924
 51
250.4770257427273066
  0
ARC
  5
10144
  8
0
 10
262.5760082715897283
 20
144.9134872728542121
 30
0.0
 40
24.8089447417186904
 50
3.1384394607338328
 51
3.158475211693879
  0
ARC
  5
10145
  8
0
 10
287.2867202601771055
 20
146.2770663555033934
 30
0.0
 40
0.0606390442057716
 50
3.1584752116956838
 51
33.6796306297076526
  0
ARC
  5
10146
  8
0
 10
286.6815286513091223
 20
146.2782135174259963
 30
0.0
 40
0.1260262112477246
 50
0.8790219878711184
 51
14.9351290870504307
  0
ARC
  5
10147
  8
0
 10
143.418050529511703
 20
143.4180506787151899
 30
0.0
 40
143.4180507971611007
 50
1.140026936901265
 51
1.143488707192458
  0
ARC
  5
10148
  8
0
 10
286.8296940486591211
 20
146.270516452135098
 30
0.0
 40
0.0220026114695956
 50
177.481167318379903
 51
214.24059691708581
  0
LINE
  5
10149
  8
0
 10
286.8115048837469772
 20
146.2122684571214961
 30
0.0
 11
286.811504883547002
 21
146.2581362589214962
 31
0.0
  0
ARC
  5
1014A
  8
0
 10
286.8169531557493883
 20
146.2574065685309108
 30
0.0
 40
0.0054969189605103
 50
98.0990844874863086
 51
172.3717358866404936
  0
LINE
  5
1014B
  8
0
 10
286.8161787200535855
 20
146.2628486607214882
 30
0.0
 11
287.3544010226531213
 21
146.2628485402215119
 31
0.0
  0
LINE
  5
1014C
  8
0
 10
286.6241973516470125
 20
146.2122684571214961
 30
0.0
 11
286.6241973516470125
 21
146.3106936539215042
 31
0.0
  0
LINE
  5
1014D
  8
0
 10
286.6541973516469852
 20
146.3106936539215042
 30
0.0
 11
286.6541973516469852
 21
146.2122684571214961
 31
0.0
  0
LINE
  5
1014E
  8
0
 10
286.6541973516469852
 20
146.2408197595214858
 30
0.0
 11
286.6241973516470125
 21
146.2408197595214858
 31
0.0
  0
LINE
  5
1014F
  8
0
 10
286.6577299700470007
 20
146.2848097381215098
 30
0.0
 11
286.6541973516469852
 21
146.2848097381215098
 31
0.0
  0
LINE
  5
10150
  8
0
 10
286.6577299700470007
 20
146.3106936539215042
 30
0.0
 11
286.6577299700470007
 21
146.2122684571214961
 31
0.0
  0
LINE
  5
10151
  8
0
 10
286.6655223303927755
 20
146.2972684571215041
 30
0.0
 11
286.6655223303927755
 21
146.2972684571215041
 31
0.0
  0
LINE
  5
10152
  8
0
 10
286.6577299700470007
 20
146.2972684571215041
 30
0.0
 11
286.7859938909469975
 21
146.2972684571215041
 31
0.0
  0
LINE
  5
10153
  8
0
 10
286.7975315835903984
 20
146.2122684571214961
 30
0.0
 11
286.7975257607756134
 21
146.2422922185214986
 31
0.0
  0
ARC
  5
10154
  8
0
 10
286.9019267029329967
 20
146.2704943175594963
 30
0.0
 40
0.1081430308133828
 50
181.7093622040609944
 51
195.116656644665909
  0
ARC
  5
10155
  8
0
 10
286.6713654216487726
 20
146.2694624202644889
 30
0.0
 40
0.122486024849896
 50
358.973666167740987
 51
8.3588207412530728
  0
ARC
  5
10156
  8
0
 10
286.7698550063149128
 20
146.2829610632365984
 30
0.0
 40
0.023100419036449
 50
10.7464920738442107
 51
27.9277562494069684
  0
ARC
  5
10157
  8
0
 10
286.7848519623777861
 20
146.2915110218758059
 30
0.0
 40
0.0058695878446662
 50
22.7443995516421005
 51
78.7815604216047944
  0
LINE
  5
10158
  8
0
 10
286.7975257607756134
 20
146.2422922185214986
 30
0.0
 11
286.6777299700469825
 21
146.2422774168215085
 31
0.0
  0
LINE
  5
10159
  8
0
 10
286.6777299700469825
 20
146.2122684571214961
 30
0.0
 11
286.6777299700469825
 21
146.2422774168215085
 31
0.0
  0
ARC
  5
1015A
  8
0
 10
286.7180498390097796
 20
146.27239432453581
 30
0.0
 40
0.0503261359876927
 50
183.1240433756163952
 51
216.7578756611974029
  0
ARC
  5
1015B
  8
0
 10
285.3260461652577078
 20
146.201504070264491
 30
0.0
 40
1.3434818210750421
 50
2.90755372912413
 51
3.277536362110943
  0
ARC
  5
1015C
  8
0
 10
286.6473862332470048
 20
146.277245469521489
 30
0.0
 40
0.0199728577999689
 50
3.0679738486696562
 51
58.8091988860277866
  0
LINE
  5
1015D
  8
0
 10
286.6675163127461019
 20
146.274997246521508
 30
0.0
 11
286.6577299700470007
 21
146.274997246521508
 31
0.0
  0
LINE
  5
1015E
  8
0
 10
286.7585135624153736
 20
146.2696509664214943
 30
0.0
 11
286.6677985310694794
 21
146.2696509664214943
 31
0.0
  0
LINE
  5
1015F
  8
0
 10
286.7938317958469838
 20
146.2672684571215029
 30
0.0
 11
286.7702299700470121
 21
146.2672684571215029
 31
0.0
  0
ARC
  5
10160
  8
0
 10
286.7702299700470121
 20
146.2972684571957984
 30
0.0
 40
0.0300000000742955
 50
199.4712207348179902
 51
269.9999999999968168
  0
ARC
  5
10161
  8
0
 10
286.7278035630419026
 20
146.2822684570649017
 30
0.0
 40
0.015000000095553
 50
19.4712207348195392
 51
90.0
  0
LINE
  5
10162
  8
0
 10
291.8014701275467928
 20
141.4287015279714979
 30
0.0
 11
291.132808710248014
 21
141.4287015279714979
 31
0.0
  0
LINE
  5
10163
  8
0
 10
291.8014701275467928
 20
136.6649220003714902
 30
0.0
 11
291.132808710248014
 21
136.6649220003714902
 31
0.0
  0
LINE
  5
10164
  8
0
 10
291.1128087102479185
 20
141.4087015279714876
 30
0.0
 11
291.1128087102479185
 21
136.6849220003715004
 31
0.0
  0
LINE
  5
10165
  8
0
 10
291.821470127547002
 20
141.4087015279714876
 30
0.0
 11
291.821470127547002
 21
136.6849220003715004
 31
0.0
  0
ARC
  5
10166
  8
0
 10
291.132808710248014
 20
141.4087015279714876
 30
0.0
 40
0.02
 50
90.0
 51
179.9999999999967031
  0
ARC
  5
10167
  8
0
 10
291.8014701275467928
 20
141.4087015279714876
 30
0.0
 40
0.02
 50
359.9999999999968168
 51
90.0
  0
ARC
  5
10168
  8
0
 10
291.132808710248014
 20
136.6849220003715004
 30
0.0
 40
0.02
 50
180.0
 51
270.0
  0
ARC
  5
10169
  8
0
 10
291.8014701275467928
 20
136.6849220003715004
 30
0.0
 40
0.02
 50
270.0
 51
0.0
  0
LINE
  5
1016A
  8
0
 10
282.6679268204470077
 20
143.2662605831058897
 30
0.0
 11
282.7137945477469998
 21
143.2662605830639109
 31
0.0
  0
ARC
  5
1016B
  8
0
 10
282.7137945477423955
 20
143.2612607761961101
 30
0.0
 40
0.0049998068677759
 50
19.5229742572677587
 51
89.9999999475510748
  0
ARC
  5
1016C
  8
0
 10
282.7279521178065238
 20
143.2662806243343141
 30
0.0
 40
0.0100213670360832
 50
199.5229742572726934
 51
266.8615605392661791
  0
ARC
  5
1016D
  8
0
 10
281.3691456361797236
 20
118.484538884637999
 30
0.0
 40
24.8089447417186904
 50
86.8415247883060175
 51
86.8615605392662076
  0
ARC
  5
1016E
  8
0
 10
282.7327247188288766
 20
143.1952508732252056
 30
0.0
 40
0.0606390442057716
 50
56.3203693702914592
 51
86.8415247883060175
  0
ARC
  5
1016F
  8
0
 10
282.7338718807515079
 20
142.59005926436339
 30
0.0
 40
0.1260262112477246
 50
75.0648709129499139
 51
89.1209780121296831
  0
ARC
  5
10170
  8
0
 10
282.7261748154605812
 20
142.7382246617133887
 30
0.0
 40
0.0220026114695956
 50
235.7594030829129963
 51
272.5188326816194149
  0
LINE
  5
10171
  8
0
 10
282.6679268204470077
 20
142.7200354968013016
 30
0.0
 11
282.7137946222470077
 21
142.7200354966012981
 31
0.0
  0
ARC
  5
10172
  8
0
 10
282.7130649318564224
 20
142.7254837688037981
 30
0.0
 40
0.0054969189605103
 50
277.6282641133597053
 51
351.9009155125136772
  0
LINE
  5
10173
  8
0
 10
282.7185070240470282
 20
142.72470933310791
 30
0.0
 11
282.7185069035469951
 21
143.2629316357013067
 31
0.0
  0
LINE
  5
10174
  8
0
 10
282.6679268204470077
 20
142.4997932015012907
 30
0.0
 11
282.7663520172470157
 21
142.4997932015012907
 31
0.0
  0
LINE
  5
10175
  8
0
 10
282.7663520172470157
 20
142.5297932015012918
 30
0.0
 11
282.6679268204470077
 21
142.5297932015012918
 31
0.0
  0
LINE
  5
10176
  8
0
 10
282.6964781228469974
 20
142.5297932015012918
 30
0.0
 11
282.6964781228469974
 21
142.4997932015012907
 31
0.0
  0
LINE
  5
10177
  8
0
 10
282.7404681014469929
 20
142.5662605831012968
 30
0.0
 11
282.7404681014469929
 21
142.5297932015012918
 31
0.0
  0
LINE
  5
10178
  8
0
 10
282.7663520172470157
 20
142.5662605831012968
 30
0.0
 11
282.6679268204470077
 21
142.5662605831012968
 31
0.0
  0
LINE
  5
10179
  8
0
 10
282.7529268204469872
 20
142.5740529434471
 30
0.0
 11
282.7529268204469872
 21
142.5740529434471
 31
0.0
  0
LINE
  5
1017A
  8
0
 10
282.7529268204469872
 20
142.5662605831012968
 30
0.0
 11
282.7529268204469872
 21
142.6945245040012935
 31
0.0
  0
LINE
  5
1017B
  8
0
 10
282.6679268204470077
 20
142.7060621966448082
 30
0.0
 11
282.6979505818470102
 21
142.7060563738299095
 31
0.0
  0
ARC
  5
1017C
  8
0
 10
282.7261526808849794
 20
142.8104573159872928
 30
0.0
 40
0.1081430308133828
 50
254.8833433553348016
 51
268.290637795937414
  0
ARC
  5
1017D
  8
0
 10
282.7251207835900004
 20
142.579896034703097
 30
0.0
 40
0.122486024849896
 50
81.6411792587486644
 51
91.0263338322581887
  0
ARC
  5
1017E
  8
0
 10
282.7386194265620816
 20
142.6783856193692088
 30
0.0
 40
0.023100419036449
 50
62.0722437505933797
 51
79.2535079261562885
  0
ARC
  5
1017F
  8
0
 10
282.7471693852011754
 20
142.6933825754321106
 30
0.0
 40
0.0058695878446662
 50
11.2184395783953708
 51
67.2556004483574554
  0
LINE
  5
10180
  8
0
 10
282.6979505818470102
 20
142.7060563738299095
 30
0.0
 11
282.6979357801470201
 21
142.586260583101307
 31
0.0
  0
LINE
  5
10181
  8
0
 10
282.6679268204470077
 20
142.586260583101307
 30
0.0
 11
282.6979357801470201
 21
142.586260583101307
 31
0.0
  0
ARC
  5
10182
  8
0
 10
282.7280526878612932
 20
142.6265804520641041
 30
0.0
 40
0.0503261359876927
 50
233.2421243388008065
 51
266.8759566243834911
  0
ARC
  5
10183
  8
0
 10
282.6571624335899742
 20
141.2345767783118902
 30
0.0
 40
1.3434818210750421
 50
86.7224636378882536
 51
87.0924462708742055
  0
ARC
  5
10184
  8
0
 10
282.7329038328470006
 20
142.5559168463013009
 30
0.0
 40
0.0199728577999689
 50
31.19080111397178
 51
86.9320261513296231
  0
LINE
  5
10185
  8
0
 10
282.7306556098470196
 20
142.576046925800398
 30
0.0
 11
282.7306556098470196
 21
142.5662605831012968
 31
0.0
  0
LINE
  5
10186
  8
0
 10
282.7253093297470059
 20
142.6670441754696981
 30
0.0
 11
282.7253093297470059
 21
142.5763291441238039
 31
0.0
  0
LINE
  5
10187
  8
0
 10
282.7229268204470145
 20
142.7023624089013083
 30
0.0
 11
282.7229268204470145
 21
142.6787605831013082
 31
0.0
  0
ARC
  5
10188
  8
0
 10
282.7529268205212816
 20
142.6787605831013082
 30
0.0
 40
0.0300000000742955
 50
180.0000000000015916
 51
250.5287792651826919
  0
ARC
  5
10189
  8
0
 10
282.7379268203903848
 20
142.6363341760961987
 30
0.0
 40
0.015000000095553
 50
0.0
 51
70.5287792651794234
  0
LINE
  5
1018A
  8
0
 10
282.6679268204470077
 20
141.2362605830907114
 30
0.0
 11
282.7137945477469998
 21
141.236260583132605
 31
0.0
  0
ARC
  5
1018B
  8
0
 10
282.7137945477423955
 20
141.2412603900004058
 30
0.0
 40
0.0049998068677759
 50
270.000000052448911
 51
340.4770257427322235
  0
ARC
  5
1018C
  8
0
 10
282.7279521178065238
 20
141.2362405418622018
 30
0.0
 40
0.0100213670360832
 50
93.1384394607337924
 51
160.4770257427273066
  0
ARC
  5
1018D
  8
0
 10
281.3691456361797236
 20
166.0179822815584885
 30
0.0
 40
24.8089447417186904
 50
273.1384394607338209
 51
273.1584752116939967
  0
ARC
  5
1018E
  8
0
 10
282.7327247188288766
 20
141.3072702929713103
 30
0.0
 40
0.0606390442057716
 50
273.1584752116939967
 51
303.6796306297085835
  0
ARC
  5
1018F
  8
0
 10
282.7338718807515079
 20
141.9124619018392082
 30
0.0
 40
0.1260262112477246
 50
270.8790219878703169
 51
284.9351290870500861
  0
ARC
  5
10190
  8
0
 10
282.7261748154605812
 20
141.7642965044892094
 30
0.0
 40
0.0220026114695956
 50
87.4811673183806846
 51
124.2405969170870037
  0
LINE
  5
10191
  8
0
 10
282.6679268204470077
 20
141.7824856694012965
 30
0.0
 11
282.7137946222470077
 21
141.7824856696013001
 31
0.0
  0
ARC
  5
10192
  8
0
 10
282.7130649318564224
 20
141.7770373973988001
 30
0.0
 40
0.0054969189605103
 50
8.0990844874863033
 51
82.3717358866403657
  0
LINE
  5
10193
  8
0
 10
282.7185070240470282
 20
141.7778118330946882
 30
0.0
 11
282.7185069035469951
 21
141.2395895304952091
 31
0.0
  0
LINE
  5
10194
  8
0
 10
282.6679268204470077
 20
141.9697932015012896
 30
0.0
 11
282.7663520172470157
 21
141.9697932015012896
 31
0.0
  0
LINE
  5
10195
  8
0
 10
282.7663520172470157
 20
141.9397932015012884
 30
0.0
 11
282.6679268204470077
 21
141.9397932015012884
 31
0.0
  0
LINE
  5
10196
  8
0
 10
282.6964781228469974
 20
141.9397932015012884
 30
0.0
 11
282.6964781228469974
 21
141.9697932015012896
 31
0.0
  0
LINE
  5
10197
  8
0
 10
282.7404681014469929
 20
141.9362605831013013
 30
0.0
 11
282.7404681014469929
 21
141.9397932015012884
 31
0.0
  0
LINE
  5
10198
  8
0
 10
282.7663520172470157
 20
141.9362605831013013
 30
0.0
 11
282.6679268204470077
 21
141.9362605831013013
 31
0.0
  0
LINE
  5
10199
  8
0
 10
282.7529268204469872
 20
141.9284682227554981
 30
0.0
 11
282.7529268204469872
 21
141.9284682227554981
 31
0.0
  0
LINE
  5
1019A
  8
0
 10
282.7529268204469872
 20
141.9362605831013013
 30
0.0
 11
282.7529268204469872
 21
141.8079966622013046
 31
0.0
  0
LINE
  5
1019B
  8
0
 10
282.6679268204470077
 20
141.7964589695577899
 30
0.0
 11
282.6979505818470102
 21
141.7964647923726886
 31
0.0
  0
ARC
  5
1019C
  8
0
 10
282.7261526808849794
 20
141.6920638502153054
 30
0.0
 40
0.1081430308133828
 50
91.7093622040593601
 51
105.1166566446651984
  0
ARC
  5
1019D
  8
0
 10
282.7251207835900004
 20
141.9226251314995011
 30
0.0
 40
0.122486024849896
 50
268.9736661677417828
 51
278.3588207412512929
  0
ARC
  5
1019E
  8
0
 10
282.7386194265620816
 20
141.8241355468333893
 30
0.0
 40
0.023100419036449
 50
280.7464920738436831
 51
297.9277562494066274
  0
ARC
  5
1019F
  8
0
 10
282.7471693852011754
 20
141.8091385907704876
 30
0.0
 40
0.0058695878446662
 50
292.744399551642573
 51
348.7815604216045813
  0
LINE
  5
101A0
  8
0
 10
282.6979505818470102
 20
141.7964647923726886
 30
0.0
 11
282.6979357801470201
 21
141.9162605831012911
 31
0.0
  0
LINE
  5
101A1
  8
0
 10
282.6679268204470077
 20
141.9162605831012911
 30
0.0
 11
282.6979357801470201
 21
141.9162605831012911
 31
0.0
  0
ARC
  5
101A2
  8
0
 10
282.7280526878612932
 20
141.8759407141384941
 30
0.0
 40
0.0503261359876927
 50
93.1240433756165658
 51
126.7578756611991935
  0
ARC
  5
101A3
  8
0
 10
282.6571624335899742
 20
143.2679443878905943
 30
0.0
 40
1.3434818210750421
 50
272.9075537291225828
 51
273.2775363621116753
  0
ARC
  5
101A4
  8
0
 10
282.7329038328470006
 20
141.946604319901212
 30
0.0
 40
0.0199728577999689
 50
273.0679738486704196
 51
328.8091988860282981
  0
LINE
  5
101A5
  8
0
 10
282.7306556098470196
 20
141.9264742404020865
 30
0.0
 11
282.7306556098470196
 21
141.9362605831013013
 31
0.0
  0
LINE
  5
101A6
  8
0
 10
282.7253093297470059
 20
141.8354769907329
 30
0.0
 11
282.7253093297470059
 21
141.926192022078709
 31
0.0
  0
LINE
  5
101A7
  8
0
 10
282.7229268204470145
 20
141.8001587573012898
 30
0.0
 11
282.7229268204470145
 21
141.82376058310129
 31
0.0
  0
ARC
  5
101A8
  8
0
 10
282.7529268205212816
 20
141.82376058310129
 30
0.0
 40
0.0300000000742955
 50
109.4712207348171944
 51
179.9999999999974989
  0
ARC
  5
101A9
  8
0
 10
282.7379268203903848
 20
141.8661869901063994
 30
0.0
 40
0.015000000095553
 50
289.4712207348205766
 51
0.0
  0
LINE
  5
101AA
  8
0
 10
290.6994228834470277
 20
145.4642369610214985
 30
0.0
 11
290.6994228834470277
 21
145.3658117642214904
 31
0.0
  0
LINE
  5
101AB
  8
0
 10
292.6088717023470167
 20
144.8736857799214874
 30
0.0
 11
292.7269820419469966
 21
144.8736857799214874
 31
0.0
  0
LINE
  5
101AC
  8
0
 10
292.6088717023470167
 20
137.0382054650214911
 30
0.0
 11
292.7269820419469966
 21
137.0382054650214911
 31
0.0
  0
LINE
  5
101AD
  8
0
 10
292.6088717023470167
 20
136.4476542838214925
 30
0.0
 11
292.7269820419469966
 21
136.4476542838214925
 31
0.0
  0
LINE
  5
101AE
  8
0
 10
292.6088717023470167
 20
135.4634023153215026
 30
0.0
 11
292.7269820419469966
 21
135.4634023153215026
 31
0.0
  0
LINE
  5
101AF
  8
0
 10
282.7271417810470098
 20
141.7862778577012932
 30
0.0
 11
282.7358052773470263
 21
141.7864505218012994
 31
0.0
  0
LINE
  5
101B0
  8
0
 10
282.7271417810470098
 20
142.7162433085013049
 30
0.0
 11
282.7358052773470263
 21
142.7160706444012988
 31
0.0
  0
LINE
  5
101B1
  8
0
 10
282.6679268204470077
 20
132.517874756357287
 30
0.0
 11
282.7137945477469998
 21
132.5178747563153081
 31
0.0
  0
ARC
  5
101B2
  8
0
 10
282.7137945477423955
 20
132.5128749494475926
 30
0.0
 40
0.0049998068677759
 50
19.5229742572677587
 51
89.9999999475510748
  0
ARC
  5
101B3
  8
0
 10
282.7279521178065238
 20
132.5178947975857966
 30
0.0
 40
0.0100213670360832
 50
199.5229742572726934
 51
266.8615605392661791
  0
ARC
  5
101B4
  8
0
 10
281.3691456361797236
 20
107.7361530578893962
 30
0.0
 40
24.8089447417186904
 50
86.8415247883060175
 51
86.8615605392662076
  0
ARC
  5
101B5
  8
0
 10
282.7327247188288766
 20
132.4468650464766881
 30
0.0
 40
0.0606390442057716
 50
56.3203693702914592
 51
86.8415247883060175
  0
ARC
  5
101B6
  8
0
 10
282.7338718807515079
 20
131.8416734376149009
 30
0.0
 40
0.1260262112477246
 50
75.0648709129499139
 51
89.1209780121296831
  0
ARC
  5
101B7
  8
0
 10
282.7261748154605812
 20
131.9898388349648997
 30
0.0
 40
0.0220026114695956
 50
235.7594030829129963
 51
272.5188326816194149
  0
LINE
  5
101B8
  8
0
 10
282.6679268204470077
 20
131.9716496700528126
 30
0.0
 11
282.7137946222470077
 21
131.971649669852809
 31
0.0
  0
ARC
  5
101B9
  8
0
 10
282.7130649318564224
 20
131.9770979420551953
 30
0.0
 40
0.0054969189605103
 50
277.6282641133597053
 51
351.9009155125136772
  0
LINE
  5
101BA
  8
0
 10
282.7185070240470282
 20
131.9763235063593072
 30
0.0
 11
282.7185069035469951
 21
132.5145458089527892
 31
0.0
  0
LINE
  5
101BB
  8
0
 10
282.6679268204470077
 20
131.7514073747528016
 30
0.0
 11
282.7663520172470157
 21
131.7514073747528016
 31
0.0
  0
LINE
  5
101BC
  8
0
 10
282.7663520172470157
 20
131.7814073747528028
 30
0.0
 11
282.6679268204470077
 21
131.7814073747528028
 31
0.0
  0
LINE
  5
101BD
  8
0
 10
282.6964781228469974
 20
131.7814073747528028
 30
0.0
 11
282.6964781228469974
 21
131.7514073747528016
 31
0.0
  0
LINE
  5
101BE
  8
0
 10
282.7404681014469929
 20
131.8178747563528077
 30
0.0
 11
282.7404681014469929
 21
131.7814073747528028
 31
0.0
  0
LINE
  5
101BF
  8
0
 10
282.7663520172470157
 20
131.8178747563528077
 30
0.0
 11
282.6679268204470077
 21
131.8178747563528077
 31
0.0
  0
LINE
  5
101C0
  8
0
 10
282.7529268204469872
 20
131.8256671166986109
 30
0.0
 11
282.7529268204469872
 21
131.8256671166986109
 31
0.0
  0
LINE
  5
101C1
  8
0
 10
282.7529268204469872
 20
131.8178747563528077
 30
0.0
 11
282.7529268204469872
 21
131.9461386772528044
 31
0.0
  0
LINE
  5
101C2
  8
0
 10
282.6679268204470077
 20
131.9576763698962907
 30
0.0
 11
282.6979505818470102
 21
131.957670547081392
 31
0.0
  0
ARC
  5
101C3
  8
0
 10
282.7261526808849794
 20
132.0620714892388037
 30
0.0
 40
0.1081430308133828
 50
254.8833433553348016
 51
268.290637795937414
  0
ARC
  5
101C4
  8
0
 10
282.7251207835900004
 20
131.8315102079546079
 30
0.0
 40
0.122486024849896
 50
81.6411792587486644
 51
91.0263338322581887
  0
ARC
  5
101C5
  8
0
 10
282.7386194265620816
 20
131.9299997926206913
 30
0.0
 40
0.023100419036449
 50
62.0722437505933797
 51
79.2535079261562885
  0
ARC
  5
101C6
  8
0
 10
282.7471693852011754
 20
131.9449967486835078
 30
0.0
 40
0.0058695878446662
 50
11.2184395783953708
 51
67.2556004483574554
  0
LINE
  5
101C7
  8
0
 10
282.6979505818470102
 20
131.957670547081392
 30
0.0
 11
282.6979357801470201
 21
131.8378747563527895
 31
0.0
  0
LINE
  5
101C8
  8
0
 10
282.6679268204470077
 20
131.8378747563527895
 30
0.0
 11
282.6979357801470201
 21
131.8378747563527895
 31
0.0
  0
ARC
  5
101C9
  8
0
 10
282.7280526878612932
 20
131.8781946253155866
 30
0.0
 40
0.0503261359876927
 50
233.2421243388008065
 51
266.8759566243834911
  0
ARC
  5
101CA
  8
0
 10
282.6571624335899742
 20
130.4861909515634011
 30
0.0
 40
1.3434818210750421
 50
86.7224636378882536
 51
87.0924462708742055
  0
ARC
  5
101CB
  8
0
 10
282.7329038328470006
 20
131.8075310195528118
 30
0.0
 40
0.0199728577999689
 50
31.19080111397178
 51
86.9320261513296231
  0
LINE
  5
101CC
  8
0
 10
282.7306556098470196
 20
131.8276610990519089
 30
0.0
 11
282.7306556098470196
 21
131.8178747563528077
 31
0.0
  0
LINE
  5
101CD
  8
0
 10
282.7253093297470059
 20
131.918658348721209
 30
0.0
 11
282.7253093297470059
 21
131.8279433173752864
 31
0.0
  0
LINE
  5
101CE
  8
0
 10
282.7229268204470145
 20
131.9539765821527908
 30
0.0
 11
282.7229268204470145
 21
131.9303747563527907
 31
0.0
  0
ARC
  5
101CF
  8
0
 10
282.7529268205212816
 20
131.9303747563527907
 30
0.0
 40
0.0300000000742955
 50
180.0000000000015916
 51
250.5287792651826919
  0
ARC
  5
101D0
  8
0
 10
282.7379268203903848
 20
131.8879483493477096
 30
0.0
 40
0.015000000095553
 50
0.0
 51
70.5287792651794234
  0
LINE
  5
101D1
  8
0
 10
282.6679268204470077
 20
130.4878747563421086
 30
0.0
 11
282.7137945477469998
 21
130.4878747563840875
 31
0.0
  0
ARC
  5
101D2
  8
0
 10
282.7137945477423955
 20
130.4928745632518883
 30
0.0
 40
0.0049998068677759
 50
270.000000052448911
 51
340.4770257427322235
  0
ARC
  5
101D3
  8
0
 10
282.7279521178065238
 20
130.4878547151137127
 30
0.0
 40
0.0100213670360832
 50
93.1384394607337924
 51
160.4770257427273066
  0
ARC
  5
101D4
  8
0
 10
281.3691456361797236
 20
155.2695964548099994
 30
0.0
 40
24.8089447417186904
 50
273.1384394607338209
 51
273.1584752116939967
  0
ARC
  5
101D5
  8
0
 10
282.7327247188288766
 20
130.5588844662227075
 30
0.0
 40
0.0606390442057716
 50
273.1584752116939967
 51
303.6796306297085835
  0
ARC
  5
101D6
  8
0
 10
282.7338718807515079
 20
131.1640760750906907
 30
0.0
 40
0.1260262112477246
 50
270.8790219878703169
 51
284.9351290870500861
  0
ARC
  5
101D7
  8
0
 10
282.7261748154605812
 20
131.0159106777406066
 30
0.0
 40
0.0220026114695956
 50
87.4811673183806846
 51
124.2405969170870037
  0
LINE
  5
101D8
  8
0
 10
282.6679268204470077
 20
131.0340998426528074
 30
0.0
 11
282.7137946222470077
 21
131.034099842852811
 31
0.0
  0
ARC
  5
101D9
  8
0
 10
282.7130649318564224
 20
131.028651570650311
 30
0.0
 40
0.0054969189605103
 50
8.0990844874863033
 51
82.3717358866403657
  0
LINE
  5
101DA
  8
0
 10
282.7185070240470282
 20
131.0294260063461991
 30
0.0
 11
282.7185069035469951
 21
130.4912037037466916
 31
0.0
  0
LINE
  5
101DB
  8
0
 10
282.6679268204470077
 20
131.2214073747528005
 30
0.0
 11
282.7663520172470157
 21
131.2214073747528005
 31
0.0
  0
LINE
  5
101DC
  8
0
 10
282.7663520172470157
 20
131.1914073747527993
 30
0.0
 11
282.6679268204470077
 21
131.1914073747527993
 31
0.0
  0
LINE
  5
101DD
  8
0
 10
282.6964781228469974
 20
131.1914073747527993
 30
0.0
 11
282.6964781228469974
 21
131.2214073747528005
 31
0.0
  0
LINE
  5
101DE
  8
0
 10
282.7404681014469929
 20
131.1878747563528123
 30
0.0
 11
282.7404681014469929
 21
131.1914073747527993
 31
0.0
  0
LINE
  5
101DF
  8
0
 10
282.7663520172470157
 20
131.1878747563528123
 30
0.0
 11
282.6679268204470077
 21
131.1878747563528123
 31
0.0
  0
LINE
  5
101E0
  8
0
 10
282.7529268204469872
 20
131.180082396007009
 30
0.0
 11
282.7529268204469872
 21
131.180082396007009
 31
0.0
  0
LINE
  5
101E1
  8
0
 10
282.7529268204469872
 20
131.1878747563528123
 30
0.0
 11
282.7529268204469872
 21
131.0596108354527871
 31
0.0
  0
LINE
  5
101E2
  8
0
 10
282.6679268204470077
 20
131.0480731428093009
 30
0.0
 11
282.6979505818470102
 21
131.0480789656241996
 31
0.0
  0
ARC
  5
101E3
  8
0
 10
282.7261526808849794
 20
130.9436780234667026
 30
0.0
 40
0.1081430308133828
 50
91.7093622040593601
 51
105.1166566446651984
  0
ARC
  5
101E4
  8
0
 10
282.7251207835900004
 20
131.174239304751012
 30
0.0
 40
0.122486024849896
 50
268.9736661677417828
 51
278.3588207412512929
  0
ARC
  5
101E5
  8
0
 10
282.7386194265620816
 20
131.0757497200849002
 30
0.0
 40
0.023100419036449
 50
280.7464920738436831
 51
297.9277562494066274
  0
ARC
  5
101E6
  8
0
 10
282.7471693852011754
 20
131.0607527640219985
 30
0.0
 40
0.0058695878446662
 50
292.744399551642573
 51
348.7815604216045813
  0
LINE
  5
101E7
  8
0
 10
282.6979505818470102
 20
131.0480789656241996
 30
0.0
 11
282.6979357801470201
 21
131.167874756352802
 31
0.0
  0
LINE
  5
101E8
  8
0
 10
282.6679268204470077
 20
131.167874756352802
 30
0.0
 11
282.6979357801470201
 21
131.167874756352802
 31
0.0
  0
ARC
  5
101E9
  8
0
 10
282.7280526878612932
 20
131.127554887390005
 30
0.0
 40
0.0503261359876927
 50
93.1240433756165658
 51
126.7578756611991935
  0
ARC
  5
101EA
  8
0
 10
282.6571624335899742
 20
132.5195585611421052
 30
0.0
 40
1.3434818210750421
 50
272.9075537291225828
 51
273.2775363621116753
  0
ARC
  5
101EB
  8
0
 10
282.7329038328470006
 20
131.1982184931526945
 30
0.0
 40
0.0199728577999689
 50
273.0679738486704196
 51
328.8091988860282981
  0
LINE
  5
101EC
  8
0
 10
282.7306556098470196
 20
131.1780884136535974
 30
0.0
 11
282.7306556098470196
 21
131.1878747563528123
 31
0.0
  0
LINE
  5
101ED
  8
0
 10
282.7253093297470059
 20
131.087091163984411
 30
0.0
 11
282.7253093297470059
 21
131.1778061953301915
 31
0.0
  0
LINE
  5
101EE
  8
0
 10
282.7229268204470145
 20
131.0517729305528007
 30
0.0
 11
282.7229268204470145
 21
131.0753747563528009
 31
0.0
  0
ARC
  5
101EF
  8
0
 10
282.7529268205212816
 20
131.0753747563528009
 30
0.0
 40
0.0300000000742955
 50
109.4712207348171944
 51
179.9999999999974989
  0
ARC
  5
101F0
  8
0
 10
282.7379268203903848
 20
131.1178011633577967
 30
0.0
 40
0.015000000095553
 50
289.4712207348205766
 51
0.0
  0
LINE
  5
101F1
  8
0
 10
282.7271417810470098
 20
131.0378920309528041
 30
0.0
 11
282.7358052773470263
 21
131.0380646950528103
 31
0.0
  0
LINE
  5
101F2
  8
0
 10
282.7271417810470098
 20
131.9678574817527874
 30
0.0
 11
282.7358052773470263
 21
131.9676848176528097
 31
0.0
  0
LINE
  5
101F3
  8
0
 10
282.6679268204470077
 20
129.2432763311215069
 30
0.0
 11
282.7663520173470033
 21
129.2432763311215069
 31
0.0
  0
LINE
  5
101F4
  8
0
 10
304.6758009395470026
 20
156.6453393232214921
 30
0.0
 11
304.6758009395470026
 21
122.2752603468214971
 31
0.0
  0
LINE
  5
101F5
  8
0
 10
302.6679269238470056
 20
156.6453393232214921
 30
0.0
 11
302.6679269238470056
 21
122.2752603468214971
 31
0.0
  0
LINE
  5
101F6
  8
0
 10
304.6758009395470026
 20
122.2752603468214971
 30
0.0
 11
302.6679269238470056
 21
122.2752603468214971
 31
0.0
  0
LINE
  5
101F7
  8
0
 10
304.5576909395470011
 20
122.1571503468214956
 30
0.0
 11
302.7860369238470071
 21
122.1571503468214956
 31
0.0
  0
LINE
  5
101F8
  8
0
 10
304.6758009395470026
 20
122.2752603468214971
 30
0.0
 11
304.5576909395470011
 21
122.1571503468214956
 31
0.0
  0
LINE
  5
101F9
  8
0
 10
302.7860369238470071
 20
122.1571503468214956
 30
0.0
 11
302.6679269238470056
 21
122.2752603468214971
 31
0.0
  0
LINE
  5
101FA
  8
0
 10
304.065545020185823
 20
122.0768353842132967
 30
0.0
 11
303.2781828298470259
 21
122.0768353842132967
 31
0.0
  0
LINE
  5
101FB
  8
0
 10
304.065545020185823
 20
122.0768353842132967
 30
0.0
 11
304.065545020185823
 21
122.1571503468214956
 31
0.0
  0
LINE
  5
101FC
  8
0
 10
304.0652115409858993
 20
122.1571503468214956
 30
0.0
 11
304.0652115409858993
 21
122.0768353842132967
 31
0.0
  0
LINE
  5
101FD
  8
0
 10
304.064799446885786
 20
122.0768353842132967
 30
0.0
 11
304.064799446885786
 21
122.1571503468214956
 31
0.0
  0
LINE
  5
101FE
  8
0
 10
304.0637999232857283
 20
122.1571503468214956
 30
0.0
 11
304.0637999232857283
 21
122.0768353842132967
 31
0.0
  0
LINE
  5
101FF
  8
0
 10
304.0629768645858917
 20
122.0768353842132967
 30
0.0
 11
304.0629768645858917
 21
122.1571503468214956
 31
0.0
  0
LINE
  5
10200
  8
0
 10
304.0613140362858076
 20
122.1571503468214956
 30
0.0
 11
304.0613140362858076
 21
122.0768353842132967
 31
0.0
  0
LINE
  5
10201
  8
0
 10
304.0600822688858216
 20
122.0768353842132967
 30
0.0
 11
304.0600822688858216
 21
122.1571503468214956
 31
0.0
  0
LINE
  5
10202
  8
0
 10
304.0577606935859194
 20
122.1571503468214956
 30
0.0
 11
304.0577606935859194
 21
122.0768353842132967
 31
0.0
  0
LINE
  5
10203
  8
0
 10
304.0561235935858235
 20
122.0768353842132967
 30
0.0
 11
304.0561235935858235
 21
122.1571503468214956
 31
0.0
  0
LINE
  5
10204
  8
0
 10
304.0531496345857931
 20
122.1571503468214956
 30
0.0
 11
304.0531496345857931
 21
122.0768353842132967
 31
0.0
  0
LINE
  5
10205
  8
0
 10
304.0511437917858757
 20
122.1571503468214956
 30
0.0
 11
304.0511437917858757
 21
122.0768353842132967
 31
0.0
  0
LINE
  5
10206
  8
0
 10
304.0474934979857835
 20
122.1571503468214956
 30
0.0
 11
304.0474934979857835
 21
122.0768353842132967
 31
0.0
  0
LINE
  5
10207
  8
0
 10
304.0450602932859283
 20
122.0768353842132967
 30
0.0
 11
304.0450602932859283
 21
122.1571503468214956
 31
0.0
  0
LINE
  5
10208
  8
0
 10
304.0408077867858765
 20
122.1571503468214956
 30
0.0
 11
304.0408077867858765
 21
122.0768353842132967
 31
0.0
  0
LINE
  5
10209
  8
0
 10
304.0379859918858756
 20
122.0768353842132967
 30
0.0
 11
304.0379859918858756
 21
122.1571503468214956
 31
0.0
  0
LINE
  5
1020A
  8
0
 10
304.0331108260858173
 20
122.1571503468214956
 30
0.0
 11
304.0331108260858173
 21
122.0768353842132967
 31
0.0
  0
LINE
  5
1020B
  8
0
 10
304.0299081753859127
 20
122.0768353842132967
 30
0.0
 11
304.0299081753859127
 21
122.1571503468214956
 31
0.0
  0
LINE
  5
1020C
  8
0
 10
304.0244237127856763
 20
122.1571503468214956
 30
0.0
 11
304.0244237127856763
 21
122.0768353842132967
 31
0.0
  0
LINE
  5
1020D
  8
0
 10
304.020848984385907
 20
122.0768353842132967
 30
0.0
 11
304.020848984385907
 21
122.1571503468214956
 31
0.0
  0
LINE
  5
1020E
  8
0
 10
304.0147702574857931
 20
122.1571503468214956
 30
0.0
 11
304.0147702574857931
 21
122.0768353842132967
 31
0.0
  0
LINE
  5
1020F
  8
0
 10
304.0113777568857927
 20
122.0768353842132967
 30
0.0
 11
304.0113777568857927
 21
122.1571503468214956
 31
0.0
  0
LINE
  5
10210
  8
0
 10
304.0108332495860282
 20
122.0768353842132967
 30
0.0
 11
304.0108332495860282
 21
122.1571503468214956
 31
0.0
  0
LINE
  5
10211
  8
0
 10
304.0041769197858912
 20
122.1571503468214956
 30
0.0
 11
304.0041769197858912
 21
122.0768353842132967
 31
0.0
  0
LINE
  5
10212
  8
0
 10
304.0008915768859197
 20
122.0768353842132967
 30
0.0
 11
304.0008915768859197
 21
122.1571503468214956
 31
0.0
  0
LINE
  5
10213
  8
0
 10
303.9998884234859133
 20
122.0768353842132967
 30
0.0
 11
303.9998884234859133
 21
122.1571503468214956
 31
0.0
  0
LINE
  5
10214
  8
0
 10
303.9926727352856801
 20
122.1571503468214956
 30
0.0
 11
303.9926727352856801
 21
122.0768353842132967
 31
0.0
  0
LINE
  5
10215
  8
0
 10
303.9895035549859017
 20
122.0768353842132967
 30
0.0
 11
303.9895035549859017
 21
122.1571503468214956
 31
0.0
  0
LINE
  5
10216
  8
0
 10
303.988044504985794
 20
122.0768353842132967
 30
0.0
 11
303.988044504985794
 21
122.1571503468214956
 31
0.0
  0
LINE
  5
10217
  8
0
 10
303.9802892360859232
 20
122.1571503468214956
 30
0.0
 11
303.9802892360859232
 21
122.0768353842132967
 31
0.0
  0
LINE
  5
10218
  8
0
 10
303.9772449048858789
 20
122.0768353842132967
 30
0.0
 11
303.9772449048858789
 21
122.1571503468214956
 31
0.0
  0
LINE
  5
10219
  8
0
 10
303.975333957485816
 20
122.0768353842132967
 30
0.0
 11
303.975333957485816
 21
122.1571503468214956
 31
0.0
  0
LINE
  5
1021A
  8
0
 10
303.9670603645857909
 20
122.1571503468214956
 30
0.0
 11
303.9670603645857909
 21
122.0768353842132967
 31
0.0
  0
LINE
  5
1021B
  8
0
 10
303.9641492266858904
 20
122.0768353842132967
 30
0.0
 11
303.9641492266858904
 21
122.1571503468214956
 31
0.0
  0
LINE
  5
1021C
  8
0
 10
303.9617916195858243
 20
122.0768353842132967
 30
0.0
 11
303.9617916195858243
 21
122.1571503468214956
 31
0.0
  0
LINE
  5
1021D
  8
0
 10
303.9530223800858266
 20
122.1571503468214956
 30
0.0
 11
303.9530223800858266
 21
122.0768353842132967
 31
0.0
  0
LINE
  5
1021E
  8
0
 10
303.9502524148858242
 20
122.0768353842132967
 30
0.0
 11
303.9502524148858242
 21
122.1571503468214956
 31
0.0
  0
LINE
  5
1021F
  8
0
 10
303.9474546101859005
 20
122.0768353842132967
 30
0.0
 11
303.9474546101859005
 21
122.1571503468214956
 31
0.0
  0
LINE
  5
10220
  8
0
 10
303.9382137597858105
 20
122.1571503468214956
 30
0.0
 11
303.9382137597858105
 21
122.0768353842132967
 31
0.0
  0
LINE
  5
10221
  8
0
 10
303.9355925594858263
 20
122.0768353842132967
 30
0.0
 11
303.9355925594858263
 21
122.1571503468214956
 31
0.0
  0
LINE
  5
10222
  8
0
 10
303.9323622256857789
 20
122.0768353842132967
 30
0.0
 11
303.9323622256857789
 21
122.1571503468214956
 31
0.0
  0
LINE
  5
10223
  8
0
 10
303.9226750930857861
 20
122.1571503468214956
 30
0.0
 11
303.9226750930857861
 21
122.0768353842132967
 31
0.0
  0
LINE
  5
10224
  8
0
 10
303.9202098422857716
 20
122.0768353842132967
 30
0.0
 11
303.9202098422857716
 21
122.1571503468214956
 31
0.0
  0
LINE
  5
10225
  8
0
 10
303.9165558335859032
 20
122.0768353842132967
 30
0.0
 11
303.9165558335859032
 21
122.1571503468214956
 31
0.0
  0
LINE
  5
10226
  8
0
 10
303.9064489703858953
 20
122.1571503468214956
 30
0.0
 11
303.9064489703858953
 21
122.0768353842132967
 31
0.0
  0
LINE
  5
10227
  8
0
 10
303.9041464260856742
 20
122.0768353842132967
 30
0.0
 11
303.9041464260856742
 21
122.1571503468214956
 31
0.0
  0
LINE
  5
10228
  8
0
 10
303.900078757885808
 20
122.0768353842132967
 30
0.0
 11
303.900078757885808
 21
122.1571503468214956
 31
0.0
  0
LINE
  5
10229
  8
0
 10
303.8895798663858159
 20
122.1571503468214956
 30
0.0
 11
303.8895798663858159
 21
122.0768353842132967
 31
0.0
  0
LINE
  5
1022A
  8
0
 10
303.8874463397859245
 20
122.0768353842132967
 30
0.0
 11
303.8874463397859245
 21
122.1571503468214956
 31
0.0
  0
LINE
  5
1022B
  8
0
 10
303.8829761611859226
 20
122.0768353842132967
 30
0.0
 11
303.8829761611859226
 21
122.1571503468214956
 31
0.0
  0
LINE
  5
1022C
  8
0
 10
303.8721140180858811
 20
122.1571503468214956
 30
0.0
 11
303.8721140180858811
 21
122.0768353842132967
 31
0.0
  0
LINE
  5
1022D
  8
0
 10
303.8701553569858902
 20
122.0768353842132967
 30
0.0
 11
303.8701553569858902
 21
122.1571503468214956
 31
0.0
  0
LINE
  5
1022E
  8
0
 10
303.8653991183858807
 20
122.1571503468214956
 30
0.0
 11
303.8653991183858807
 21
122.0768353842132967
 31
0.0
  0
LINE
  5
1022F
  8
0
 10
303.8540992981858153
 20
122.1571503468214956
 30
0.0
 11
303.8540992981858153
 21
122.0768353842132967
 31
0.0
  0
LINE
  5
10230
  8
0
 10
303.852320871085908
 20
122.0768353842132967
 30
0.0
 11
303.852320871085908
 21
122.1571503468214956
 31
0.0
  0
LINE
  5
10231
  8
0
 10
303.8470834987858211
 20
122.0768353842132967
 30
0.0
 11
303.8470834987858211
 21
122.1571503468214956
 31
0.0
  0
LINE
  5
10232
  8
0
 10
303.8355850837858156
 20
122.1571503468214956
 30
0.0
 11
303.8355850837858156
 21
122.0768353842132967
 31
0.0
  0
LINE
  5
10233
  8
0
 10
303.8339917652858162
 20
122.0768353842132967
 30
0.0
 11
303.8339917652858162
 21
122.1571503468214956
 31
0.0
  0
LINE
  5
10234
  8
0
 10
303.8283918124859042
 20
122.0768353842132967
 30
0.0
 11
303.8283918124859042
 21
122.1571503468214956
 31
0.0
  0
LINE
  5
10235
  8
0
 10
303.8166221210856861
 20
122.1571503468214956
 30
0.0
 11
303.8166221210856861
 21
122.0768353842132967
 31
0.0
  0
LINE
  5
10236
  8
0
 10
303.8152182782858972
 20
122.0768353842132967
 30
0.0
 11
303.8152182782858972
 21
122.1571503468214956
 31
0.0
  0
LINE
  5
10237
  8
0
 10
303.8092710940857728
 20
122.0768353842132967
 30
0.0
 11
303.8092710940857728
 21
122.1571503468214956
 31
0.0
  0
LINE
  5
10238
  8
0
 10
303.7972623861858779
 20
122.1571503468214956
 30
0.0
 11
303.7972623861858779
 21
122.0768353842132967
 31
0.0
  0
LINE
  5
10239
  8
0
 10
303.7960518669859766
 20
122.0768353842132967
 30
0.0
 11
303.7960518669859766
 21
122.1571503468214956
 31
0.0
  0
LINE
  5
1023A
  8
0
 10
303.7897737521859085
 20
122.0768353842132967
 30
0.0
 11
303.7897737521859085
 21
122.1571503468214956
 31
0.0
  0
LINE
  5
1023B
  8
0
 10
303.7775589427860155
 20
122.1571503468214956
 30
0.0
 11
303.7775589427860155
 21
122.0768353842132967
 31
0.0
  0
LINE
  5
1023C
  8
0
 10
303.7765450651858146
 20
122.0768353842132967
 30
0.0
 11
303.7765450651858146
 21
122.1571503468214956
 31
0.0
  0
LINE
  5
1023D
  8
0
 10
303.7699532275859156
 20
122.0768353842132967
 30
0.0
 11
303.7699532275859156
 21
122.1571503468214956
 31
0.0
  0
LINE
  5
1023E
  8
0
 10
303.7575657966858103
 20
122.1571503468214956
 30
0.0
 11
303.7575657966858103
 21
122.0768353842132967
 31
0.0
  0
LINE
  5
1023F
  8
0
 10
303.7567513395857759
 20
122.0768353842132967
 30
0.0
 11
303.7567513395857759
 21
122.1571503468214956
 31
0.0
  0
LINE
  5
10240
  8
0
 10
303.749863847085976
 20
122.0768353842132967
 30
0.0
 11
303.749863847085976
 21
122.1571503468214956
 31
0.0
  0
LINE
  5
10241
  8
0
 10
303.7373377476860128
 20
122.1571503468214956
 30
0.0
 11
303.7373377476860128
 21
122.0768353842132967
 31
0.0
  0
LINE
  5
10242
  8
0
 10
303.7367249434859104
 20
122.0768353842132967
 30
0.0
 11
303.7367249434859104
 21
122.1571503468214956
 31
0.0
  0
LINE
  5
10243
  8
0
 10
303.729560674185791
 20
122.0768353842132967
 30
0.0
 11
303.729560674185791
 21
122.1571503468214956
 31
0.0
  0
LINE
  5
10244
  8
0
 10
303.716930239485805
 20
122.1571503468214956
 30
0.0
 11
303.716930239485805
 21
122.0768353842132967
 31
0.0
  0
LINE
  5
10245
  8
0
 10
303.7165207677858803
 20
122.0768353842132967
 30
0.0
 11
303.7165207677858803
 21
122.1571503468214956
 31
0.0
  0
LINE
  5
10246
  8
0
 10
303.7090993583860268
 20
122.0768353842132967
 30
0.0
 11
303.7090993583860268
 21
122.1571503468214956
 31
0.0
  0
LINE
  5
10247
  8
0
 10
303.6963992075857846
 20
122.1571503468214956
 30
0.0
 11
303.6963992075857846
 21
122.0768353842132967
 31
0.0
  0
LINE
  5
10248
  8
0
 10
303.68853598288581
 20
122.0768353842132967
 30
0.0
 11
303.68853598288581
 21
122.1571503468214956
 31
0.0
  0
LINE
  5
10249
  8
0
 10
303.6758009261859002
 20
122.1571503468214956
 30
0.0
 11
303.6758009261859002
 21
122.0768353842132967
 31
0.0
  0
LINE
  5
1024A
  8
0
 10
303.6679269104857894
 20
122.0768353842132967
 30
0.0
 11
303.6679269104857894
 21
122.1571503468214956
 31
0.0
  0
LINE
  5
1024B
  8
0
 10
303.6551918537858228
 20
122.1571503468214956
 30
0.0
 11
303.6551918537858228
 21
122.0768353842132967
 31
0.0
  0
LINE
  5
1024C
  8
0
 10
303.6473286290857914
 20
122.0768353842132967
 30
0.0
 11
303.6473286290857914
 21
122.1571503468214956
 31
0.0
  0
LINE
  5
1024D
  8
0
 10
303.6346284782858902
 20
122.1571503468214956
 30
0.0
 11
303.6346284782858902
 21
122.0768353842132967
 31
0.0
  0
LINE
  5
1024E
  8
0
 10
303.627207068885923
 20
122.0768353842132967
 30
0.0
 11
303.627207068885923
 21
122.1571503468214956
 31
0.0
  0
LINE
  5
1024F
  8
0
 10
303.6267975971858277
 20
122.0768353842132967
 30
0.0
 11
303.6267975971858277
 21
122.1571503468214956
 31
0.0
  0
LINE
  5
10250
  8
0
 10
303.6141671625858862
 20
122.1571503468214956
 30
0.0
 11
303.6141671625858862
 21
122.0768353842132967
 31
0.0
  0
LINE
  5
10251
  8
0
 10
303.6070028931860065
 20
122.0768353842132967
 30
0.0
 11
303.6070028931860065
 21
122.1571503468214956
 31
0.0
  0
LINE
  5
10252
  8
0
 10
303.6063900889859042
 20
122.0768353842132967
 30
0.0
 11
303.6063900889859042
 21
122.1571503468214956
 31
0.0
  0
LINE
  5
10253
  8
0
 10
303.5938639895858842
 20
122.1571503468214956
 30
0.0
 11
303.5938639895858842
 21
122.0768353842132967
 31
0.0
  0
LINE
  5
10254
  8
0
 10
303.5869764970859137
 20
122.0768353842132967
 30
0.0
 11
303.5869764970859137
 21
122.1571503468214956
 31
0.0
  0
LINE
  5
10255
  8
0
 10
303.5861620399858793
 20
122.0768353842132967
 30
0.0
 11
303.5861620399858793
 21
122.1571503468214956
 31
0.0
  0
LINE
  5
10256
  8
0
 10
303.5737746090858877
 20
122.1571503468214956
 30
0.0
 11
303.5737746090858877
 21
122.0768353842132967
 31
0.0
  0
LINE
  5
10257
  8
0
 10
303.5671827714858182
 20
122.0768353842132967
 30
0.0
 11
303.5671827714858182
 21
122.1571503468214956
 31
0.0
  0
LINE
  5
10258
  8
0
 10
303.566284149585897
 20
122.1571503468214956
 30
0.0
 11
303.566284149585897
 21
122.0768353842132967
 31
0.0
  0
LINE
  5
10259
  8
0
 10
303.5539540844857811
 20
122.1571503468214956
 30
0.0
 11
303.5539540844857811
 21
122.0768353842132967
 31
0.0
  0
LINE
  5
1025A
  8
0
 10
303.5476759696858835
 20
122.0768353842132967
 30
0.0
 11
303.5476759696858835
 21
122.1571503468214956
 31
0.0
  0
LINE
  5
1025B
  8
0
 10
303.5464654504859254
 20
122.0768353842132967
 30
0.0
 11
303.5464654504859254
 21
122.1571503468214956
 31
0.0
  0
LINE
  5
1025C
  8
0
 10
303.5344567425858031
 20
122.1571503468214956
 30
0.0
 11
303.5344567425858031
 21
122.0768353842132967
 31
0.0
  0
LINE
  5
1025D
  8
0
 10
303.5285095583856787
 20
122.0768353842132967
 30
0.0
 11
303.5285095583856787
 21
122.1571503468214956
 31
0.0
  0
LINE
  5
1025E
  8
0
 10
303.5271057155858898
 20
122.0768353842132967
 30
0.0
 11
303.5271057155858898
 21
122.1571503468214956
 31
0.0
  0
LINE
  5
1025F
  8
0
 10
303.5153360241857854
 20
122.1571503468214956
 30
0.0
 11
303.5153360241857854
 21
122.0768353842132967
 31
0.0
  0
LINE
  5
10260
  8
0
 10
303.5097360713858734
 20
122.0768353842132967
 30
0.0
 11
303.5097360713858734
 21
122.1571503468214956
 31
0.0
  0
LINE
  5
10261
  8
0
 10
303.508142752885874
 20
122.0768353842132967
 30
0.0
 11
303.508142752885874
 21
122.1571503468214956
 31
0.0
  0
LINE
  5
10262
  8
0
 10
303.4966443378859253
 20
122.1571503468214956
 30
0.0
 11
303.4966443378859253
 21
122.0768353842132967
 31
0.0
  0
LINE
  5
10263
  8
0
 10
303.4914069655858953
 20
122.0768353842132967
 30
0.0
 11
303.4914069655858953
 21
122.1571503468214956
 31
0.0
  0
LINE
  5
10264
  8
0
 10
303.4896285384858174
 20
122.0768353842132967
 30
0.0
 11
303.4896285384858174
 21
122.1571503468214956
 31
0.0
  0
LINE
  5
10265
  8
0
 10
303.4784329162858967
 20
122.1571503468214956
 30
0.0
 11
303.4784329162858967
 21
122.0768353842132967
 31
0.0
  0
LINE
  5
10266
  8
0
 10
303.4735724797859007
 20
122.0768353842132967
 30
0.0
 11
303.4735724797859007
 21
122.1571503468214956
 31
0.0
  0
LINE
  5
10267
  8
0
 10
303.4716138185856948
 20
122.0768353842132967
 30
0.0
 11
303.4716138185856948
 21
122.1571503468214956
 31
0.0
  0
LINE
  5
10268
  8
0
 10
303.4607516755858114
 20
122.1571503468214956
 30
0.0
 11
303.4607516755858114
 21
122.0768353842132967
 31
0.0
  0
LINE
  5
10269
  8
0
 10
303.4562814969858096
 20
122.0768353842132967
 30
0.0
 11
303.4562814969858096
 21
122.1571503468214956
 31
0.0
  0
LINE
  5
1026A
  8
0
 10
303.4541479702858169
 20
122.0768353842132967
 30
0.0
 11
303.4541479702858169
 21
122.1571503468214956
 31
0.0
  0
LINE
  5
1026B
  8
0
 10
303.443649078885926
 20
122.1571503468214956
 30
0.0
 11
303.443649078885926
 21
122.0768353842132967
 31
0.0
  0
LINE
  5
1026C
  8
0
 10
303.4395814105859017
 20
122.0768353842132967
 30
0.0
 11
303.4395814105859017
 21
122.1571503468214956
 31
0.0
  0
LINE
  5
1026D
  8
0
 10
303.4372788662856806
 20
122.0768353842132967
 30
0.0
 11
303.4372788662856806
 21
122.1571503468214956
 31
0.0
  0
LINE
  5
1026E
  8
0
 10
303.427172003185774
 20
122.1571503468214956
 30
0.0
 11
303.427172003185774
 21
122.0768353842132967
 31
0.0
  0
LINE
  5
1026F
  8
0
 10
303.423517994385918
 20
122.0768353842132967
 30
0.0
 11
303.423517994385918
 21
122.1571503468214956
 31
0.0
  0
LINE
  5
10270
  8
0
 10
303.4210527435857898
 20
122.0768353842132967
 30
0.0
 11
303.4210527435857898
 21
122.1571503468214956
 31
0.0
  0
LINE
  5
10271
  8
0
 10
303.411365610985797
 20
122.1571503468214956
 30
0.0
 11
303.411365610985797
 21
122.0768353842132967
 31
0.0
  0
LINE
  5
10272
  8
0
 10
303.4081352771858064
 20
122.0768353842132967
 30
0.0
 11
303.4081352771858064
 21
122.1571503468214956
 31
0.0
  0
LINE
  5
10273
  8
0
 10
303.4055140768858791
 20
122.0768353842132967
 30
0.0
 11
303.4055140768858791
 21
122.1571503468214956
 31
0.0
  0
LINE
  5
10274
  8
0
 10
303.3962732265857767
 20
122.1571503468214956
 30
0.0
 11
303.3962732265857767
 21
122.0768353842132967
 31
0.0
  0
LINE
  5
10275
  8
0
 10
303.3934754217859222
 20
122.0768353842132967
 30
0.0
 11
303.3934754217859222
 21
122.1571503468214956
 31
0.0
  0
LINE
  5
10276
  8
0
 10
303.3907054565858061
 20
122.0768353842132967
 30
0.0
 11
303.3907054565858061
 21
122.1571503468214956
 31
0.0
  0
LINE
  5
10277
  8
0
 10
303.3819362170858085
 20
122.1571503468214956
 30
0.0
 11
303.3819362170858085
 21
122.0768353842132967
 31
0.0
  0
LINE
  5
10278
  8
0
 10
303.3795786099857992
 20
122.0768353842132967
 30
0.0
 11
303.3795786099857992
 21
122.1571503468214956
 31
0.0
  0
LINE
  5
10279
  8
0
 10
303.3766674721858863
 20
122.0768353842132967
 30
0.0
 11
303.3766674721858863
 21
122.1571503468214956
 31
0.0
  0
LINE
  5
1027A
  8
0
 10
303.3683938926470205
 20
122.1571503468214956
 30
0.0
 11
303.3683938926470205
 21
122.0768353842132967
 31
0.0
  0
LINE
  5
1027B
  8
0
 10
303.3664829451470268
 20
122.0768353842132967
 30
0.0
 11
303.3664829451470268
 21
122.1571503468214956
 31
0.0
  0
LINE
  5
1027C
  8
0
 10
303.3634386005858801
 20
122.0768353842132967
 30
0.0
 11
303.3634386005858801
 21
122.1571503468214956
 31
0.0
  0
LINE
  5
1027D
  8
0
 10
303.3556833450469981
 20
122.0768353842132967
 30
0.0
 11
303.3556833450469981
 21
122.1571503468214956
 31
0.0
  0
LINE
  5
1027E
  8
0
 10
303.3542242951469916
 20
122.0768353842132967
 30
0.0
 11
303.3542242951469916
 21
122.1571503468214956
 31
0.0
  0
LINE
  5
1027F
  8
0
 10
303.3510551147469982
 20
122.0768353842132967
 30
0.0
 11
303.3510551147469982
 21
122.1571503468214956
 31
0.0
  0
LINE
  5
10280
  8
0
 10
303.3438394265469924
 20
122.0768353842132967
 30
0.0
 11
303.3438394265469924
 21
122.1571503468214956
 31
0.0
  0
LINE
  5
10281
  8
0
 10
303.3428362731469861
 20
122.0768353842132967
 30
0.0
 11
303.3428362731469861
 21
122.1571503468214956
 31
0.0
  0
LINE
  5
10282
  8
0
 10
303.3395509302470145
 20
122.0768353842132967
 30
0.0
 11
303.3395509302470145
 21
122.1571503468214956
 31
0.0
  0
LINE
  5
10283
  8
0
 10
303.3328946004469913
 20
122.0768353842132967
 30
0.0
 11
303.3328946004469913
 21
122.1571503468214956
 31
0.0
  0
LINE
  5
10284
  8
0
 10
303.3323500932469869
 20
122.0768353842132967
 30
0.0
 11
303.3323500932469869
 21
122.1571503468214956
 31
0.0
  0
LINE
  5
10285
  8
0
 10
303.3290163907469719
 20
122.0768353842132967
 30
0.0
 11
303.3290163907469719
 21
122.1571503468214956
 31
0.0
  0
LINE
  5
10286
  8
0
 10
303.3228788656469987
 20
122.0768353842132967
 30
0.0
 11
303.3228788656469987
 21
122.1571503468214956
 31
0.0
  0
LINE
  5
10287
  8
0
 10
303.3193041373469896
 20
122.0768353842132967
 30
0.0
 11
303.3193041373469896
 21
122.1571503468214956
 31
0.0
  0
LINE
  5
10288
  8
0
 10
303.3138196747469806
 20
122.0768353842132967
 30
0.0
 11
303.3138196747469806
 21
122.1571503468214956
 31
0.0
  0
LINE
  5
10289
  8
0
 10
303.3106170239469748
 20
122.0768353842132967
 30
0.0
 11
303.3106170239469748
 21
122.1571503468214956
 31
0.0
  0
LINE
  5
1028A
  8
0
 10
303.3057418581469733
 20
122.0768353842132967
 30
0.0
 11
303.3057418581469733
 21
122.1571503468214956
 31
0.0
  0
LINE
  5
1028B
  8
0
 10
303.3029200632469724
 20
122.0768353842132967
 30
0.0
 11
303.3029200632469724
 21
122.1571503468214956
 31
0.0
  0
LINE
  5
1028C
  8
0
 10
303.2986675567469774
 20
122.0768353842132967
 30
0.0
 11
303.2986675567469774
 21
122.1571503468214956
 31
0.0
  0
LINE
  5
1028D
  8
0
 10
303.2962343520470085
 20
122.0768353842132967
 30
0.0
 11
303.2962343520470085
 21
122.1571503468214956
 31
0.0
  0
LINE
  5
1028E
  8
0
 10
303.2926161607470021
 20
122.0768353842132967
 30
0.0
 11
303.2926161607470021
 21
122.1571503468214956
 31
0.0
  0
LINE
  5
1028F
  8
0
 10
303.2905782154469989
 20
122.0768353842132967
 30
0.0
 11
303.2905782154469989
 21
122.1571503468214956
 31
0.0
  0
LINE
  5
10290
  8
0
 10
303.2876042564470254
 20
122.0768353842132967
 30
0.0
 11
303.2876042564470254
 21
122.1571503468214956
 31
0.0
  0
LINE
  5
10291
  8
0
 10
303.2859671564469863
 20
122.0768353842132967
 30
0.0
 11
303.2859671564469863
 21
122.1571503468214956
 31
0.0
  0
LINE
  5
10292
  8
0
 10
303.2836455812470149
 20
122.0768353842132967
 30
0.0
 11
303.2836455812470149
 21
122.1571503468214956
 31
0.0
  0
LINE
  5
10293
  8
0
 10
303.2824138137469845
 20
122.0768353842132967
 30
0.0
 11
303.2824138137469845
 21
122.1571503468214956
 31
0.0
  0
LINE
  5
10294
  8
0
 10
303.280750985447014
 20
122.0768353842132967
 30
0.0
 11
303.280750985447014
 21
122.1571503468214956
 31
0.0
  0
LINE
  5
10295
  8
0
 10
303.2799279267470069
 20
122.0768353842132967
 30
0.0
 11
303.2799279267470069
 21
122.1571503468214956
 31
0.0
  0
LINE
  5
10296
  8
0
 10
303.2789284031470061
 20
122.0768353842132967
 30
0.0
 11
303.2789284031470061
 21
122.1571503468214956
 31
0.0
  0
LINE
  5
10297
  8
0
 10
303.2785163090470064
 20
122.0768353842132967
 30
0.0
 11
303.2785163090470064
 21
122.1571503468214956
 31
0.0
  0
LINE
  5
10298
  8
0
 10
303.2781828298470259
 20
122.0768353842132967
 30
0.0
 11
303.2781828298470259
 21
122.1571503468214956
 31
0.0
  0
LINE
  5
10299
  8
0
 10
304.0065094317470198
 20
122.0768353842132967
 30
0.0
 11
304.0065094317470198
 21
122.0571503468215013
 31
0.0
  0
LINE
  5
1029A
  8
0
 10
304.0065094317470198
 20
122.0571503468215013
 30
0.0
 11
303.337218431746976
 21
122.0571503468215013
 31
0.0
  0
LINE
  5
1029B
  8
0
 10
303.337218431746976
 20
122.0571503468215013
 30
0.0
 11
303.337218431746976
 21
122.0768353842132967
 31
0.0
  0
LINE
  5
1029C
  8
0
 10
302.6679269238470056
 20
124.1250254910215034
 30
0.0
 11
300.1481012806469835
 21
126.6448511342214971
 31
0.0
  0
LINE
  5
1029D
  8
0
 10
302.6169743788469759
 20
128.2196542839214999
 30
0.0
 11
302.6169743788469759
 21
126.6448511342214971
 31
0.0
  0
LINE
  5
1029E
  8
0
 10
302.56950172694701
 20
128.3185676697214888
 30
0.0
 11
292.7269820419469966
 21
128.3185676697214888
 31
0.0
  0
LINE
  5
1029F
  8
0
 10
292.7269820419469966
 20
128.3185676697214888
 30
0.0
 11
292.7269820419469966
 21
145.3658117642214904
 31
0.0
  0
LINE
  5
102A0
  8
0
 10
292.7269820419469966
 20
145.3658117642214904
 30
0.0
 11
302.56950172694701
 21
145.3658117642214904
 31
0.0
  0
LINE
  5
102A1
  8
0
 10
302.56950172694701
 20
145.3658117642214904
 30
0.0
 11
302.56950172694701
 21
128.3185676697214888
 31
0.0
  0
LINE
  5
102A2
  8
0
 10
302.6285568450470009
 20
146.2122684571214961
 30
0.0
 11
302.6285568450470009
 21
145.4642369610214985
 31
0.0
  0
LINE
  5
102A3
  8
0
 10
302.56950172694701
 20
154.9721109768215115
 30
0.0
 11
302.56950172694701
 21
146.3106936539215042
 31
0.0
  0
ARC
  5
102A4
  8
0
 10
297.037690703346982
 20
150.2674101894214971
 30
0.0
 40
0.02
 50
270.0
 51
0.0
  0
LINE
  5
102A5
  8
0
 10
297.0576907033470206
 20
150.2674101894214971
 30
0.0
 11
297.0576907033470206
 21
151.0148117642214913
 31
0.0
  0
ARC
  5
102A6
  8
0
 10
297.037690703346982
 20
151.0148117642214913
 30
0.0
 40
0.02
 50
0.0
 51
90.0
  0
LINE
  5
102A7
  8
0
 10
302.6279269238469851
 20
156.6453393232214921
 30
0.0
 11
302.6279269238469851
 21
155.0705361736214911
 31
0.0
  0
LINE
  5
102A8
  8
0
 10
300.9406596802675153
 20
155.0705361736214911
 30
0.0
 11
300.8983146015013972
 21
154.9721109768215115
 31
0.0
  0
LINE
  5
102A9
  8
0
 10
294.6364308608469855
 20
155.0705361736214911
 30
0.0
 11
294.6364308608469855
 21
154.9721109768215115
 31
0.0
  0
LINE
  5
102AA
  8
0
 10
302.6470038427470968
 20
152.1000155771714901
 30
0.0
 11
302.6470038521471793
 21
152.0999260507715007
 31
0.0
  0
LINE
  5
102AB
  8
0
 10
302.6625535695467875
 20
152.9019087546215019
 30
0.0
 11
302.6625535695470148
 21
151.7480509185214999
 31
0.0
  0
ARC
  5
102AC
  8
0
 10
302.6932622309470275
 20
152.3025877610714929
 30
0.0
 40
0.2078740157
 50
233.461483934499114
 51
257.1422751273938161
  0
ARC
  5
102AD
  8
0
 10
302.6932622309470275
 20
152.3473719138715126
 30
0.0
 40
0.2078740157
 50
102.8577248726061981
 51
126.5385160655008008
  0
ARC
  5
102AE
  8
0
 10
302.6425535695469762
 20
152.56953221347149
 30
0.0
 40
0.02
 50
282.8576387029971784
 51
0.0
  0
ARC
  5
102AF
  8
0
 10
302.6425535695469762
 20
152.080427461471487
 30
0.0
 40
0.02
 50
0.0
 51
77.1423612970027506
  0
ARC
  5
102B0
  8
0
 10
302.6725535695470057
 20
152.9019087563214896
 30
0.0
 40
0.0099999999999875
 50
117.5591814447250982
 51
180.0000097403544999
  0
ARC
  5
102B1
  8
0
 10
302.6725535695463236
 20
151.748050918520903
 30
0.0
 40
0.0099999999990867
 50
179.9999999963563084
 51
242.4408185596356873
  0
LINE
  5
102B2
  8
0
 10
300.0081237742516009
 20
146.2122684571214961
 30
0.0
 11
300.0081237742095936
 21
146.2581361844214882
 31
0.0
  0
ARC
  5
102B3
  8
0
 10
300.0031239673418213
 20
146.2581361844169123
 30
0.0
 40
0.0049998068677759
 50
0.00000005244811
 51
70.4770257427309303
  0
ARC
  5
102B4
  8
0
 10
300.0081438154800253
 20
146.2722937544810122
 30
0.0
 40
0.0100213670360832
 50
183.1384394607337924
 51
250.4770257427273066
  0
ARC
  5
102B5
  8
0
 10
275.2264020757837102
 20
144.9134872728542121
 30
0.0
 40
24.8089447417186904
 50
3.1384394607338328
 51
3.158475211693879
  0
ARC
  5
102B6
  8
0
 10
299.9371140643709737
 20
146.2770663555033934
 30
0.0
 40
0.0606390442057716
 50
3.1584752116956838
 51
33.6796306297076526
  0
ARC
  5
102B7
  8
0
 10
299.3319224555090159
 20
146.2782135174259963
 30
0.0
 40
0.1260262112477246
 50
0.8790219878711184
 51
14.9351290870504307
  0
ARC
  5
102B8
  8
0
 10
156.0684443337117102
 20
143.4180506787151899
 30
0.0
 40
143.4180507971611007
 50
1.140026936901265
 51
1.143488707192458
  0
ARC
  5
102B9
  8
0
 10
299.4800878528591284
 20
146.270516452135098
 30
0.0
 40
0.0220026114695956
 50
177.481167318379903
 51
214.2405969170852131
  0
LINE
  5
102BA
  8
0
 10
299.4618986879469844
 20
146.2122684571214961
 30
0.0
 11
299.4618986877470093
 21
146.2581362589214962
 31
0.0
  0
ARC
  5
102BB
  8
0
 10
299.4673469599493956
 20
146.2574065685309108
 30
0.0
 40
0.0054969189605103
 50
98.0990844874863086
 51
172.3717358866404936
  0
LINE
  5
102BC
  8
0
 10
299.4665725242535927
 20
146.2628486607214882
 30
0.0
 11
300.0047948268469895
 21
146.2628485402215119
 31
0.0
  0
LINE
  5
102BD
  8
0
 10
299.2416563926469735
 20
146.2122684571214961
 30
0.0
 11
299.2416563926469735
 21
146.3106936539215042
 31
0.0
  0
LINE
  5
102BE
  8
0
 10
299.271656392647003
 20
146.3106936539215042
 30
0.0
 11
299.271656392647003
 21
146.2122684571214961
 31
0.0
  0
LINE
  5
102BF
  8
0
 10
299.271656392647003
 20
146.2408197595214858
 30
0.0
 11
299.2416563926469735
 21
146.2408197595214858
 31
0.0
  0
LINE
  5
102C0
  8
0
 10
299.308123774247008
 20
146.2848097381215098
 30
0.0
 11
299.271656392647003
 21
146.2848097381215098
 31
0.0
  0
LINE
  5
102C1
  8
0
 10
299.308123774247008
 20
146.3106936539215042
 30
0.0
 11
299.308123774247008
 21
146.2122684571214961
 31
0.0
  0
LINE
  5
102C2
  8
0
 10
299.3159161345927828
 20
146.2972684571215041
 30
0.0
 11
299.3159161345927828
 21
146.2972684571215041
 31
0.0
  0
LINE
  5
102C3
  8
0
 10
299.308123774247008
 20
146.2972684571215041
 30
0.0
 11
299.4363876951470047
 21
146.2972684571215041
 31
0.0
  0
LINE
  5
102C4
  8
0
 10
299.4479253877905194
 20
146.2122684571214961
 30
0.0
 11
299.4479195649756207
 21
146.2422922185214986
 31
0.0
  0
ARC
  5
102C5
  8
0
 10
299.552320507133004
 20
146.2704943175594963
 30
0.0
 40
0.1081430308133828
 50
181.7093622040609944
 51
195.116656644665909
  0
ARC
  5
102C6
  8
0
 10
299.3217592258487798
 20
146.2694624202644889
 30
0.0
 40
0.122486024849896
 50
358.973666167740987
 51
8.3588207412530728
  0
ARC
  5
102C7
  8
0
 10
299.42024881051492
 20
146.2829610632365984
 30
0.0
 40
0.023100419036449
 50
10.7464920738442107
 51
27.9277562494069684
  0
ARC
  5
102C8
  8
0
 10
299.4352457665776797
 20
146.2915110218758059
 30
0.0
 40
0.0058695878446662
 50
22.7443995516421005
 51
78.7815604216047944
  0
LINE
  5
102C9
  8
0
 10
299.4479195649756207
 20
146.2422922185214986
 30
0.0
 11
299.3281237742469898
 21
146.2422774168215085
 31
0.0
  0
LINE
  5
102CA
  8
0
 10
299.3281237742469898
 20
146.2122684571214961
 30
0.0
 11
299.3281237742469898
 21
146.2422774168215085
 31
0.0
  0
ARC
  5
102CB
  8
0
 10
299.3684436432097868
 20
146.27239432453581
 30
0.0
 40
0.0503261359876927
 50
183.1240433756163952
 51
216.7578756611974029
  0
ARC
  5
102CC
  8
0
 10
297.9764399694577151
 20
146.201504070264491
 30
0.0
 40
1.3434818210750421
 50
2.90755372912413
 51
3.277536362110943
  0
ARC
  5
102CD
  8
0
 10
299.2977800374470121
 20
146.277245469521489
 30
0.0
 40
0.0199728577999689
 50
3.0679738486696562
 51
58.8091988860277866
  0
LINE
  5
102CE
  8
0
 10
299.3179101169461092
 20
146.274997246521508
 30
0.0
 11
299.308123774247008
 21
146.274997246521508
 31
0.0
  0
LINE
  5
102CF
  8
0
 10
299.4089073666153809
 20
146.2696509664214943
 30
0.0
 11
299.3181923352694866
 21
146.2696509664214943
 31
0.0
  0
LINE
  5
102D0
  8
0
 10
299.4442256000469911
 20
146.2672684571215029
 30
0.0
 11
299.4206237742470194
 21
146.2672684571215029
 31
0.0
  0
ARC
  5
102D1
  8
0
 10
299.4206237742470194
 20
146.2972684571957984
 30
0.0
 40
0.0300000000742955
 50
199.4712207348179902
 51
269.9999999999968168
  0
ARC
  5
102D2
  8
0
 10
299.3781973672419099
 20
146.2822684570649017
 30
0.0
 40
0.015000000095553
 50
19.4712207348195392
 51
90.0
  0
LINE
  5
102D3
  8
0
 10
297.9781237742362805
 20
146.2122684571214961
 30
0.0
 11
297.9781237742784015
 21
146.2581361844214882
 31
0.0
  0
ARC
  5
102D4
  8
0
 10
297.983123581146117
 20
146.2581361844169123
 30
0.0
 40
0.0049998068677759
 50
109.5229742572690981
 51
179.9999999475519132
  0
ARC
  5
102D5
  8
0
 10
297.978103733007913
 20
146.2722937544810122
 30
0.0
 40
0.0100213670360832
 50
289.5229742572727218
 51
356.8615605392661791
  0
ARC
  5
102D6
  8
0
 10
322.7598454727042281
 20
144.9134872728542121
 30
0.0
 40
24.8089447417186904
 50
176.8415247883060886
 51
176.8615605392662076
  0
ARC
  5
102D7
  8
0
 10
298.0491334841170215
 20
146.2770663555033934
 30
0.0
 40
0.0606390442057716
 50
146.3203693702922976
 51
176.841524788304298
  0
ARC
  5
102D8
  8
0
 10
298.6543250929848909
 20
146.2782135174259963
 30
0.0
 40
0.1260262112477246
 50
165.0648709129494875
 51
179.1209780121288873
  0
ARC
  5
102D9
  8
0
 10
441.917803214782225
 20
143.4180506787151899
 30
0.0
 40
143.4180507971611007
 50
178.8565112928075109
 51
178.8599730630986926
  0
ARC
  5
102DA
  8
0
 10
298.5061596956347785
 20
146.270516452135098
 30
0.0
 40
0.0220026114695956
 50
325.7594030829142184
 51
2.5188326816200961
  0
LINE
  5
102DB
  8
0
 10
298.5243488605469793
 20
146.2122684571214961
 30
0.0
 11
298.5243488607470113
 21
146.2581362589214962
 31
0.0
  0
ARC
  5
102DC
  8
0
 10
298.5189005885445113
 20
146.2574065685309108
 30
0.0
 40
0.0054969189605103
 50
7.6282641133595162
 51
81.9009155125137056
  0
LINE
  5
102DD
  8
0
 10
298.5196750242404278
 20
146.2628486607214882
 30
0.0
 11
297.9814527216408919
 21
146.2628485402215119
 31
0.0
  0
LINE
  5
102DE
  8
0
 10
298.7116563926470008
 20
146.2122684571214961
 30
0.0
 11
298.7116563926470008
 21
146.3106936539215042
 31
0.0
  0
LINE
  5
102DF
  8
0
 10
298.681656392647028
 20
146.3106936539215042
 30
0.0
 11
298.681656392647028
 21
146.2122684571214961
 31
0.0
  0
LINE
  5
102E0
  8
0
 10
298.681656392647028
 20
146.2408197595214858
 30
0.0
 11
298.7116563926470008
 21
146.2408197595214858
 31
0.0
  0
LINE
  5
102E1
  8
0
 10
298.6781237742470125
 20
146.2848097381215098
 30
0.0
 11
298.681656392647028
 21
146.2848097381215098
 31
0.0
  0
LINE
  5
102E2
  8
0
 10
298.6781237742470125
 20
146.3106936539215042
 30
0.0
 11
298.6781237742470125
 21
146.2122684571214961
 31
0.0
  0
LINE
  5
102E3
  8
0
 10
298.6703314139011809
 20
146.2972684571215041
 30
0.0
 11
298.6703314139011809
 21
146.2972684571215041
 31
0.0
  0
LINE
  5
102E4
  8
0
 10
298.6781237742470125
 20
146.2972684571215041
 30
0.0
 11
298.5498598533470158
 21
146.2972684571215041
 31
0.0
  0
LINE
  5
102E5
  8
0
 10
298.5383221607035011
 20
146.2122684571214961
 30
0.0
 11
298.5383279835183998
 21
146.2422922185214986
 31
0.0
  0
ARC
  5
102E6
  8
0
 10
298.4339270413610166
 20
146.2704943175594963
 30
0.0
 40
0.1081430308133828
 50
344.8833433553339773
 51
358.2906377959390056
  0
ARC
  5
102E7
  8
0
 10
298.6644883226451839
 20
146.2694624202644889
 30
0.0
 40
0.122486024849896
 50
171.6411792587468881
 51
181.026333832259013
  0
ARC
  5
102E8
  8
0
 10
298.5659987379791005
 20
146.2829610632365984
 30
0.0
 40
0.023100419036449
 50
152.0722437505930031
 51
169.2535079261558053
  0
ARC
  5
102E9
  8
0
 10
298.5510017819162272
 20
146.2915110218758059
 30
0.0
 40
0.0058695878446662
 50
101.2184395783952056
 51
157.2556004483579102
  0
LINE
  5
102EA
  8
0
 10
298.5383279835183998
 20
146.2422922185214986
 30
0.0
 11
298.6581237742469739
 21
146.2422774168215085
 31
0.0
  0
LINE
  5
102EB
  8
0
 10
298.6581237742469739
 20
146.2122684571214961
 30
0.0
 11
298.6581237742469739
 21
146.2422774168215085
 31
0.0
  0
ARC
  5
102EC
  8
0
 10
298.61780390528412
 20
146.27239432453581
 30
0.0
 40
0.0503261359876927
 50
323.2421243388026255
 51
356.8759566243834911
  0
ARC
  5
102ED
  8
0
 10
300.0098075790364192
 20
146.201504070264491
 30
0.0
 40
1.3434818210750421
 50
176.7224636378890068
 51
177.0924462708759108
  0
ARC
  5
102EE
  8
0
 10
298.6884675110470084
 20
146.277245469521489
 30
0.0
 40
0.0199728577999689
 50
121.1908011139721992
 51
176.932026151330291
  0
LINE
  5
102EF
  8
0
 10
298.6683374315479114
 20
146.274997246521508
 30
0.0
 11
298.6781237742470125
 21
146.274997246521508
 31
0.0
  0
LINE
  5
102F0
  8
0
 10
298.5773401818785828
 20
146.2696509664214943
 30
0.0
 11
298.668055213224477
 21
146.2696509664214943
 31
0.0
  0
LINE
  5
102F1
  8
0
 10
298.5420219484469726
 20
146.2672684571215029
 30
0.0
 11
298.5656237742470012
 21
146.2672684571215029
 31
0.0
  0
ARC
  5
102F2
  8
0
 10
298.5656237742470012
 20
146.2972684571957984
 30
0.0
 40
0.0300000000742955
 50
270.0000000000032969
 51
340.5287792651819814
  0
ARC
  5
102F3
  8
0
 10
298.6080501812521106
 20
146.2822684570649017
 30
0.0
 40
0.015000000095553
 50
90.0
 51
160.5287792651803898
  0
LINE
  5
102F4
  8
0
 10
293.5343836167472205
 20
141.4287015279714979
 30
0.0
 11
294.2030450340459993
 21
141.4287015279714979
 31
0.0
  0
LINE
  5
102F5
  8
0
 10
293.5343836167472205
 20
136.6649220003714902
 30
0.0
 11
294.2030450340459993
 21
136.6649220003714902
 31
0.0
  0
LINE
  5
102F6
  8
0
 10
294.2230450340459811
 20
141.4087015279714876
 30
0.0
 11
294.2230450340459811
 21
136.6849220003715004
 31
0.0
  0
LINE
  5
102F7
  8
0
 10
293.5143836167470113
 20
141.4087015279714876
 30
0.0
 11
293.5143836167470113
 21
136.6849220003715004
 31
0.0
  0
ARC
  5
102F8
  8
0
 10
294.2030450340459993
 20
141.4087015279714876
 30
0.0
 40
0.02
 50
0.0000000000032569
 51
90.0
  0
ARC
  5
102F9
  8
0
 10
293.5343836167472205
 20
141.4087015279714876
 30
0.0
 40
0.02
 50
90.0
 51
180.0000000000032117
  0
ARC
  5
102FA
  8
0
 10
294.2030450340459993
 20
136.6849220003715004
 30
0.0
 40
0.02
 50
270.0
 51
0.0
  0
ARC
  5
102FB
  8
0
 10
293.5343836167472205
 20
136.6849220003715004
 30
0.0
 40
0.02
 50
180.0
 51
270.0
  0
LINE
  5
102FC
  8
0
 10
302.6679269238470056
 20
143.2662605831058897
 30
0.0
 11
302.6220591965470135
 21
143.2662605830639109
 31
0.0
  0
ARC
  5
102FD
  8
0
 10
302.6220591965516178
 20
143.2612607761961101
 30
0.0
 40
0.0049998068677759
 50
90.0000000524489252
 51
160.4770257427321951
  0
ARC
  5
102FE
  8
0
 10
302.6079016264874895
 20
143.2662806243343141
 30
0.0
 40
0.0100213670360832
 50
273.1384394607338209
 51
340.4770257427272782
  0
ARC
  5
102FF
  8
0
 10
303.966708108114176
 20
118.484538884637999
 30
0.0
 40
24.8089447417186904
 50
93.1384394607337924
 51
93.1584752116939825
  0
ARC
  5
10300
  8
0
 10
302.6031290254650798
 20
143.1952508732252056
 30
0.0
 40
0.0606390442057716
 50
93.1584752116939825
 51
123.6796306297084982
  0
ARC
  5
10301
  8
0
 10
302.6019818635425054
 20
142.59005926436339
 30
0.0
 40
0.1260262112477246
 50
90.8790219878703027
 51
104.9351290870500009
  0
ARC
  5
10302
  8
0
 10
302.609678928833489
 20
142.7382246617133887
 30
0.0
 40
0.0220026114695956
 50
267.4811673183805851
 51
304.2405969170869753
  0
LINE
  5
10303
  8
0
 10
302.6679269238470056
 20
142.7200354968013016
 30
0.0
 11
302.6220591220470055
 21
142.7200354966012981
 31
0.0
  0
ARC
  5
10304
  8
0
 10
302.6227888124375909
 20
142.7254837688037981
 30
0.0
 40
0.0054969189605103
 50
188.0990844874862944
 51
262.3717358866404084
  0
LINE
  5
10305
  8
0
 10
302.6173467202469851
 20
142.72470933310791
 30
0.0
 11
302.6173468407470182
 21
143.2629316357013067
 31
0.0
  0
LINE
  5
10306
  8
0
 10
302.6679269238470056
 20
142.4997932015012907
 30
0.0
 11
302.5695017270469975
 21
142.4997932015012907
 31
0.0
  0
LINE
  5
10307
  8
0
 10
302.5695017270469975
 20
142.5297932015012918
 30
0.0
 11
302.6679269238470056
 21
142.5297932015012918
 31
0.0
  0
LINE
  5
10308
  8
0
 10
302.6393756214470159
 20
142.5297932015012918
 30
0.0
 11
302.6393756214470159
 21
142.4997932015012907
 31
0.0
  0
LINE
  5
10309
  8
0
 10
302.5953856428470203
 20
142.5662605831012968
 30
0.0
 11
302.5953856428470203
 21
142.5297932015012918
 31
0.0
  0
LINE
  5
1030A
  8
0
 10
302.5695017270469975
 20
142.5662605831012968
 30
0.0
 11
302.6679269238470056
 21
142.5662605831012968
 31
0.0
  0
LINE
  5
1030B
  8
0
 10
302.582926923847026
 20
142.5740529434471
 30
0.0
 11
302.582926923847026
 21
142.5740529434471
 31
0.0
  0
LINE
  5
1030C
  8
0
 10
302.582926923847026
 20
142.5662605831012968
 30
0.0
 11
302.582926923847026
 21
142.6945245040012935
 31
0.0
  0
LINE
  5
1030D
  8
0
 10
302.6679269238470056
 20
142.7060621966448082
 30
0.0
 11
302.6379031624470031
 21
142.7060563738299095
 31
0.0
  0
ARC
  5
1030E
  8
0
 10
302.609701063408977
 20
142.8104573159872928
 30
0.0
 40
0.1081430308133828
 50
271.709362204062586
 51
285.1166566446652268
  0
ARC
  5
1030F
  8
0
 10
302.6107329607040128
 20
142.579896034703097
 30
0.0
 40
0.122486024849896
 50
88.9736661677418113
 51
98.358820741251364
  0
ARC
  5
10310
  8
0
 10
302.5972343177318749
 20
142.6783856193692088
 30
0.0
 40
0.023100419036449
 50
100.7464920738436973
 51
117.927756249406599
  0
ARC
  5
10311
  8
0
 10
302.5886843590927242
 20
142.6933825754321106
 30
0.0
 40
0.0058695878446662
 50
112.7443995516425019
 51
168.7815604216046097
  0
LINE
  5
10312
  8
0
 10
302.6379031624470031
 20
142.7060563738299095
 30
0.0
 11
302.6379179641469932
 21
142.586260583101307
 31
0.0
  0
LINE
  5
10313
  8
0
 10
302.6679269238470056
 20
142.586260583101307
 30
0.0
 11
302.6379179641469932
 21
142.586260583101307
 31
0.0
  0
ARC
  5
10314
  8
0
 10
302.6078010564327201
 20
142.6265804520641041
 30
0.0
 40
0.0503261359876927
 50
273.1240433756166226
 51
306.7578756611991935
  0
ARC
  5
10315
  8
0
 10
302.6786913107039254
 20
141.2345767783118902
 30
0.0
 40
1.3434818210750421
 50
92.9075537291258087
 51
93.2775363621117748
  0
ARC
  5
10316
  8
0
 10
302.6029499114470127
 20
142.5559168463013009
 30
0.0
 40
0.0199728577999689
 50
93.0679738486703769
 51
148.8091988860282129
  0
LINE
  5
10317
  8
0
 10
302.6051981344469937
 20
142.576046925800398
 30
0.0
 11
302.6051981344469937
 21
142.5662605831012968
 31
0.0
  0
LINE
  5
10318
  8
0
 10
302.6105444145470074
 20
142.6670441754696981
 30
0.0
 11
302.6105444145470074
 21
142.5763291441238039
 31
0.0
  0
LINE
  5
10319
  8
0
 10
302.6129269238469988
 20
142.7023624089013083
 30
0.0
 11
302.6129269238469988
 21
142.6787605831013082
 31
0.0
  0
ARC
  5
1031A
  8
0
 10
302.5829269237726749
 20
142.6787605831013082
 30
0.0
 40
0.0300000000742955
 50
289.4712207348172228
 51
359.9999999999984084
  0
ARC
  5
1031B
  8
0
 10
302.5979269239035716
 20
142.6363341760961987
 30
0.0
 40
0.015000000095553
 50
109.471220734820605
 51
180.0
  0
LINE
  5
1031C
  8
0
 10
302.6679269238470056
 20
141.2362605830907114
 30
0.0
 11
302.6220591965470135
 21
141.236260583132605
 31
0.0
  0
ARC
  5
1031D
  8
0
 10
302.6220591965516178
 20
141.2412603900004058
 30
0.0
 40
0.0049998068677759
 50
199.5229742572676912
 51
269.999999947551089
  0
ARC
  5
1031E
  8
0
 10
302.6079016264874895
 20
141.2362405418622018
 30
0.0
 40
0.0100213670360832
 50
19.5229742572726899
 51
86.8615605392662076
  0
ARC
  5
1031F
  8
0
 10
303.966708108114176
 20
166.0179822815584885
 30
0.0
 40
24.8089447417186904
 50
266.841524788306117
 51
266.8615605392661791
  0
ARC
  5
10320
  8
0
 10
302.6031290254650798
 20
141.3072702929713103
 30
0.0
 40
0.0606390442057716
 50
236.3203693702915018
 51
266.8415247883028201
  0
ARC
  5
10321
  8
0
 10
302.6019818635425054
 20
141.9124619018392082
 30
0.0
 40
0.1260262112477246
 50
255.0648709129499991
 51
269.1209780121296831
  0
ARC
  5
10322
  8
0
 10
302.609678928833489
 20
141.7642965044892094
 30
0.0
 40
0.0220026114695956
 50
55.7594030829130105
 51
92.5188326816193154
  0
LINE
  5
10323
  8
0
 10
302.6679269238470056
 20
141.7824856694012965
 30
0.0
 11
302.6220591220470055
 21
141.7824856696013001
 31
0.0
  0
ARC
  5
10324
  8
0
 10
302.6227888124375909
 20
141.7770373973988001
 30
0.0
 40
0.0054969189605103
 50
97.6282641133596343
 51
171.9009155125137056
  0
LINE
  5
10325
  8
0
 10
302.6173467202469851
 20
141.7778118330946882
 30
0.0
 11
302.6173468407470182
 21
141.2395895304952091
 31
0.0
  0
LINE
  5
10326
  8
0
 10
302.6679269238470056
 20
141.9697932015012896
 30
0.0
 11
302.5695017270469975
 21
141.9697932015012896
 31
0.0
  0
LINE
  5
10327
  8
0
 10
302.5695017270469975
 20
141.9397932015012884
 30
0.0
 11
302.6679269238470056
 21
141.9397932015012884
 31
0.0
  0
LINE
  5
10328
  8
0
 10
302.6393756214470159
 20
141.9397932015012884
 30
0.0
 11
302.6393756214470159
 21
141.9697932015012896
 31
0.0
  0
LINE
  5
10329
  8
0
 10
302.5953856428470203
 20
141.9362605831013013
 30
0.0
 11
302.5953856428470203
 21
141.9397932015012884
 31
0.0
  0
LINE
  5
1032A
  8
0
 10
302.5695017270469975
 20
141.9362605831013013
 30
0.0
 11
302.6679269238470056
 21
141.9362605831013013
 31
0.0
  0
LINE
  5
1032B
  8
0
 10
302.582926923847026
 20
141.9284682227554981
 30
0.0
 11
302.582926923847026
 21
141.9284682227554981
 31
0.0
  0
LINE
  5
1032C
  8
0
 10
302.582926923847026
 20
141.9362605831013013
 30
0.0
 11
302.582926923847026
 21
141.8079966622013046
 31
0.0
  0
LINE
  5
1032D
  8
0
 10
302.6679269238470056
 20
141.7964589695577899
 30
0.0
 11
302.6379031624470031
 21
141.7964647923726886
 31
0.0
  0
ARC
  5
1032E
  8
0
 10
302.609701063408977
 20
141.6920638502153054
 30
0.0
 40
0.1081430308133828
 50
74.8833433553348016
 51
88.2906377959406541
  0
ARC
  5
1032F
  8
0
 10
302.6107329607040128
 20
141.9226251314995011
 30
0.0
 40
0.122486024849896
 50
261.6411792587487071
 51
271.0263338322582172
  0
ARC
  5
10330
  8
0
 10
302.5972343177318749
 20
141.8241355468333893
 30
0.0
 40
0.023100419036449
 50
242.072243750593401
 51
259.2535079261563169
  0
ARC
  5
10331
  8
0
 10
302.5886843590927242
 20
141.8091385907704876
 30
0.0
 40
0.0058695878446662
 50
191.218439578395305
 51
247.2556004483575123
  0
LINE
  5
10332
  8
0
 10
302.6379031624470031
 20
141.7964647923726886
 30
0.0
 11
302.6379179641469932
 21
141.9162605831012911
 31
0.0
  0
LINE
  5
10333
  8
0
 10
302.6679269238470056
 20
141.9162605831012911
 30
0.0
 11
302.6379179641469932
 21
141.9162605831012911
 31
0.0
  0
ARC
  5
10334
  8
0
 10
302.6078010564327201
 20
141.8759407141384941
 30
0.0
 40
0.0503261359876927
 50
53.2421243388008278
 51
86.8759566243834342
  0
ARC
  5
10335
  8
0
 10
302.6786913107039254
 20
143.2679443878905943
 30
0.0
 40
1.3434818210750421
 50
266.722463637888211
 51
267.0924462708774172
  0
ARC
  5
10336
  8
0
 10
302.6029499114470127
 20
141.946604319901212
 30
0.0
 40
0.0199728577999689
 50
211.1908011139717871
 51
266.9320261513295804
  0
LINE
  5
10337
  8
0
 10
302.6051981344469937
 20
141.9264742404020865
 30
0.0
 11
302.6051981344469937
 21
141.9362605831013013
 31
0.0
  0
LINE
  5
10338
  8
0
 10
302.6105444145470074
 20
141.8354769907329
 30
0.0
 11
302.6105444145470074
 21
141.926192022078709
 31
0.0
  0
LINE
  5
10339
  8
0
 10
302.6129269238469988
 20
141.8001587573012898
 30
0.0
 11
302.6129269238469988
 21
141.82376058310129
 31
0.0
  0
ARC
  5
1033A
  8
0
 10
302.5829269237726749
 20
141.82376058310129
 30
0.0
 40
0.0300000000742955
 50
0.0000000000024427
 51
70.528779265182763
  0
ARC
  5
1033B
  8
0
 10
302.5979269239035716
 20
141.8661869901063994
 30
0.0
 40
0.015000000095553
 50
180.0
 51
250.528779265179395
  0
LINE
  5
1033C
  8
0
 10
294.6364308608469855
 20
145.4642369610214985
 30
0.0
 11
294.6364308608469855
 21
145.3658117642214904
 31
0.0
  0
LINE
  5
1033D
  8
0
 10
302.6087119632470035
 20
141.7862778577012932
 30
0.0
 11
302.600048466946987
 21
141.7864505218012994
 31
0.0
  0
LINE
  5
1033E
  8
0
 10
302.6087119632470035
 20
142.7162433085013049
 30
0.0
 11
302.600048466946987
 21
142.7160706444012988
 31
0.0
  0
LINE
  5
1033F
  8
0
 10
302.6679269238470056
 20
132.517874756357287
 30
0.0
 11
302.6220591965470135
 21
132.5178747563153081
 31
0.0
  0
ARC
  5
10340
  8
0
 10
302.6220591965516178
 20
132.5128749494475926
 30
0.0
 40
0.0049998068677759
 50
90.0000000524489252
 51
160.4770257427329909
  0
ARC
  5
10341
  8
0
 10
302.6079016264874895
 20
132.5178947975857966
 30
0.0
 40
0.0100213670360832
 50
273.1384394607338209
 51
340.4770257427272782
  0
ARC
  5
10342
  8
0
 10
303.966708108114176
 20
107.7361530578893962
 30
0.0
 40
24.8089447417186904
 50
93.1384394607337924
 51
93.1584752116939825
  0
ARC
  5
10343
  8
0
 10
302.6031290254650798
 20
132.4468650464766881
 30
0.0
 40
0.0606390442057716
 50
93.1584752116939825
 51
123.6796306297084982
  0
ARC
  5
10344
  8
0
 10
302.6019818635425054
 20
131.8416734376149009
 30
0.0
 40
0.1260262112477246
 50
90.8790219878703027
 51
104.9351290870500009
  0
ARC
  5
10345
  8
0
 10
302.609678928833489
 20
131.9898388349648997
 30
0.0
 40
0.0220026114695956
 50
267.4811673183805851
 51
304.2405969170869753
  0
LINE
  5
10346
  8
0
 10
302.6679269238470056
 20
131.9716496700528126
 30
0.0
 11
302.6220591220470055
 21
131.971649669852809
 31
0.0
  0
ARC
  5
10347
  8
0
 10
302.6227888124375909
 20
131.9770979420551953
 30
0.0
 40
0.0054969189605103
 50
188.0990844874862944
 51
262.3717358866404084
  0
LINE
  5
10348
  8
0
 10
302.6173467202469851
 20
131.9763235063593072
 30
0.0
 11
302.6173468407470182
 21
132.5145458089527892
 31
0.0
  0
LINE
  5
10349
  8
0
 10
302.6679269238470056
 20
131.7514073747528016
 30
0.0
 11
302.5695017270469975
 21
131.7514073747528016
 31
0.0
  0
LINE
  5
1034A
  8
0
 10
302.5695017270469975
 20
131.7814073747528028
 30
0.0
 11
302.6679269238470056
 21
131.7814073747528028
 31
0.0
  0
LINE
  5
1034B
  8
0
 10
302.6393756214470159
 20
131.7814073747528028
 30
0.0
 11
302.6393756214470159
 21
131.7514073747528016
 31
0.0
  0
LINE
  5
1034C
  8
0
 10
302.5953856428470203
 20
131.8178747563528077
 30
0.0
 11
302.5953856428470203
 21
131.7814073747528028
 31
0.0
  0
LINE
  5
1034D
  8
0
 10
302.5695017270469975
 20
131.8178747563528077
 30
0.0
 11
302.6679269238470056
 21
131.8178747563528077
 31
0.0
  0
LINE
  5
1034E
  8
0
 10
302.582926923847026
 20
131.8256671166986109
 30
0.0
 11
302.582926923847026
 21
131.8256671166986109
 31
0.0
  0
LINE
  5
1034F
  8
0
 10
302.582926923847026
 20
131.8178747563528077
 30
0.0
 11
302.582926923847026
 21
131.9461386772528044
 31
0.0
  0
LINE
  5
10350
  8
0
 10
302.6679269238470056
 20
131.9576763698962907
 30
0.0
 11
302.6379031624470031
 21
131.957670547081392
 31
0.0
  0
ARC
  5
10351
  8
0
 10
302.609701063408977
 20
132.0620714892388037
 30
0.0
 40
0.1081430308133828
 50
271.709362204062586
 51
285.1166566446652268
  0
ARC
  5
10352
  8
0
 10
302.6107329607040128
 20
131.8315102079546079
 30
0.0
 40
0.122486024849896
 50
88.9736661677418113
 51
98.358820741251364
  0
ARC
  5
10353
  8
0
 10
302.5972343177318749
 20
131.9299997926206913
 30
0.0
 40
0.023100419036449
 50
100.7464920738436973
 51
117.927756249406599
  0
ARC
  5
10354
  8
0
 10
302.5886843590927242
 20
131.9449967486835078
 30
0.0
 40
0.0058695878446662
 50
112.7443995516425019
 51
168.7815604216046097
  0
LINE
  5
10355
  8
0
 10
302.6379031624470031
 20
131.957670547081392
 30
0.0
 11
302.6379179641469932
 21
131.8378747563527895
 31
0.0
  0
LINE
  5
10356
  8
0
 10
302.6679269238470056
 20
131.8378747563527895
 30
0.0
 11
302.6379179641469932
 21
131.8378747563527895
 31
0.0
  0
ARC
  5
10357
  8
0
 10
302.6078010564327201
 20
131.8781946253155866
 30
0.0
 40
0.0503261359876927
 50
273.1240433756166226
 51
306.7578756611991935
  0
ARC
  5
10358
  8
0
 10
302.6786913107039254
 20
130.4861909515634011
 30
0.0
 40
1.3434818210750421
 50
92.9075537291258087
 51
93.2775363621117748
  0
ARC
  5
10359
  8
0
 10
302.6029499114470127
 20
131.8075310195528118
 30
0.0
 40
0.0199728577999689
 50
93.0679738486703769
 51
148.8091988860282129
  0
LINE
  5
1035A
  8
0
 10
302.6051981344469937
 20
131.8276610990519089
 30
0.0
 11
302.6051981344469937
 21
131.8178747563528077
 31
0.0
  0
LINE
  5
1035B
  8
0
 10
302.6105444145470074
 20
131.918658348721209
 30
0.0
 11
302.6105444145470074
 21
131.8279433173752864
 31
0.0
  0
LINE
  5
1035C
  8
0
 10
302.6129269238469988
 20
131.9539765821527908
 30
0.0
 11
302.6129269238469988
 21
131.9303747563527907
 31
0.0
  0
ARC
  5
1035D
  8
0
 10
302.5829269237726749
 20
131.9303747563527907
 30
0.0
 40
0.0300000000742955
 50
289.4712207348172228
 51
359.9999999999984084
  0
ARC
  5
1035E
  8
0
 10
302.5979269239035716
 20
131.8879483493477096
 30
0.0
 40
0.015000000095553
 50
109.471220734820605
 51
180.0
  0
LINE
  5
1035F
  8
0
 10
302.6679269238470056
 20
130.4878747563421086
 30
0.0
 11
302.6220591965470135
 21
130.4878747563840875
 31
0.0
  0
ARC
  5
10360
  8
0
 10
302.6220591965516178
 20
130.4928745632518883
 30
0.0
 40
0.0049998068677759
 50
199.5229742572670091
 51
269.999999947551089
  0
ARC
  5
10361
  8
0
 10
302.6079016264874895
 20
130.4878547151137127
 30
0.0
 40
0.0100213670360832
 50
19.5229742572726899
 51
86.8615605392662076
  0
ARC
  5
10362
  8
0
 10
303.966708108114176
 20
155.2695964548099994
 30
0.0
 40
24.8089447417186904
 50
266.841524788306117
 51
266.8615605392661791
  0
ARC
  5
10363
  8
0
 10
302.6031290254650798
 20
130.5588844662227075
 30
0.0
 40
0.0606390442057716
 50
236.3203693702915018
 51
266.8415247883028201
  0
ARC
  5
10364
  8
0
 10
302.6019818635425054
 20
131.1640760750906907
 30
0.0
 40
0.1260262112477246
 50
255.0648709129499991
 51
269.1209780121296831
  0
ARC
  5
10365
  8
0
 10
302.609678928833489
 20
131.0159106777406066
 30
0.0
 40
0.0220026114695956
 50
55.7594030829130105
 51
92.5188326816193154
  0
LINE
  5
10366
  8
0
 10
302.6679269238470056
 20
131.0340998426528074
 30
0.0
 11
302.6220591220470055
 21
131.034099842852811
 31
0.0
  0
ARC
  5
10367
  8
0
 10
302.6227888124375909
 20
131.028651570650311
 30
0.0
 40
0.0054969189605103
 50
97.6282641133596343
 51
171.9009155125137056
  0
LINE
  5
10368
  8
0
 10
302.6173467202469851
 20
131.0294260063461991
 30
0.0
 11
302.6173468407470182
 21
130.4912037037466916
 31
0.0
  0
LINE
  5
10369
  8
0
 10
302.6679269238470056
 20
131.2214073747528005
 30
0.0
 11
302.5695017270469975
 21
131.2214073747528005
 31
0.0
  0
LINE
  5
1036A
  8
0
 10
302.5695017270469975
 20
131.1914073747527993
 30
0.0
 11
302.6679269238470056
 21
131.1914073747527993
 31
0.0
  0
LINE
  5
1036B
  8
0
 10
302.6393756214470159
 20
131.1914073747527993
 30
0.0
 11
302.6393756214470159
 21
131.2214073747528005
 31
0.0
  0
LINE
  5
1036C
  8
0
 10
302.5953856428470203
 20
131.1878747563528123
 30
0.0
 11
302.5953856428470203
 21
131.1914073747527993
 31
0.0
  0
LINE
  5
1036D
  8
0
 10
302.5695017270469975
 20
131.1878747563528123
 30
0.0
 11
302.6679269238470056
 21
131.1878747563528123
 31
0.0
  0
LINE
  5
1036E
  8
0
 10
302.582926923847026
 20
131.180082396007009
 30
0.0
 11
302.582926923847026
 21
131.180082396007009
 31
0.0
  0
LINE
  5
1036F
  8
0
 10
302.582926923847026
 20
131.1878747563528123
 30
0.0
 11
302.582926923847026
 21
131.0596108354527871
 31
0.0
  0
LINE
  5
10370
  8
0
 10
302.6679269238470056
 20
131.0480731428093009
 30
0.0
 11
302.6379031624470031
 21
131.0480789656241996
 31
0.0
  0
ARC
  5
10371
  8
0
 10
302.609701063408977
 20
130.9436780234667026
 30
0.0
 40
0.1081430308133828
 50
74.8833433553348016
 51
88.2906377959406541
  0
ARC
  5
10372
  8
0
 10
302.6107329607040128
 20
131.174239304751012
 30
0.0
 40
0.122486024849896
 50
261.6411792587487071
 51
271.0263338322582172
  0
ARC
  5
10373
  8
0
 10
302.5972343177318749
 20
131.0757497200849002
 30
0.0
 40
0.023100419036449
 50
242.072243750593401
 51
259.2535079261563169
  0
ARC
  5
10374
  8
0
 10
302.5886843590927242
 20
131.0607527640219985
 30
0.0
 40
0.0058695878446662
 50
191.218439578395305
 51
247.2556004483575123
  0
LINE
  5
10375
  8
0
 10
302.6379031624470031
 20
131.0480789656241996
 30
0.0
 11
302.6379179641469932
 21
131.167874756352802
 31
0.0
  0
LINE
  5
10376
  8
0
 10
302.6679269238470056
 20
131.167874756352802
 30
0.0
 11
302.6379179641469932
 21
131.167874756352802
 31
0.0
  0
ARC
  5
10377
  8
0
 10
302.6078010564327201
 20
131.127554887390005
 30
0.0
 40
0.0503261359876927
 50
53.2421243388008278
 51
86.8759566243834342
  0
ARC
  5
10378
  8
0
 10
302.6786913107039254
 20
132.5195585611421052
 30
0.0
 40
1.3434818210750421
 50
266.722463637888211
 51
267.0924462708774172
  0
ARC
  5
10379
  8
0
 10
302.6029499114470127
 20
131.1982184931526945
 30
0.0
 40
0.0199728577999689
 50
211.1908011139717871
 51
266.9320261513295804
  0
LINE
  5
1037A
  8
0
 10
302.6051981344469937
 20
131.1780884136535974
 30
0.0
 11
302.6051981344469937
 21
131.1878747563528123
 31
0.0
  0
LINE
  5
1037B
  8
0
 10
302.6105444145470074
 20
131.087091163984411
 30
0.0
 11
302.6105444145470074
 21
131.1778061953301915
 31
0.0
  0
LINE
  5
1037C
  8
0
 10
302.6129269238469988
 20
131.0517729305528007
 30
0.0
 11
302.6129269238469988
 21
131.0753747563528009
 31
0.0
  0
ARC
  5
1037D
  8
0
 10
302.5829269237726749
 20
131.0753747563528009
 30
0.0
 40
0.0300000000742955
 50
0.0000000000024427
 51
70.528779265182763
  0
ARC
  5
1037E
  8
0
 10
302.5979269239035716
 20
131.1178011633577967
 30
0.0
 40
0.015000000095553
 50
180.0
 51
250.528779265179395
  0
LINE
  5
1037F
  8
0
 10
302.6087119632470035
 20
131.0378920309528041
 30
0.0
 11
302.600048466946987
 21
131.0380646950528103
 31
0.0
  0
LINE
  5
10380
  8
0
 10
302.6087119632470035
 20
131.9678574817527874
 30
0.0
 11
302.600048466946987
 21
131.9676848176528097
 31
0.0
  0
LINE
  5
10381
  8
0
 10
302.6679269238470056
 20
129.2432763311215069
 30
0.0
 11
302.56950172694701
 21
129.2432763311215069
 31
0.0
  0
LINE
  5
10382
  8
0
 10
292.667926927494193
 20
122.0571503468215013
 30
0.0
 11
262.9510496173185174
 21
92.5575397979936554
 31
0.0
  0
ENDBLK
  5
10386
  8
0
  0
ENDSEC
  0
SECTION
  2
ENTITIES
  0
ATTDEF
  5
829
  8
DEFPOINTS
 10
2515.1475419666171547
 20
392.9197208783617725
 30
0.0
 40
0.001
  1
K-40641-BD1
  3

  2
MODELNUMBER
 70
     0
1001
ACDBATTR
1070
     0
1070
     1
  0
ATTDEF
  5
82A
  8
DEFPOINTS
 10
2515.1475419666171547
 20
392.9180542116951074
 30
0.0
 40
0.001
  1
KOHLER
  3

  2
BRANDNAME
 70
     0
1001
ACDBATTR
1070
     0
1070
     1
  0
ATTDEF
  5
82B
  8
DEFPOINTS
 10
2515.1475419666171547
 20
392.9163875450284991
 30
0.0
 40
0.001
  1
VANITY CABINET
  3

  2
PRODUCT
 70
     0
1001
ACDBATTR
1070
     0
1070
     1
  0
LINE
  5
14C09
  8
0
 10
2492.2191438538898183
 20
407.4893199533178745
 30
0.0
 11
2493.222765901089133
 21
407.4893199533178745
 31
0.0
  0
LINE
  5
14C0A
  8
0
 10
2493.3407659010899806
 20
393.0208108194178749
 30
0.0
 11
2495.1126399168902026
 21
393.0208108194178749
 31
0.0
  0
LINE
  5
14C0B
  8
0
 10
2513.2620257436901738
 20
393.0208108194178749
 30
0.0
 11
2515.0338997593889871
 21
393.0208108194178749
 31
0.0
  0
LINE
  5
14C0C
  8
0
 10
2493.222765901089133
 20
393.1388108194179267
 30
0.0
 11
2495.2306399168901407
 21
393.1388108194179267
 31
0.0
  0
LINE
  5
14C0D
  8
0
 10
2513.1440257436888714
 20
393.1388108194179267
 30
0.0
 11
2515.1518997593898348
 21
393.138810819518028
 31
0.0
  0
LINE
  5
14C0E
  8
0
 10
2495.2306399168901407
 20
397.5085116068178763
 30
0.0
 11
2513.1440257436888714
 21
397.5085116068178763
 31
0.0
  0
LINE
  5
14C0F
  8
0
 10
2495.2306399168901407
 20
399.0841582747679013
 30
0.0
 11
2513.1440257436888714
 21
399.0841582747679013
 31
0.0
  0
LINE
  5
14C10
  8
0
 10
2493.222765901089133
 20
427.5089997958178856
 30
0.0
 11
2493.222765901089133
 21
393.1388108194179267
 31
0.0
  0
LINE
  5
14C11
  8
0
 10
2492.1991438538898365
 20
412.2330994809178719
 30
0.0
 11
2492.1991438538898365
 21
407.5093199533179131
 31
0.0
  0
ARC
  5
14C12
  8
0
 10
2492.2191438538898183
 20
407.5093199533179131
 30
0.0
 40
0.02
 50
179.9999999999836859
 51
270.0000000000259774
  0
LINE
  5
14C13
  8
0
 10
2495.2306399168901407
 20
393.1388108194179267
 30
0.0
 11
2495.2306399168901407
 21
427.5089997958178856
 31
0.0
  0
LINE
  5
14C14
  8
0
 10
2495.2706399168901044
 20
399.2019131816180106
 30
0.0
 11
2495.2706399168901044
 21
427.5089997958178856
 31
0.0
  0
LINE
  5
14C15
  8
0
 10
2495.2306399168901407
 20
399.2019131816180106
 30
0.0
 11
2513.1440257436888714
 21
399.2019131816180106
 31
0.0
  0
LINE
  5
14C16
  8
0
 10
2515.1518997593898348
 20
432.6658501895178119
 30
0.0
 11
2515.1518997593898348
 21
393.138810819518028
 31
0.0
  0
LINE
  5
14C17
  8
0
 10
2513.1440257436888714
 20
427.5089997958178856
 30
0.0
 11
2513.1440257436888714
 21
393.1388108194179267
 31
0.0
  0
LINE
  5
14C18
  8
0
 10
2513.1040257436898173
 20
399.2019131816180106
 30
0.0
 11
2513.1040257436898173
 21
427.5089997958178856
 31
0.0
  0
LINE
  5
14C19
  8
0
 10
2493.222765901089133
 20
393.1388108194179267
 30
0.0
 11
2493.3407659010899806
 21
393.0208108194178749
 31
0.0
  0
LINE
  5
14C1A
  8
0
 10
2495.2306399168901407
 20
393.1388108194179267
 30
0.0
 11
2495.1126399168902026
 21
393.0208108194178749
 31
0.0
  0
LINE
  5
14C1B
  8
0
 10
2513.1440257436888714
 20
393.1388108194179267
 30
0.0
 11
2513.2620257436901738
 21
393.0208108194178749
 31
0.0
  0
LINE
  5
14C1C
  8
0
 10
2515.1518997593898348
 20
393.138810819518028
 30
0.0
 11
2515.0338997593889871
 21
393.0208108194178749
 31
0.0
  0
LINE
  5
14C1D
  8
0
 10
2492.5928446412899575
 20
411.4997012161178986
 30
0.0
 11
2493.222765901089133
 21
411.4997012502179246
 31
0.0
  0
LINE
  5
14C1E
  8
0
 10
2492.474734426104078
 20
411.3324822880711054
 30
0.0
 11
2492.474750153090099
 21
408.4110519147928926
 31
0.0
  0
ARC
  5
14C1F
  8
0
 10
2492.6676546830990446
 20
411.334588765035619
 30
0.0
 40
0.1929317568570572
 50
129.9487193159297078
 51
180.6255820177840974
  0
ARC
  5
14C20
  8
0
 10
2492.5948237739012256
 20
411.4154817127831052
 30
0.0
 40
0.0842427546311958
 50
91.3461855557176534
 51
127.3006613258231994
  0
LINE
  5
14C21
  8
0
 10
2493.222765901089133
 20
411.3475876699180276
 30
0.0
 11
2492.5928446412899575
 21
411.3475876699180276
 31
0.0
  0
ARC
  5
14C22
  8
0
 10
2492.5925812395571484
 20
411.2294274363757722
 30
0.0
 40
0.1181605271281591
 50
89.872276973979254
 51
175.8205794966058022
  0
LINE
  5
14C23
  8
0
 10
2492.5928446442271706
 20
408.2427181718547899
 30
0.0
 11
2493.222765901089133
 21
408.2427181840179173
 31
0.0
  0
ARC
  5
14C24
  8
0
 10
2492.67253097596722
 20
408.4090309959767069
 30
0.0
 40
0.197791147453573
 50
179.4145737313087068
 51
225.7535502608876925
  0
ARC
  5
14C25
  8
0
 10
2492.5959803352998279
 20
408.331518677050326
 30
0.0
 40
0.0888558511380936
 50
226.2389526796640098
 51
267.9776326087438179
  0
LINE
  5
14C26
  8
0
 10
2493.222765901089133
 20
408.394831764317928
 30
0.0
 11
2492.5928446412899575
 21
408.394831764317928
 31
0.0
  0
ARC
  5
14C27
  8
0
 10
2492.5927417865541429
 20
408.5128233532281001
 30
0.0
 40
0.1179916337420942
 50
180.003933126711388
 51
270.0499465557688268
  0
LINE
  5
14C28
  8
0
 10
2492.7520874206898043
 20
428.6901021580179076
 30
0.0
 11
2492.7130874206891349
 21
428.6511021580179204
 31
0.0
  0
LINE
  5
14C29
  8
0
 10
2492.7130874206891349
 20
428.6511021580179204
 30
0.0
 11
2492.7130874206891349
 21
427.5479997958178728
 31
0.0
  0
LINE
  5
14C2A
  8
0
 10
2492.7130874206891349
 20
427.5479997958178728
 30
0.0
 11
2492.7520874206898043
 21
427.5089997958178856
 31
0.0
  0
LINE
  5
14C2B
  8
0
 10
2492.7520874206898043
 20
427.5089997958178856
 30
0.0
 11
2515.1518997593898348
 21
427.5089997958178856
 31
0.0
  0
LINE
  5
14C2C
  8
0
 10
2515.1518997593898348
 20
432.6658501895179256
 30
0.0
 11
2515.1118997593898712
 21
432.7058501895178892
 31
0.0
  0
LINE
  5
14C2D
  8
0
 10
2515.1118997593898712
 20
432.7058501895178892
 30
0.0
 11
2514.4832383420889528
 21
432.7058501895178892
 31
0.0
  0
LINE
  5
14C2E
  8
0
 10
2514.4832383420889528
 20
432.7058501895178892
 30
0.0
 11
2514.4432383420898987
 21
432.6658501895179256
 31
0.0
  0
LINE
  5
14C2F
  8
0
 10
2514.4432383420898987
 20
432.6658501895179256
 30
0.0
 11
2515.1518997593898348
 21
432.6658501895179256
 31
0.0
  0
LINE
  5
14C30
  8
0
 10
2514.4432383420898987
 20
432.6658501895179256
 30
0.0
 11
2514.4432383420898987
 21
428.6901021580179076
 31
0.0
  0
LINE
  5
14C31
  8
0
 10
2492.7520874206898043
 20
428.6901021580179076
 30
0.0
 11
2515.1518997593898348
 21
428.6901021580179076
 31
0.0
  0
LINE
  5
14C32
  8
0
 10
2492.7325874206890148
 20
428.670602158017914
 30
0.0
 11
2492.7520874206898043
 21
428.6511021580179204
 31
0.0
  0
LINE
  5
14C33
  8
0
 10
2492.7520874206898043
 20
428.6511021580179204
 30
0.0
 11
2492.7520874206898043
 21
427.5479997958178728
 31
0.0
  0
LINE
  5
14C34
  8
0
 10
2492.7520874206898043
 20
427.5479997958178728
 30
0.0
 11
2492.7325874206890148
 21
427.5284997958178792
 31
0.0
  0
LINE
  5
14C35
  8
0
 10
2492.7520874206898043
 20
428.6511021580179204
 30
0.0
 11
2515.1518997593898348
 21
428.6511021580179204
 31
0.0
  0
LINE
  5
14C36
  8
0
 10
2492.7520874206898043
 20
427.5479997958178728
 30
0.0
 11
2515.1518997593898348
 21
427.5479997958178728
 31
0.0
  0
LINE
  5
14C37
  8
0
 10
2494.6203839974291441
 20
392.9404958568097186
 30
0.0
 11
2493.8330218070891533
 21
392.9404958568097186
 31
0.0
  0
LINE
  5
14C38
  8
0
 10
2494.6203839974291441
 20
392.9404958568097186
 30
0.0
 11
2494.6203839974291441
 21
393.0208108194178749
 31
0.0
  0
LINE
  5
14C39
  8
0
 10
2494.6200505182277993
 20
393.0208108194178749
 30
0.0
 11
2494.6200505182277993
 21
392.9404958568097186
 31
0.0
  0
LINE
  5
14C3A
  8
0
 10
2494.6196384241279702
 20
392.9404958568097186
 30
0.0
 11
2494.6196384241279702
 21
393.0208108194178749
 31
0.0
  0
LINE
  5
14C3B
  8
0
 10
2494.6186389005279125
 20
393.0208108194178749
 30
0.0
 11
2494.6186389005279125
 21
392.9404958568097186
 31
0.0
  0
LINE
  5
14C3C
  8
0
 10
2494.6178158418288149
 20
392.9404958568097186
 30
0.0
 11
2494.6178158418288149
 21
393.0208108194178749
 31
0.0
  0
LINE
  5
14C3D
  8
0
 10
2494.6161530135282192
 20
393.0208108194178749
 30
0.0
 11
2494.6161530135282192
 21
392.9404958568097186
 31
0.0
  0
LINE
  5
14C3E
  8
0
 10
2494.6149212461291427
 20
392.9404958568097186
 30
0.0
 11
2494.6149212461291427
 21
393.0208108194178749
 31
0.0
  0
LINE
  5
14C3F
  8
0
 10
2494.6125996708287857
 20
393.0208108194178749
 30
0.0
 11
2494.6125996708287857
 21
392.9404958568097186
 31
0.0
  0
LINE
  5
14C40
  8
0
 10
2494.6109625708281783
 20
392.9404958568097186
 30
0.0
 11
2494.6109625708281783
 21
393.0208108194178749
 31
0.0
  0
LINE
  5
14C41
  8
0
 10
2494.6079886118291142
 20
393.0208108194178749
 30
0.0
 11
2494.6079886118291142
 21
392.9404958568097186
 31
0.0
  0
LINE
  5
14C42
  8
0
 10
2494.6059827690291968
 20
393.0208108194178749
 30
0.0
 11
2494.6059827690291968
 21
392.9404958568097186
 31
0.0
  0
LINE
  5
14C43
  8
0
 10
2494.6023324752281951
 20
393.0208108194178749
 30
0.0
 11
2494.6023324752281951
 21
392.9404958568097186
 31
0.0
  0
LINE
  5
14C44
  8
0
 10
2494.5998992705281125
 20
392.9404958568097186
 30
0.0
 11
2494.5998992705281125
 21
393.0208108194178749
 31
0.0
  0
LINE
  5
14C45
  8
0
 10
2494.5956467640280607
 20
393.0208108194178749
 30
0.0
 11
2494.5956467640280607
 21
392.9404958568097186
 31
0.0
  0
LINE
  5
14C46
  8
0
 10
2494.5928249691278324
 20
392.9404958568097186
 30
0.0
 11
2494.5928249691278324
 21
393.0208108194178749
 31
0.0
  0
LINE
  5
14C47
  8
0
 10
2494.5879498033277741
 20
393.0208108194178749
 30
0.0
 11
2494.5879498033277741
 21
392.9404958568097186
 31
0.0
  0
LINE
  5
14C48
  8
0
 10
2494.584747152628097
 20
392.9404958568097186
 30
0.0
 11
2494.584747152628097
 21
393.0208108194178749
 31
0.0
  0
LINE
  5
14C49
  8
0
 10
2494.5792626900279174
 20
393.0208108194178749
 30
0.0
 11
2494.5792626900279174
 21
392.9404958568097186
 31
0.0
  0
LINE
  5
14C4A
  8
0
 10
2494.5756879616278638
 20
392.9404958568097186
 30
0.0
 11
2494.5756879616278638
 21
393.0208108194178749
 31
0.0
  0
LINE
  5
14C4B
  8
0
 10
2494.5696092347279773
 20
393.0208108194178749
 30
0.0
 11
2494.5696092347279773
 21
392.9404958568097186
 31
0.0
  0
LINE
  5
14C4C
  8
0
 10
2494.5662167341279201
 20
392.9404958568097186
 30
0.0
 11
2494.5662167341279201
 21
393.0208108194178749
 31
0.0
  0
LINE
  5
14C4D
  8
0
 10
2494.565672226829065
 20
392.9404958568097186
 30
0.0
 11
2494.565672226829065
 21
393.0208108194178749
 31
0.0
  0
LINE
  5
14C4E
  8
0
 10
2494.5590158970280754
 20
393.0208108194178749
 30
0.0
 11
2494.5590158970280754
 21
392.9404958568097186
 31
0.0
  0
LINE
  5
14C4F
  8
0
 10
2494.555730554128786
 20
392.9404958568097186
 30
0.0
 11
2494.555730554128786
 21
393.0208108194178749
 31
0.0
  0
LINE
  5
14C50
  8
0
 10
2494.5547274007280976
 20
392.9404958568097186
 30
0.0
 11
2494.5547274007280976
 21
393.0208108194178749
 31
0.0
  0
LINE
  5
14C51
  8
0
 10
2494.5475117125279212
 20
393.0208108194178749
 30
0.0
 11
2494.5475117125279212
 21
392.9404958568097186
 31
0.0
  0
LINE
  5
14C52
  8
0
 10
2494.5443425322278017
 20
392.9404958568097186
 30
0.0
 11
2494.5443425322278017
 21
393.0208108194178749
 31
0.0
  0
LINE
  5
14C53
  8
0
 10
2494.5428834822291719
 20
392.9404958568097186
 30
0.0
 11
2494.5428834822291719
 21
393.0208108194178749
 31
0.0
  0
LINE
  5
14C54
  8
0
 10
2494.5351282133287896
 20
393.0208108194178749
 30
0.0
 11
2494.5351282133287896
 21
392.9404958568097186
 31
0.0
  0
LINE
  5
14C55
  8
0
 10
2494.5320838821280631
 20
392.9404958568097186
 30
0.0
 11
2494.5320838821280631
 21
393.0208108194178749
 31
0.0
  0
LINE
  5
14C56
  8
0
 10
2494.5301729347279434
 20
392.9404958568097186
 30
0.0
 11
2494.5301729347279434
 21
393.0208108194178749
 31
0.0
  0
LINE
  5
14C57
  8
0
 10
2494.5218993418279751
 20
393.0208108194178749
 30
0.0
 11
2494.5218993418279751
 21
392.9404958568097186
 31
0.0
  0
LINE
  5
14C58
  8
0
 10
2494.5189882039280747
 20
392.9404958568097186
 30
0.0
 11
2494.5189882039280747
 21
393.0208108194178749
 31
0.0
  0
LINE
  5
14C59
  8
0
 10
2494.5166305968277811
 20
392.9404958568097186
 30
0.0
 11
2494.5166305968277811
 21
393.0208108194178749
 31
0.0
  0
LINE
  5
14C5A
  8
0
 10
2494.5078613573291477
 20
393.0208108194178749
 30
0.0
 11
2494.5078613573291477
 21
392.9404958568097186
 31
0.0
  0
LINE
  5
14C5B
  8
0
 10
2494.505091392128179
 20
392.9404958568097186
 30
0.0
 11
2494.505091392128179
 21
393.0208108194178749
 31
0.0
  0
LINE
  5
14C5C
  8
0
 10
2494.5022935874280847
 20
392.9404958568097186
 30
0.0
 11
2494.5022935874280847
 21
393.0208108194178749
 31
0.0
  0
LINE
  5
14C5D
  8
0
 10
2494.4930527370279378
 20
393.0208108194178749
 30
0.0
 11
2494.4930527370279378
 21
392.9404958568097186
 31
0.0
  0
LINE
  5
14C5E
  8
0
 10
2494.4904315367280105
 20
392.9404958568097186
 30
0.0
 11
2494.4904315367280105
 21
393.0208108194178749
 31
0.0
  0
LINE
  5
14C5F
  8
0
 10
2494.4872012029281905
 20
392.9404958568097186
 30
0.0
 11
2494.4872012029281905
 21
393.0208108194178749
 31
0.0
  0
LINE
  5
14C60
  8
0
 10
2494.4775140703281977
 20
393.0208108194178749
 30
0.0
 11
2494.4775140703281977
 21
392.9404958568097186
 31
0.0
  0
LINE
  5
14C61
  8
0
 10
2494.4750488195281832
 20
392.9404958568097186
 30
0.0
 11
2494.4750488195281832
 21
393.0208108194178749
 31
0.0
  0
LINE
  5
14C62
  8
0
 10
2494.4713948108278601
 20
392.9404958568097186
 30
0.0
 11
2494.4713948108278601
 21
393.0208108194178749
 31
0.0
  0
LINE
  5
14C63
  8
0
 10
2494.4612879476280796
 20
393.0208108194178749
 30
0.0
 11
2494.4612879476280796
 21
392.9404958568097186
 31
0.0
  0
LINE
  5
14C64
  8
0
 10
2494.4589854033279153
 20
392.9404958568097186
 30
0.0
 11
2494.4589854033279153
 21
393.0208108194178749
 31
0.0
  0
LINE
  5
14C65
  8
0
 10
2494.4549177351282196
 20
392.9404958568097186
 30
0.0
 11
2494.4549177351282196
 21
393.0208108194178749
 31
0.0
  0
LINE
  5
14C66
  8
0
 10
2494.4444188436277727
 20
393.0208108194178749
 30
0.0
 11
2494.4444188436277727
 21
392.9404958568097186
 31
0.0
  0
LINE
  5
14C67
  8
0
 10
2494.4422853170281087
 20
392.9404958568097186
 30
0.0
 11
2494.4422853170281087
 21
393.0208108194178749
 31
0.0
  0
LINE
  5
14C68
  8
0
 10
2494.43781513842805
 20
392.9404958568097186
 30
0.0
 11
2494.43781513842805
 21
393.0208108194178749
 31
0.0
  0
LINE
  5
14C69
  8
0
 10
2494.4269529953280653
 20
393.0208108194178749
 30
0.0
 11
2494.4269529953280653
 21
392.9404958568097186
 31
0.0
  0
LINE
  5
14C6A
  8
0
 10
2494.4249943342288134
 20
392.9404958568097186
 30
0.0
 11
2494.4249943342288134
 21
393.0208108194178749
 31
0.0
  0
LINE
  5
14C6B
  8
0
 10
2494.4202380956280649
 20
393.0208108194178749
 30
0.0
 11
2494.4202380956280649
 21
392.9404958568097186
 31
0.0
  0
LINE
  5
14C6C
  8
0
 10
2494.4089382754282269
 20
393.0208108194178749
 30
0.0
 11
2494.4089382754282269
 21
392.9404958568097186
 31
0.0
  0
LINE
  5
14C6D
  8
0
 10
2494.4071598483287744
 20
392.9404958568097186
 30
0.0
 11
2494.4071598483287744
 21
393.0208108194178749
 31
0.0
  0
LINE
  5
14C6E
  8
0
 10
2494.4019224760281759
 20
392.9404958568097186
 30
0.0
 11
2494.4019224760281759
 21
393.0208108194178749
 31
0.0
  0
LINE
  5
14C6F
  8
0
 10
2494.3904240610290799
 20
393.0208108194178749
 30
0.0
 11
2494.3904240610290799
 21
392.9404958568097186
 31
0.0
  0
LINE
  5
14C70
  8
0
 10
2494.388830742528171
 20
392.9404958568097186
 30
0.0
 11
2494.388830742528171
 21
393.0208108194178749
 31
0.0
  0
LINE
  5
14C71
  8
0
 10
2494.3832307897278042
 20
392.9404958568097186
 30
0.0
 11
2494.3832307897278042
 21
393.0208108194178749
 31
0.0
  0
LINE
  5
14C72
  8
0
 10
2494.3714610983279272
 20
393.0208108194178749
 30
0.0
 11
2494.3714610983279272
 21
392.9404958568097186
 31
0.0
  0
LINE
  5
14C73
  8
0
 10
2494.3700572555280814
 20
392.9404958568097186
 30
0.0
 11
2494.3700572555280814
 21
393.0208108194178749
 31
0.0
  0
LINE
  5
14C74
  8
0
 10
2494.3641100713280139
 20
392.9404958568097186
 30
0.0
 11
2494.3641100713280139
 21
393.0208108194178749
 31
0.0
  0
LINE
  5
14C75
  8
0
 10
2494.3521013634281189
 20
393.0208108194178749
 30
0.0
 11
2494.3521013634281189
 21
392.9404958568097186
 31
0.0
  0
LINE
  5
14C76
  8
0
 10
2494.3508908442281609
 20
392.9404958568097186
 30
0.0
 11
2494.3508908442281609
 21
393.0208108194178749
 31
0.0
  0
LINE
  5
14C77
  8
0
 10
2494.3446127294278085
 20
392.9404958568097186
 30
0.0
 11
2494.3446127294278085
 21
393.0208108194178749
 31
0.0
  0
LINE
  5
14C78
  8
0
 10
2494.3323979200281428
 20
393.0208108194178749
 30
0.0
 11
2494.3323979200281428
 21
392.9404958568097186
 31
0.0
  0
LINE
  5
14C79
  8
0
 10
2494.3313840424279988
 20
392.9404958568097186
 30
0.0
 11
2494.3313840424279988
 21
393.0208108194178749
 31
0.0
  0
LINE
  5
14C7A
  8
0
 10
2494.3247922048290093
 20
392.9404958568097186
 30
0.0
 11
2494.3247922048290093
 21
393.0208108194178749
 31
0.0
  0
LINE
  5
14C7B
  8
0
 10
2494.3124047739279376
 20
393.0208108194178749
 30
0.0
 11
2494.3124047739279376
 21
392.9404958568097186
 31
0.0
  0
LINE
  5
14C7C
  8
0
 10
2494.3115903168281875
 20
392.9404958568097186
 30
0.0
 11
2494.3115903168281875
 21
393.0208108194178749
 31
0.0
  0
LINE
  5
14C7D
  8
0
 10
2494.3047028243281602
 20
392.9404958568097186
 30
0.0
 11
2494.3047028243281602
 21
393.0208108194178749
 31
0.0
  0
LINE
  5
14C7E
  8
0
 10
2494.2921767249281402
 20
393.0208108194178749
 30
0.0
 11
2494.2921767249281402
 21
392.9404958568097186
 31
0.0
  0
LINE
  5
14C7F
  8
0
 10
2494.2915639207280947
 20
392.9404958568097186
 30
0.0
 11
2494.2915639207280947
 21
393.0208108194178749
 31
0.0
  0
LINE
  5
14C80
  8
0
 10
2494.2843996514279752
 20
392.9404958568097186
 30
0.0
 11
2494.2843996514279752
 21
393.0208108194178749
 31
0.0
  0
LINE
  5
14C81
  8
0
 10
2494.2717692167279893
 20
393.0208108194178749
 30
0.0
 11
2494.2717692167279893
 21
392.9404958568097186
 31
0.0
  0
LINE
  5
14C82
  8
0
 10
2494.271359745027894
 20
392.9404958568097186
 30
0.0
 11
2494.271359745027894
 21
393.0208108194178749
 31
0.0
  0
LINE
  5
14C83
  8
0
 10
2494.2639383356281542
 20
392.9404958568097186
 30
0.0
 11
2494.2639383356281542
 21
393.0208108194178749
 31
0.0
  0
LINE
  5
14C84
  8
0
 10
2494.2512381848277982
 20
393.0208108194178749
 30
0.0
 11
2494.2512381848277982
 21
392.9404958568097186
 31
0.0
  0
LINE
  5
14C85
  8
0
 10
2494.2433749601282216
 20
392.9404958568097186
 30
0.0
 11
2494.2433749601282216
 21
393.0208108194178749
 31
0.0
  0
LINE
  5
14C86
  8
0
 10
2494.2306399034278002
 20
393.0208108194178749
 30
0.0
 11
2494.2306399034278002
 21
392.9404958568097186
 31
0.0
  0
LINE
  5
14C87
  8
0
 10
2494.2227658877282011
 20
392.9404958568097186
 30
0.0
 11
2494.2227658877282011
 21
393.0208108194178749
 31
0.0
  0
LINE
  5
14C88
  8
0
 10
2494.2100308310291439
 20
393.0208108194178749
 30
0.0
 11
2494.2100308310291439
 21
392.9404958568097186
 31
0.0
  0
LINE
  5
14C89
  8
0
 10
2494.202167606328203
 20
392.9404958568097186
 30
0.0
 11
2494.202167606328203
 21
393.0208108194178749
 31
0.0
  0
LINE
  5
14C8A
  8
0
 10
2494.1894674555278471
 20
393.0208108194178749
 30
0.0
 11
2494.1894674555278471
 21
392.9404958568097186
 31
0.0
  0
LINE
  5
14C8B
  8
0
 10
2494.1820460461290168
 20
392.9404958568097186
 30
0.0
 11
2494.1820460461290168
 21
393.0208108194178749
 31
0.0
  0
LINE
  5
14C8C
  8
0
 10
2494.181636574428012
 20
392.9404958568097186
 30
0.0
 11
2494.181636574428012
 21
393.0208108194178749
 31
0.0
  0
LINE
  5
14C8D
  8
0
 10
2494.1690061398280704
 20
393.0208108194178749
 30
0.0
 11
2494.1690061398280704
 21
392.9404958568097186
 31
0.0
  0
LINE
  5
14C8E
  8
0
 10
2494.1618418704279065
 20
392.9404958568097186
 30
0.0
 11
2494.1618418704279065
 21
393.0208108194178749
 31
0.0
  0
LINE
  5
14C8F
  8
0
 10
2494.1612290662292253
 20
392.9404958568097186
 30
0.0
 11
2494.1612290662292253
 21
393.0208108194178749
 31
0.0
  0
LINE
  5
14C90
  8
0
 10
2494.1487029668292053
 20
393.0208108194178749
 30
0.0
 11
2494.1487029668292053
 21
392.9404958568097186
 31
0.0
  0
LINE
  5
14C91
  8
0
 10
2494.1418154743278137
 20
392.9404958568097186
 30
0.0
 11
2494.1418154743278137
 21
393.0208108194178749
 31
0.0
  0
LINE
  5
14C92
  8
0
 10
2494.1410010172280636
 20
392.9404958568097186
 30
0.0
 11
2494.1410010172280636
 21
393.0208108194178749
 31
0.0
  0
LINE
  5
14C93
  8
0
 10
2494.1286135863279014
 20
393.0208108194178749
 30
0.0
 11
2494.1286135863279014
 21
392.9404958568097186
 31
0.0
  0
LINE
  5
14C94
  8
0
 10
2494.1220217487280024
 20
392.9404958568097186
 30
0.0
 11
2494.1220217487280024
 21
393.0208108194178749
 31
0.0
  0
LINE
  5
14C95
  8
0
 10
2494.1211231268280244
 20
393.0208108194178749
 30
0.0
 11
2494.1211231268280244
 21
392.9404958568097186
 31
0.0
  0
LINE
  5
14C96
  8
0
 10
2494.1087930617281927
 20
393.0208108194178749
 30
0.0
 11
2494.1087930617281927
 21
392.9404958568097186
 31
0.0
  0
LINE
  5
14C97
  8
0
 10
2494.1025149469278404
 20
392.9404958568097186
 30
0.0
 11
2494.1025149469278404
 21
393.0208108194178749
 31
0.0
  0
LINE
  5
14C98
  8
0
 10
2494.1013044277278823
 20
392.9404958568097186
 30
0.0
 11
2494.1013044277278823
 21
393.0208108194178749
 31
0.0
  0
LINE
  5
14C99
  8
0
 10
2494.0892957198279873
 20
393.0208108194178749
 30
0.0
 11
2494.0892957198279873
 21
392.9404958568097186
 31
0.0
  0
LINE
  5
14C9A
  8
0
 10
2494.0833485356279198
 20
392.9404958568097186
 30
0.0
 11
2494.0833485356279198
 21
393.0208108194178749
 31
0.0
  0
LINE
  5
14C9B
  8
0
 10
2494.081944692828074
 20
392.9404958568097186
 30
0.0
 11
2494.081944692828074
 21
393.0208108194178749
 31
0.0
  0
LINE
  5
14C9C
  8
0
 10
2494.0701750014291065
 20
393.0208108194178749
 30
0.0
 11
2494.0701750014291065
 21
392.9404958568097186
 31
0.0
  0
LINE
  5
14C9D
  8
0
 10
2494.0645750486278303
 20
392.9404958568097186
 30
0.0
 11
2494.0645750486278303
 21
393.0208108194178749
 31
0.0
  0
LINE
  5
14C9E
  8
0
 10
2494.0629817301278308
 20
392.9404958568097186
 30
0.0
 11
2494.0629817301278308
 21
393.0208108194178749
 31
0.0
  0
LINE
  5
14C9F
  8
0
 10
2494.0514833151291896
 20
393.0208108194178749
 30
0.0
 11
2494.0514833151291896
 21
392.9404958568097186
 31
0.0
  0
LINE
  5
14CA0
  8
0
 10
2494.0462459428281363
 20
392.9404958568097186
 30
0.0
 11
2494.0462459428281363
 21
393.0208108194178749
 31
0.0
  0
LINE
  5
14CA1
  8
0
 10
2494.0444675157277743
 20
392.9404958568097186
 30
0.0
 11
2494.0444675157277743
 21
393.0208108194178749
 31
0.0
  0
LINE
  5
14CA2
  8
0
 10
2494.0332718935278535
 20
393.0208108194178749
 30
0.0
 11
2494.0332718935278535
 21
392.9404958568097186
 31
0.0
  0
LINE
  5
14CA3
  8
0
 10
2494.0284114570290512
 20
392.9404958568097186
 30
0.0
 11
2494.0284114570290512
 21
393.0208108194178749
 31
0.0
  0
LINE
  5
14CA4
  8
0
 10
2494.0264527958279359
 20
392.9404958568097186
 30
0.0
 11
2494.0264527958279359
 21
393.0208108194178749
 31
0.0
  0
LINE
  5
14CA5
  8
0
 10
2494.0155906528279957
 20
393.0208108194178749
 30
0.0
 11
2494.0155906528279957
 21
392.9404958568097186
 31
0.0
  0
LINE
  5
14CA6
  8
0
 10
2494.0111204742279369
 20
392.9404958568097186
 30
0.0
 11
2494.0111204742279369
 21
393.0208108194178749
 31
0.0
  0
LINE
  5
14CA7
  8
0
 10
2494.008986947529138
 20
392.9404958568097186
 30
0.0
 11
2494.008986947529138
 21
393.0208108194178749
 31
0.0
  0
LINE
  5
14CA8
  8
0
 10
2493.998488056127826
 20
393.0208108194178749
 30
0.0
 11
2493.998488056127826
 21
392.9404958568097186
 31
0.0
  0
LINE
  5
14CA9
  8
0
 10
2493.9944203878280859
 20
392.9404958568097186
 30
0.0
 11
2493.9944203878280859
 21
393.0208108194178749
 31
0.0
  0
LINE
  5
14CAA
  8
0
 10
2493.9921178435279217
 20
392.9404958568097186
 30
0.0
 11
2493.9921178435279217
 21
393.0208108194178749
 31
0.0
  0
LINE
  5
14CAB
  8
0
 10
2493.9820109804281856
 20
393.0208108194178749
 30
0.0
 11
2493.9820109804281856
 21
392.9404958568097186
 31
0.0
  0
LINE
  5
14CAC
  8
0
 10
2493.978356971627818
 20
392.9404958568097186
 30
0.0
 11
2493.978356971627818
 21
393.0208108194178749
 31
0.0
  0
LINE
  5
14CAD
  8
0
 10
2493.9758917208291678
 20
392.9404958568097186
 30
0.0
 11
2493.9758917208291678
 21
393.0208108194178749
 31
0.0
  0
LINE
  5
14CAE
  8
0
 10
2493.9662045882278107
 20
393.0208108194178749
 30
0.0
 11
2493.9662045882278107
 21
392.9404958568097186
 31
0.0
  0
LINE
  5
14CAF
  8
0
 10
2493.9629742544279907
 20
392.9404958568097186
 30
0.0
 11
2493.9629742544279907
 21
393.0208108194178749
 31
0.0
  0
LINE
  5
14CB0
  8
0
 10
2493.9603530541280634
 20
392.9404958568097186
 30
0.0
 11
2493.9603530541280634
 21
393.0208108194178749
 31
0.0
  0
LINE
  5
14CB1
  8
0
 10
2493.9511122038279609
 20
393.0208108194178749
 30
0.0
 11
2493.9511122038279609
 21
392.9404958568097186
 31
0.0
  0
LINE
  5
14CB2
  8
0
 10
2493.9483143990291865
 20
392.9404958568097186
 30
0.0
 11
2493.9483143990291865
 21
393.0208108194178749
 31
0.0
  0
LINE
  5
14CB3
  8
0
 10
2493.9455444338282177
 20
392.9404958568097186
 30
0.0
 11
2493.9455444338282177
 21
393.0208108194178749
 31
0.0
  0
LINE
  5
14CB4
  8
0
 10
2493.9367751943282201
 20
393.0208108194178749
 30
0.0
 11
2493.9367751943282201
 21
392.9404958568097186
 31
0.0
  0
LINE
  5
14CB5
  8
0
 10
2493.9344175872279266
 20
392.9404958568097186
 30
0.0
 11
2493.9344175872279266
 21
393.0208108194178749
 31
0.0
  0
LINE
  5
14CB6
  8
0
 10
2493.9315064494280705
 20
392.9404958568097186
 30
0.0
 11
2493.9315064494280705
 21
393.0208108194178749
 31
0.0
  0
LINE
  5
14CB7
  8
0
 10
2493.9232328698899437
 20
393.0208108194178749
 30
0.0
 11
2493.9232328698899437
 21
392.9404958568097186
 31
0.0
  0
LINE
  5
14CB8
  8
0
 10
2493.92132192238887
 20
392.9404958568097186
 30
0.0
 11
2493.92132192238887
 21
393.0208108194178749
 31
0.0
  0
LINE
  5
14CB9
  8
0
 10
2493.9182775778281211
 20
392.9404958568097186
 30
0.0
 11
2493.9182775778281211
 21
393.0208108194178749
 31
0.0
  0
LINE
  5
14CBA
  8
0
 10
2493.9105223222891254
 20
392.9404958568097186
 30
0.0
 11
2493.9105223222891254
 21
393.0208108194178749
 31
0.0
  0
LINE
  5
14CBB
  8
0
 10
2493.9090632723891758
 20
392.9404958568097186
 30
0.0
 11
2493.9090632723891758
 21
393.0208108194178749
 31
0.0
  0
LINE
  5
14CBC
  8
0
 10
2493.9058940919899214
 20
392.9404958568097186
 30
0.0
 11
2493.9058940919899214
 21
393.0208108194178749
 31
0.0
  0
LINE
  5
14CBD
  8
0
 10
2493.8986784037901998
 20
392.9404958568097186
 30
0.0
 11
2493.8986784037901998
 21
393.0208108194178749
 31
0.0
  0
LINE
  5
14CBE
  8
0
 10
2493.8976752503890566
 20
392.9404958568097186
 30
0.0
 11
2493.8976752503890566
 21
393.0208108194178749
 31
0.0
  0
LINE
  5
14CBF
  8
0
 10
2493.8943899074888577
 20
392.9404958568097186
 30
0.0
 11
2493.8943899074888577
 21
393.0208108194178749
 31
0.0
  0
LINE
  5
14CC0
  8
0
 10
2493.8877335776901418
 20
392.9404958568097186
 30
0.0
 11
2493.8877335776901418
 21
393.0208108194178749
 31
0.0
  0
LINE
  5
14CC1
  8
0
 10
2493.887189070489967
 20
392.9404958568097186
 30
0.0
 11
2493.887189070489967
 21
393.0208108194178749
 31
0.0
  0
LINE
  5
14CC2
  8
0
 10
2493.8838553679897814
 20
392.9404958568097186
 30
0.0
 11
2493.8838553679897814
 21
393.0208108194178749
 31
0.0
  0
LINE
  5
14CC3
  8
0
 10
2493.8777178428899788
 20
392.9404958568097186
 30
0.0
 11
2493.8777178428899788
 21
393.0208108194178749
 31
0.0
  0
LINE
  5
14CC4
  8
0
 10
2493.8741431145899696
 20
392.9404958568097186
 30
0.0
 11
2493.8741431145899696
 21
393.0208108194178749
 31
0.0
  0
LINE
  5
14CC5
  8
0
 10
2493.8686586519888806
 20
392.9404958568097186
 30
0.0
 11
2493.8686586519888806
 21
393.0208108194178749
 31
0.0
  0
LINE
  5
14CC6
  8
0
 10
2493.865456001189159
 20
392.9404958568097186
 30
0.0
 11
2493.865456001189159
 21
393.0208108194178749
 31
0.0
  0
LINE
  5
14CC7
  8
0
 10
2493.8605808353891007
 20
392.9404958568097186
 30
0.0
 11
2493.8605808353891007
 21
393.0208108194178749
 31
0.0
  0
LINE
  5
14CC8
  8
0
 10
2493.8577590404888724
 20
392.9404958568097186
 30
0.0
 11
2493.8577590404888724
 21
393.0208108194178749
 31
0.0
  0
LINE
  5
14CC9
  8
0
 10
2493.8535065339888206
 20
392.9404958568097186
 30
0.0
 11
2493.8535065339888206
 21
393.0208108194178749
 31
0.0
  0
LINE
  5
14CCA
  8
0
 10
2493.8510733292901023
 20
392.9404958568097186
 30
0.0
 11
2493.8510733292901023
 21
393.0208108194178749
 31
0.0
  0
LINE
  5
14CCB
  8
0
 10
2493.8474551379899822
 20
392.9404958568097186
 30
0.0
 11
2493.8474551379899822
 21
393.0208108194178749
 31
0.0
  0
LINE
  5
14CCC
  8
0
 10
2493.8454171926900926
 20
392.9404958568097186
 30
0.0
 11
2493.8454171926900926
 21
393.0208108194178749
 31
0.0
  0
LINE
  5
14CCD
  8
0
 10
2493.8424432336892096
 20
392.9404958568097186
 30
0.0
 11
2493.8424432336892096
 21
393.0208108194178749
 31
0.0
  0
LINE
  5
14CCE
  8
0
 10
2493.8408061336899664
 20
392.9404958568097186
 30
0.0
 11
2493.8408061336899664
 21
393.0208108194178749
 31
0.0
  0
LINE
  5
14CCF
  8
0
 10
2493.8384845584891991
 20
392.9404958568097186
 30
0.0
 11
2493.8384845584891991
 21
393.0208108194178749
 31
0.0
  0
LINE
  5
14CD0
  8
0
 10
2493.8372527909891687
 20
392.9404958568097186
 30
0.0
 11
2493.8372527909891687
 21
393.0208108194178749
 31
0.0
  0
LINE
  5
14CD1
  8
0
 10
2493.8355899626899372
 20
392.9404958568097186
 30
0.0
 11
2493.8355899626899372
 21
393.0208108194178749
 31
0.0
  0
LINE
  5
14CD2
  8
0
 10
2493.8347669039899301
 20
392.9404958568097186
 30
0.0
 11
2493.8347669039899301
 21
393.0208108194178749
 31
0.0
  0
LINE
  5
14CD3
  8
0
 10
2493.8337673803889629
 20
392.9404958568097186
 30
0.0
 11
2493.8337673803889629
 21
393.0208108194178749
 31
0.0
  0
LINE
  5
14CD4
  8
0
 10
2493.8333552862900433
 20
392.9404958568097186
 30
0.0
 11
2493.8333552862900433
 21
393.0208108194178749
 31
0.0
  0
LINE
  5
14CD5
  8
0
 10
2493.8330218070891533
 20
392.9404958568097186
 30
0.0
 11
2493.8330218070891533
 21
393.0208108194178749
 31
0.0
  0
LINE
  5
14CD6
  8
0
 10
2494.561348408989943
 20
392.9404958568097186
 30
0.0
 11
2494.561348408989943
 21
392.9211100320179071
 31
0.0
  0
LINE
  5
14CD7
  8
0
 10
2493.8920574089897855
 20
392.9211100320179071
 30
0.0
 11
2493.8920574089897855
 21
392.9404958568097186
 31
0.0
  0
LINE
  5
14CD8
  8
0
 10
2514.5416438399279286
 20
392.9404958568097186
 30
0.0
 11
2513.7542816495888474
 21
392.9404958568097186
 31
0.0
  0
LINE
  5
14CD9
  8
0
 10
2514.5416438399279286
 20
392.9404958568097186
 30
0.0
 11
2514.5416438399279286
 21
393.0208108194178749
 31
0.0
  0
LINE
  5
14CDA
  8
0
 10
2514.5413103607288576
 20
393.0208108194178749
 30
0.0
 11
2514.5413103607288576
 21
392.9404958568097186
 31
0.0
  0
LINE
  5
14CDB
  8
0
 10
2514.540898266628119
 20
392.9404958568097186
 30
0.0
 11
2514.540898266628119
 21
393.0208108194178749
 31
0.0
  0
LINE
  5
14CDC
  8
0
 10
2514.5398987430280613
 20
393.0208108194178749
 30
0.0
 11
2514.5398987430280613
 21
392.9404958568097186
 31
0.0
  0
LINE
  5
14CDD
  8
0
 10
2514.5390756843289637
 20
392.9404958568097186
 30
0.0
 11
2514.5390756843289637
 21
393.0208108194178749
 31
0.0
  0
LINE
  5
14CDE
  8
0
 10
2514.5374128560279132
 20
393.0208108194178749
 30
0.0
 11
2514.5374128560288227
 21
392.9404958568097186
 31
0.0
  0
LINE
  5
14CDF
  8
0
 10
2514.5361810886288367
 20
392.9404958568097186
 30
0.0
 11
2514.5361810886288367
 21
393.0208108194178749
 31
0.0
  0
LINE
  5
14CE0
  8
0
 10
2514.5338595133289346
 20
393.0208108194178749
 30
0.0
 11
2514.5338595133289346
 21
392.9404958568097186
 31
0.0
  0
LINE
  5
14CE1
  8
0
 10
2514.5322224133287818
 20
392.9404958568097186
 30
0.0
 11
2514.5322224133287818
 21
393.0208108194178749
 31
0.0
  0
LINE
  5
14CE2
  8
0
 10
2514.5292484543288083
 20
393.0208108194178749
 30
0.0
 11
2514.5292484543288083
 21
392.9404958568097186
 31
0.0
  0
LINE
  5
14CE3
  8
0
 10
2514.5272426115279814
 20
393.0208108194178749
 30
0.0
 11
2514.5272426115279814
 21
392.9404958568097186
 31
0.0
  0
LINE
  5
14CE4
  8
0
 10
2514.5235923177287987
 20
393.0208108194178749
 30
0.0
 11
2514.5235923177287987
 21
392.9404958568097186
 31
0.0
  0
LINE
  5
14CE5
  8
0
 10
2514.5211591130291708
 20
392.9404958568097186
 30
0.0
 11
2514.5211591130291708
 21
393.0208108194178749
 31
0.0
  0
LINE
  5
14CE6
  8
0
 10
2514.5169066065282095
 20
393.0208108194178749
 30
0.0
 11
2514.5169066065282095
 21
392.9404958568097186
 31
0.0
  0
LINE
  5
14CE7
  8
0
 10
2514.5140848116279813
 20
392.9404958568097186
 30
0.0
 11
2514.5140848116279813
 21
393.0208108194178749
 31
0.0
  0
LINE
  5
14CE8
  8
0
 10
2514.5092096458279229
 20
393.0208108194178749
 30
0.0
 11
2514.5092096458288324
 21
392.9404958568097186
 31
0.0
  0
LINE
  5
14CE9
  8
0
 10
2514.5060069951291553
 20
392.9404958568097186
 30
0.0
 11
2514.5060069951291553
 21
393.0208108194178749
 31
0.0
  0
LINE
  5
14CEA
  8
0
 10
2514.5005225325280662
 20
393.0208108194178749
 30
0.0
 11
2514.5005225325280662
 21
392.9404958568097186
 31
0.0
  0
LINE
  5
14CEB
  8
0
 10
2514.4969478041289221
 20
392.9404958568097186
 30
0.0
 11
2514.4969478041289221
 21
393.0208108194178749
 31
0.0
  0
LINE
  5
14CEC
  8
0
 10
2514.4908690772281261
 20
393.0208108194178749
 30
0.0
 11
2514.4908690772281261
 21
392.9404958568097186
 31
0.0
  0
LINE
  5
14CED
  8
0
 10
2514.4874765766280689
 20
392.9404958568097186
 30
0.0
 11
2514.4874765766280689
 21
393.0208108194178749
 31
0.0
  0
LINE
  5
14CEE
  8
0
 10
2514.4869320693292138
 20
392.9404958568097186
 30
0.0
 11
2514.4869320693292138
 21
393.0208108194178749
 31
0.0
  0
LINE
  5
14CEF
  8
0
 10
2514.4802757395282242
 20
393.0208108194178749
 30
0.0
 11
2514.4802757395282242
 21
392.9404958568097186
 31
0.0
  0
LINE
  5
14CF0
  8
0
 10
2514.4769903966289348
 20
392.9404958568097186
 30
0.0
 11
2514.4769903966289348
 21
393.0208108194178749
 31
0.0
  0
LINE
  5
14CF1
  8
0
 10
2514.4759872432277916
 20
392.9404958568097186
 30
0.0
 11
2514.4759872432277916
 21
393.0208108194178749
 31
0.0
  0
LINE
  5
14CF2
  8
0
 10
2514.46877155502807
 20
393.0208108194178749
 30
0.0
 11
2514.46877155502807
 21
392.9404958568097186
 31
0.0
  0
LINE
  5
14CF3
  8
0
 10
2514.46560237472886
 20
392.9404958568097186
 30
0.0
 11
2514.46560237472886
 21
393.0208108194178749
 31
0.0
  0
LINE
  5
14CF4
  8
0
 10
2514.4641433247279565
 20
392.9404958568097186
 30
0.0
 11
2514.4641433247279565
 21
393.0208108194178749
 31
0.0
  0
LINE
  5
14CF5
  8
0
 10
2514.4563880558280289
 20
393.0208108194178749
 30
0.0
 11
2514.4563880558280289
 21
392.9404958568097186
 31
0.0
  0
LINE
  5
14CF6
  8
0
 10
2514.4533437246282119
 20
392.9404958568097186
 30
0.0
 11
2514.4533437246282119
 21
393.0208108194178749
 31
0.0
  0
LINE
  5
14CF7
  8
0
 10
2514.4514327772280922
 20
392.9404958568097186
 30
0.0
 11
2514.4514327772280922
 21
393.0208108194178749
 31
0.0
  0
LINE
  5
14CF8
  8
0
 10
2514.443159184328124
 20
393.0208108194178749
 30
0.0
 11
2514.443159184328124
 21
392.9404958568097186
 31
0.0
  0
LINE
  5
14CF9
  8
0
 10
2514.4402480464282235
 20
392.9404958568097186
 30
0.0
 11
2514.4402480464282235
 21
393.0208108194178749
 31
0.0
  0
LINE
  5
14CFA
  8
0
 10
2514.4378904393279299
 20
392.9404958568097186
 30
0.0
 11
2514.4378904393279299
 21
393.0208108194178749
 31
0.0
  0
LINE
  5
14CFB
  8
0
 10
2514.4291211998288418
 20
393.0208108194178749
 30
0.0
 11
2514.4291211998288418
 21
392.9404958568097186
 31
0.0
  0
LINE
  5
14CFC
  8
0
 10
2514.4263512346287825
 20
392.9404958568097186
 30
0.0
 11
2514.4263512346287825
 21
393.0208108194178749
 31
0.0
  0
LINE
  5
14CFD
  8
0
 10
2514.4235534299277788
 20
392.9404958568097186
 30
0.0
 11
2514.4235534299277788
 21
393.0208108194178749
 31
0.0
  0
LINE
  5
14CFE
  8
0
 10
2514.4143125795280866
 20
393.0208108194178749
 30
0.0
 11
2514.4143125795280866
 21
392.9404958568097186
 31
0.0
  0
LINE
  5
14CFF
  8
0
 10
2514.4116913792281593
 20
392.9404958568097186
 30
0.0
 11
2514.4116913792281593
 21
393.0208108194178749
 31
0.0
  0
LINE
  5
14D00
  8
0
 10
2514.408461045428794
 20
392.9404958568097186
 30
0.0
 11
2514.408461045428794
 21
393.0208108194178749
 31
0.0
  0
LINE
  5
14D01
  8
0
 10
2514.3987739128288013
 20
393.0208108194178749
 30
0.0
 11
2514.3987739128288013
 21
392.9404958568097186
 31
0.0
  0
LINE
  5
14D02
  8
0
 10
2514.3963086620287868
 20
392.9404958568097186
 30
0.0
 11
2514.3963086620287868
 21
393.0208108194178749
 31
0.0
  0
LINE
  5
14D03
  8
0
 10
2514.3926546533289184
 20
392.9404958568097186
 30
0.0
 11
2514.3926546533289184
 21
393.0208108194178749
 31
0.0
  0
LINE
  5
14D04
  8
0
 10
2514.3825477901291379
 20
393.0208108194178749
 30
0.0
 11
2514.3825477901291379
 21
392.9404958568097186
 31
0.0
  0
LINE
  5
14D05
  8
0
 10
2514.3802452458280641
 20
392.9404958568097186
 30
0.0
 11
2514.3802452458280641
 21
393.0208108194178749
 31
0.0
  0
LINE
  5
14D06
  8
0
 10
2514.3761775776279137
 20
392.9404958568097186
 30
0.0
 11
2514.3761775776279137
 21
393.0208108194178749
 31
0.0
  0
LINE
  5
14D07
  8
0
 10
2514.365678686128831
 20
393.0208108194178749
 30
0.0
 11
2514.365678686128831
 21
392.9404958568097186
 31
0.0
  0
LINE
  5
14D08
  8
0
 10
2514.3635451595278028
 20
392.9404958568097186
 30
0.0
 11
2514.3635451595278028
 21
393.0208108194178749
 31
0.0
  0
LINE
  5
14D09
  8
0
 10
2514.3590749809281988
 20
392.9404958568097186
 30
0.0
 11
2514.3590749809281988
 21
393.0208108194178749
 31
0.0
  0
LINE
  5
14D0A
  8
0
 10
2514.3482128378282141
 20
393.0208108194178749
 30
0.0
 11
2514.3482128378282141
 21
392.9404958568097186
 31
0.0
  0
LINE
  5
14D0B
  8
0
 10
2514.3462541767289622
 20
392.9404958568097186
 30
0.0
 11
2514.3462541767289622
 21
393.0208108194178749
 31
0.0
  0
LINE
  5
14D0C
  8
0
 10
2514.3414979381282137
 20
393.0208108194178749
 30
0.0
 11
2514.3414979381282137
 21
392.9404958568097186
 31
0.0
  0
LINE
  5
14D0D
  8
0
 10
2514.330198117927921
 20
393.0208108194178749
 30
0.0
 11
2514.330198117927921
 21
392.9404958568097186
 31
0.0
  0
LINE
  5
14D0E
  8
0
 10
2514.3284196908289232
 20
392.9404958568097186
 30
0.0
 11
2514.3284196908289232
 21
393.0208108194178749
 31
0.0
  0
LINE
  5
14D0F
  8
0
 10
2514.3231823185287794
 20
392.9404958568097186
 30
0.0
 11
2514.3231823185287794
 21
393.0208108194178749
 31
0.0
  0
LINE
  5
14D10
  8
0
 10
2514.311683903528774
 20
393.0208108194178749
 30
0.0
 11
2514.311683903528774
 21
392.9404958568097186
 31
0.0
  0
LINE
  5
14D11
  8
0
 10
2514.310090585027865
 20
392.9404958568097186
 30
0.0
 11
2514.310090585027865
 21
393.0208108194178749
 31
0.0
  0
LINE
  5
14D12
  8
0
 10
2514.3044906322288625
 20
392.9404958568097186
 30
0.0
 11
2514.3044906322288625
 21
393.0208108194178749
 31
0.0
  0
LINE
  5
14D13
  8
0
 10
2514.292720940828076
 20
393.0208108194178749
 30
0.0
 11
2514.292720940828076
 21
392.9404958568097186
 31
0.0
  0
LINE
  5
14D14
  8
0
 10
2514.2913170980277755
 20
392.9404958568097186
 30
0.0
 11
2514.2913170980277755
 21
393.0208108194178749
 31
0.0
  0
LINE
  5
14D15
  8
0
 10
2514.2853699138290722
 20
392.9404958568097186
 30
0.0
 11
2514.2853699138290722
 21
393.0208108194178749
 31
0.0
  0
LINE
  5
14D16
  8
0
 10
2514.273361205927813
 20
393.0208108194178749
 30
0.0
 11
2514.273361205927813
 21
392.9404958568097186
 31
0.0
  0
LINE
  5
14D17
  8
0
 10
2514.2721506867278549
 20
392.9404958568097186
 30
0.0
 11
2514.2721506867278549
 21
393.0208108194178749
 31
0.0
  0
LINE
  5
14D18
  8
0
 10
2514.2658725719288668
 20
392.9404958568097186
 30
0.0
 11
2514.2658725719288668
 21
393.0208108194178749
 31
0.0
  0
LINE
  5
14D19
  8
0
 10
2514.2536577625278369
 20
393.0208108194178749
 30
0.0
 11
2514.2536577625278369
 21
392.9404958568097186
 31
0.0
  0
LINE
  5
14D1A
  8
0
 10
2514.2526438849281476
 20
392.9404958568097186
 30
0.0
 11
2514.2526438849281476
 21
393.0208108194178749
 31
0.0
  0
LINE
  5
14D1B
  8
0
 10
2514.2460520473277938
 20
392.9404958568097186
 30
0.0
 11
2514.2460520473277938
 21
393.0208108194178749
 31
0.0
  0
LINE
  5
14D1C
  8
0
 10
2514.2336646164280864
 20
393.0208108194178749
 30
0.0
 11
2514.2336646164280864
 21
392.9404958568097186
 31
0.0
  0
LINE
  5
14D1D
  8
0
 10
2514.2328501593278816
 20
392.9404958568097186
 30
0.0
 11
2514.2328501593278816
 21
393.0208108194178749
 31
0.0
  0
LINE
  5
14D1E
  8
0
 10
2514.2259626668292185
 20
392.9404958568097186
 30
0.0
 11
2514.2259626668292185
 21
393.0208108194178749
 31
0.0
  0
LINE
  5
14D1F
  8
0
 10
2514.2134365674291985
 20
393.0208108194178749
 30
0.0
 11
2514.2134365674291985
 21
392.9404958568097186
 31
0.0
  0
LINE
  5
14D20
  8
0
 10
2514.2128237632277887
 20
392.9404958568097186
 30
0.0
 11
2514.2128237632277887
 21
393.0208108194178749
 31
0.0
  0
LINE
  5
14D21
  8
0
 10
2514.205659493928124
 20
392.9404958568097186
 30
0.0
 11
2514.205659493928124
 21
393.0208108194178749
 31
0.0
  0
LINE
  5
14D22
  8
0
 10
2514.1930290592281381
 20
393.0208108194178749
 30
0.0
 11
2514.1930290592281381
 21
392.9404958568097186
 31
0.0
  0
LINE
  5
14D23
  8
0
 10
2514.1926195875289523
 20
392.9404958568097186
 30
0.0
 11
2514.1926195875289523
 21
393.0208108194178749
 31
0.0
  0
LINE
  5
14D24
  8
0
 10
2514.1851981781278482
 20
392.9404958568097186
 30
0.0
 11
2514.1851981781278482
 21
393.0208108194178749
 31
0.0
  0
LINE
  5
14D25
  8
0
 10
2514.1724980273288566
 20
393.0208108194178749
 30
0.0
 11
2514.1724980273288566
 21
392.9404958568097186
 31
0.0
  0
LINE
  5
14D26
  8
0
 10
2514.1646348026288251
 20
392.9404958568097186
 30
0.0
 11
2514.1646348026288251
 21
393.0208108194178749
 31
0.0
  0
LINE
  5
14D27
  8
0
 10
2514.1518997459288585
 20
393.0208108194178749
 30
0.0
 11
2514.1518997459288585
 21
392.9404958568097186
 31
0.0
  0
LINE
  5
14D28
  8
0
 10
2514.1440257302278951
 20
392.9404958568097186
 30
0.0
 11
2514.1440257302278951
 21
393.0208108194178749
 31
0.0
  0
LINE
  5
14D29
  8
0
 10
2514.1312906735288379
 20
393.0208108194178749
 30
0.0
 11
2514.1312906735288379
 21
392.9404958568097186
 31
0.0
  0
LINE
  5
14D2A
  8
0
 10
2514.123427448827897
 20
392.9404958568097186
 30
0.0
 11
2514.123427448827897
 21
393.0208108194178749
 31
0.0
  0
LINE
  5
14D2B
  8
0
 10
2514.1107272980279959
 20
393.0208108194178749
 30
0.0
 11
2514.1107272980279959
 21
392.9404958568097186
 31
0.0
  0
LINE
  5
14D2C
  8
0
 10
2514.1033058886291656
 20
392.9404958568097186
 30
0.0
 11
2514.1033058886291656
 21
393.0208108194178749
 31
0.0
  0
LINE
  5
14D2D
  8
0
 10
2514.1028964169281608
 20
392.9404958568097186
 30
0.0
 11
2514.1028964169281608
 21
393.0208108194178749
 31
0.0
  0
LINE
  5
14D2E
  8
0
 10
2514.0902659823282193
 20
393.0208108194178749
 30
0.0
 11
2514.0902659823282193
 21
392.9404958568097186
 31
0.0
  0
LINE
  5
14D2F
  8
0
 10
2514.0831017129289648
 20
392.9404958568097186
 30
0.0
 11
2514.0831017129289648
 21
393.0208108194178749
 31
0.0
  0
LINE
  5
14D30
  8
0
 10
2514.0824889087289193
 20
392.9404958568097186
 30
0.0
 11
2514.0824889087289193
 21
393.0208108194178749
 31
0.0
  0
LINE
  5
14D31
  8
0
 10
2514.0699628093279898
 20
393.0208108194178749
 30
0.0
 11
2514.0699628093279898
 21
392.9404958568097186
 31
0.0
  0
LINE
  5
14D32
  8
0
 10
2514.0630753168279625
 20
392.9404958568097186
 30
0.0
 11
2514.0630753168279625
 21
393.0208108194178749
 31
0.0
  0
LINE
  5
14D33
  8
0
 10
2514.0622608597282124
 20
392.9404958568097186
 30
0.0
 11
2514.0622608597282124
 21
393.0208108194178749
 31
0.0
  0
LINE
  5
14D34
  8
0
 10
2514.0498734288289597
 20
393.0208108194178749
 30
0.0
 11
2514.0498734288289597
 21
392.9404958568097186
 31
0.0
  0
LINE
  5
14D35
  8
0
 10
2514.0432815912281512
 20
392.9404958568097186
 30
0.0
 11
2514.0432815912281512
 21
393.0208108194178749
 31
0.0
  0
LINE
  5
14D36
  8
0
 10
2514.0423829693290827
 20
393.0208108194178749
 30
0.0
 11
2514.0423829693290827
 21
392.9404958568097186
 31
0.0
  0
LINE
  5
14D37
  8
0
 10
2514.0300529042278868
 20
393.0208108194178749
 30
0.0
 11
2514.0300529042278868
 21
392.9404958568097186
 31
0.0
  0
LINE
  5
14D38
  8
0
 10
2514.0237747894288987
 20
392.9404958568097186
 30
0.0
 11
2514.0237747894288987
 21
393.0208108194178749
 31
0.0
  0
LINE
  5
14D39
  8
0
 10
2514.0225642702289406
 20
392.9404958568097186
 30
0.0
 11
2514.0225642702289406
 21
393.0208108194178749
 31
0.0
  0
LINE
  5
14D3A
  8
0
 10
2514.0105555623281361
 20
393.0208108194178749
 30
0.0
 11
2514.0105555623281361
 21
392.9404958568097186
 31
0.0
  0
LINE
  5
14D3B
  8
0
 10
2514.0046083781280686
 20
392.9404958568097186
 30
0.0
 11
2514.0046083781280686
 21
393.0208108194178749
 31
0.0
  0
LINE
  5
14D3C
  8
0
 10
2514.0032045353282228
 20
392.9404958568097186
 30
0.0
 11
2514.0032045353282228
 21
393.0208108194178749
 31
0.0
  0
LINE
  5
14D3D
  8
0
 10
2513.9914348439288005
 20
393.0208108194178749
 30
0.0
 11
2513.9914348439288005
 21
392.9404958568097186
 31
0.0
  0
LINE
  5
14D3E
  8
0
 10
2513.9858348911288886
 20
392.9404958568097186
 30
0.0
 11
2513.9858348911288886
 21
393.0208108194178749
 31
0.0
  0
LINE
  5
14D3F
  8
0
 10
2513.9842415726288891
 20
392.9404958568097186
 30
0.0
 11
2513.9842415726288891
 21
393.0208108194178749
 31
0.0
  0
LINE
  5
14D40
  8
0
 10
2513.9727431576288836
 20
393.0208108194178749
 30
0.0
 11
2513.9727431576288836
 21
392.9404958568097186
 31
0.0
  0
LINE
  5
14D41
  8
0
 10
2513.9675057853278304
 20
392.9404958568097186
 30
0.0
 11
2513.9675057853278304
 21
393.0208108194178749
 31
0.0
  0
LINE
  5
14D42
  8
0
 10
2513.9657273582279231
 20
392.9404958568097186
 30
0.0
 11
2513.9657273582279231
 21
393.0208108194178749
 31
0.0
  0
LINE
  5
14D43
  8
0
 10
2513.9545317360280023
 20
393.0208108194178749
 30
0.0
 11
2513.9545317360289118
 21
392.9404958568097186
 31
0.0
  0
LINE
  5
14D44
  8
0
 10
2513.9496712995278358
 20
392.9404958568097186
 30
0.0
 11
2513.9496712995278358
 21
393.0208108194178749
 31
0.0
  0
LINE
  5
14D45
  8
0
 10
2513.9477126383280847
 20
392.9404958568097186
 30
0.0
 11
2513.9477126383280847
 21
393.0208108194178749
 31
0.0
  0
LINE
  5
14D46
  8
0
 10
2513.936850495329054
 20
393.0208108194178749
 30
0.0
 11
2513.936850495329054
 21
392.9404958568097186
 31
0.0
  0
LINE
  5
14D47
  8
0
 10
2513.9323803167280857
 20
392.9404958568097186
 30
0.0
 11
2513.9323803167280857
 21
393.0208108194178749
 31
0.0
  0
LINE
  5
14D48
  8
0
 10
2513.930246790028832
 20
392.9404958568097186
 30
0.0
 11
2513.930246790028832
 21
393.0208108194178749
 31
0.0
  0
LINE
  5
14D49
  8
0
 10
2513.9197478986279748
 20
393.0208108194178749
 30
0.0
 11
2513.9197478986288843
 21
392.9404958568097186
 31
0.0
  0
LINE
  5
14D4A
  8
0
 10
2513.91568023032778
 20
392.9404958568097186
 30
0.0
 11
2513.91568023032778
 21
393.0208108194178749
 31
0.0
  0
LINE
  5
14D4B
  8
0
 10
2513.9133776860280705
 20
392.9404958568097186
 30
0.0
 11
2513.9133776860280705
 21
393.0208108194178749
 31
0.0
  0
LINE
  5
14D4C
  8
0
 10
2513.9032708229278796
 20
393.0208108194178749
 30
0.0
 11
2513.9032708229278796
 21
392.9404958568097186
 31
0.0
  0
LINE
  5
14D4D
  8
0
 10
2513.8996168141288763
 20
392.9404958568097186
 30
0.0
 11
2513.8996168141288763
 21
393.0208108194178749
 31
0.0
  0
LINE
  5
14D4E
  8
0
 10
2513.8971515633288618
 20
392.9404958568097186
 30
0.0
 11
2513.8971515633288618
 21
393.0208108194178749
 31
0.0
  0
LINE
  5
14D4F
  8
0
 10
2513.887464430728869
 20
393.0208108194178749
 30
0.0
 11
2513.887464430728869
 21
392.9404958568097186
 31
0.0
  0
LINE
  5
14D50
  8
0
 10
2513.8842340969281395
 20
392.9404958568097186
 30
0.0
 11
2513.8842340969281395
 21
393.0208108194178749
 31
0.0
  0
LINE
  5
14D51
  8
0
 10
2513.8816128966291217
 20
392.9404958568097186
 30
0.0
 11
2513.8816128966291217
 21
393.0208108194178749
 31
0.0
  0
LINE
  5
14D52
  8
0
 10
2513.8723720463281097
 20
393.0208108194178749
 30
0.0
 11
2513.8723720463281097
 21
392.9404958568097186
 31
0.0
  0
LINE
  5
14D53
  8
0
 10
2513.8695742415288805
 20
392.9404958568097186
 30
0.0
 11
2513.8695742415288805
 21
393.0208108194178749
 31
0.0
  0
LINE
  5
14D54
  8
0
 10
2513.8668042763288213
 20
392.9404958568097186
 30
0.0
 11
2513.8668042763288213
 21
393.0208108194178749
 31
0.0
  0
LINE
  5
14D55
  8
0
 10
2513.8580350368279142
 20
393.0208108194178749
 30
0.0
 11
2513.8580350368279142
 21
392.9404958568097186
 31
0.0
  0
LINE
  5
14D56
  8
0
 10
2513.8556774297280754
 20
392.9404958568097186
 30
0.0
 11
2513.8556774297280754
 21
393.0208108194178749
 31
0.0
  0
LINE
  5
14D57
  8
0
 10
2513.8527662919282193
 20
392.9404958568097186
 30
0.0
 11
2513.8527662919282193
 21
393.0208108194178749
 31
0.0
  0
LINE
  5
14D58
  8
0
 10
2513.844492712389183
 20
393.0208108194178749
 30
0.0
 11
2513.844492712389183
 21
392.9404958568097186
 31
0.0
  0
LINE
  5
14D59
  8
0
 10
2513.8425817648890188
 20
392.9404958568097186
 30
0.0
 11
2513.8425817648890188
 21
393.0208108194178749
 31
0.0
  0
LINE
  5
14D5A
  8
0
 10
2513.8395374203291794
 20
392.9404958568097186
 30
0.0
 11
2513.8395374203291794
 21
393.0208108194178749
 31
0.0
  0
LINE
  5
14D5B
  8
0
 10
2513.8317821647888195
 20
392.9404958568097186
 30
0.0
 11
2513.8317821647888195
 21
393.0208108194178749
 31
0.0
  0
LINE
  5
14D5C
  8
0
 10
2513.8303231148888699
 20
392.9404958568097186
 30
0.0
 11
2513.8303231148888699
 21
393.0208108194178749
 31
0.0
  0
LINE
  5
14D5D
  8
0
 10
2513.8271539344891607
 20
392.9404958568097186
 30
0.0
 11
2513.8271539344891607
 21
393.0208108194178749
 31
0.0
  0
LINE
  5
14D5E
  8
0
 10
2513.8199382462889844
 20
392.9404958568097186
 30
0.0
 11
2513.8199382462889844
 21
393.0208108194178749
 31
0.0
  0
LINE
  5
14D5F
  8
0
 10
2513.8189350928892054
 20
392.9404958568097186
 30
0.0
 11
2513.8189350928892054
 21
393.0208108194178749
 31
0.0
  0
LINE
  5
14D60
  8
0
 10
2513.815649749989916
 20
392.9404958568097186
 30
0.0
 11
2513.815649749989916
 21
393.0208108194178749
 31
0.0
  0
LINE
  5
14D61
  8
0
 10
2513.8089934201898359
 20
392.9404958568097186
 30
0.0
 11
2513.8089934201898359
 21
393.0208108194178749
 31
0.0
  0
LINE
  5
14D62
  8
0
 10
2513.8084489129892063
 20
392.9404958568097186
 30
0.0
 11
2513.8084489129892063
 21
393.0208108194178749
 31
0.0
  0
LINE
  5
14D63
  8
0
 10
2513.8051152104899302
 20
392.9404958568097186
 30
0.0
 11
2513.8051152104899302
 21
393.0208108194178749
 31
0.0
  0
LINE
  5
14D64
  8
0
 10
2513.7989776853892181
 20
392.9404958568097186
 30
0.0
 11
2513.7989776853892181
 21
393.0208108194178749
 31
0.0
  0
LINE
  5
14D65
  8
0
 10
2513.7954029570892089
 20
392.9404958568097186
 30
0.0
 11
2513.7954029570892089
 21
393.0208108194178749
 31
0.0
  0
LINE
  5
14D66
  8
0
 10
2513.7899184944899389
 20
392.9404958568097186
 30
0.0
 11
2513.7899184944899389
 21
393.0208108194178749
 31
0.0
  0
LINE
  5
14D67
  8
0
 10
2513.7867158436902173
 20
392.9404958568097186
 30
0.0
 11
2513.7867158436902173
 21
393.0208108194178749
 31
0.0
  0
LINE
  5
14D68
  8
0
 10
2513.781840677890159
 20
392.9404958568097186
 30
0.0
 11
2513.781840677890159
 21
393.0208108194178749
 31
0.0
  0
LINE
  5
14D69
  8
0
 10
2513.7790188829899307
 20
392.9404958568097186
 30
0.0
 11
2513.7790188829899307
 21
393.0208108194178749
 31
0.0
  0
LINE
  5
14D6A
  8
0
 10
2513.7747663764889694
 20
392.9404958568097186
 30
0.0
 11
2513.7747663764889694
 21
393.0208108194178749
 31
0.0
  0
LINE
  5
14D6B
  8
0
 10
2513.7723331717897963
 20
392.9404958568097186
 30
0.0
 11
2513.7723331717897963
 21
393.0208108194178749
 31
0.0
  0
LINE
  5
14D6C
  8
0
 10
2513.768714980490131
 20
392.9404958568097186
 30
0.0
 11
2513.768714980490131
 21
393.0208108194178749
 31
0.0
  0
LINE
  5
14D6D
  8
0
 10
2513.7666770351897867
 20
392.9404958568097186
 30
0.0
 11
2513.7666770351897867
 21
393.0208108194178749
 31
0.0
  0
LINE
  5
14D6E
  8
0
 10
2513.7637030761898131
 20
392.9404958568097186
 30
0.0
 11
2513.7637030761898131
 21
393.0208108194178749
 31
0.0
  0
LINE
  5
14D6F
  8
0
 10
2513.7620659761901152
 20
392.9404958568097186
 30
0.0
 11
2513.7620659761901152
 21
393.0208108194178749
 31
0.0
  0
LINE
  5
14D70
  8
0
 10
2513.7597444009898027
 20
392.9404958568097186
 30
0.0
 11
2513.7597444009898027
 21
393.0208108194178749
 31
0.0
  0
LINE
  5
14D71
  8
0
 10
2513.758512633490227
 20
392.9404958568097186
 30
0.0
 11
2513.758512633490227
 21
393.0208108194178749
 31
0.0
  0
LINE
  5
14D72
  8
0
 10
2513.7568498051891765
 20
392.9404958568097186
 30
0.0
 11
2513.7568498051891765
 21
393.0208108194178749
 31
0.0
  0
LINE
  5
14D73
  8
0
 10
2513.7560267464891695
 20
392.9404958568097186
 30
0.0
 11
2513.7560267464891695
 21
393.0208108194178749
 31
0.0
  0
LINE
  5
14D74
  8
0
 10
2513.7550272228891117
 20
392.9404958568097186
 30
0.0
 11
2513.7550272228891117
 21
393.0208108194178749
 31
0.0
  0
LINE
  5
14D75
  8
0
 10
2513.7546151287888279
 20
392.9404958568097186
 30
0.0
 11
2513.7546151287888279
 21
393.0208108194178749
 31
0.0
  0
LINE
  5
14D76
  8
0
 10
2513.7542816495888474
 20
392.9404958568097186
 30
0.0
 11
2513.7542816495888474
 21
393.0208108194178749
 31
0.0
  0
LINE
  5
14D77
  8
0
 10
2514.4826082514891823
 20
392.9404958568097186
 30
0.0
 11
2514.4826082514891823
 21
392.9211100320179071
 31
0.0
  0
LINE
  5
14D78
  8
0
 10
2513.8133172514899343
 20
392.9211100320179071
 30
0.0
 11
2513.8133172514899343
 21
392.9404958568097186
 31
0.0
  0
LINE
  5
14D79
  8
0
 10
2493.222765901089133
 20
421.1110688470150194
 30
0.0
 11
2492.2191461967208852
 21
421.111065102430473
 31
0.0
  0
LINE
  5
14D7A
  8
0
 10
2493.222765901089133
 20
421.8984670399178754
 30
0.0
 11
2492.2191123578891165
 21
421.8984670399178754
 31
0.0
  0
ARC
  5
14D7B
  8
0
 10
2492.2191123178349699
 20
421.8784670799719265
 30
0.0
 40
0.0199999599460529
 50
89.9998852535566982
 51
180.0001147464498104
  0
ARC
  5
14D7C
  8
0
 10
2492.2191130245601016
 20
421.1310657415937726
 30
0.0
 40
0.0200006666722525
 50
180.0007920189690083
 51
270.0950281186180177
  0
LINE
  5
14D7D
  8
0
 10
2494.561348408989943
 20
392.9211100320179071
 30
0.0
 11
2493.8920574089897855
 21
392.9211100320179071
 31
0.0
  0
LINE
  5
14D7E
  8
0
 10
2513.8133172514899343
 20
392.9211100320179071
 30
0.0
 11
2514.4826082514891823
 21
392.9211100320179071
 31
0.0
  0
LINE
  5
14D7F
  8
0
 10
2493.222765901089133
 20
412.2530994809180243
 30
0.0
 11
2492.2191438538898183
 21
412.2530994809180243
 31
0.0
  0
ARC
  5
14D80
  8
0
 10
2492.2191438538898183
 20
412.2330994809178719
 30
0.0
 40
0.0199999999999978
 50
90.0
 51
180.0
  0
LINE
  5
14D81
  8
0
 10
2503.4393013342892118
 20
397.5085116068178763
 30
0.0
 11
2503.4393013342892118
 21
393.2962045203178718
 31
0.0
  0
LINE
  5
14D82
  8
0
 10
2503.4393013342892118
 20
393.2962045203178718
 30
0.0
 11
2503.5183013342898448
 21
393.2172045203179778
 31
0.0
  0
LINE
  5
14D83
  8
0
 10
2503.5183013342898448
 20
393.2172045203179778
 30
0.0
 11
2504.8563643263901213
 21
393.2172045203179778
 31
0.0
  0
LINE
  5
14D84
  8
0
 10
2504.8563643263901213
 20
393.2172045203179778
 30
0.0
 11
2504.9353643263898448
 21
393.2962045203178718
 31
0.0
  0
LINE
  5
14D85
  8
0
 10
2504.9353643263898448
 20
393.2962045203178718
 30
0.0
 11
2504.9353643263898448
 21
397.5085116068178763
 31
0.0
  0
LINE
  5
14D86
  8
0
 10
2503.4393013342892118
 20
393.2962045203178718
 30
0.0
 11
2504.9353643263898448
 21
393.2962045203178718
 31
0.0
  0
LINE
  5
14D87
  8
0
 10
2504.5810139187278764
 20
393.157849738809773
 30
0.0
 11
2503.7936517283887952
 21
393.157849738809773
 31
0.0
  0
LINE
  5
14D88
  8
0
 10
2504.5810139187278764
 20
393.157849738809773
 30
0.0
 11
2504.5810139187278764
 21
393.2172045203179778
 31
0.0
  0
LINE
  5
14D89
  8
0
 10
2504.5806804395278959
 20
393.2172045203179778
 30
0.0
 11
2504.5806804395278959
 21
393.157849738809773
 31
0.0
  0
LINE
  5
14D8A
  8
0
 10
2504.5802683454280668
 20
393.157849738809773
 30
0.0
 11
2504.5802683454280668
 21
393.2172045203179778
 31
0.0
  0
LINE
  5
14D8B
  8
0
 10
2504.5792688218280091
 20
393.2172045203179778
 30
0.0
 11
2504.5792688218280091
 21
393.157849738809773
 31
0.0
  0
LINE
  5
14D8C
  8
0
 10
2504.578445763128002
 20
393.157849738809773
 30
0.0
 11
2504.578445763128002
 21
393.2172045203179778
 31
0.0
  0
LINE
  5
14D8D
  8
0
 10
2504.576782934827861
 20
393.2172045203179778
 30
0.0
 11
2504.576782934827861
 21
393.157849738809773
 31
0.0
  0
LINE
  5
14D8E
  8
0
 10
2504.575551167427875
 20
393.157849738809773
 30
0.0
 11
2504.575551167427875
 21
393.2172045203179778
 31
0.0
  0
LINE
  5
14D8F
  8
0
 10
2504.5732295921279729
 20
393.2172045203179778
 30
0.0
 11
2504.5732295921279729
 21
393.157849738809773
 31
0.0
  0
LINE
  5
14D90
  8
0
 10
2504.5715924921278202
 20
393.157849738809773
 30
0.0
 11
2504.5715924921278202
 21
393.2172045203179778
 31
0.0
  0
LINE
  5
14D91
  8
0
 10
2504.5686185331278466
 20
393.2172045203179778
 30
0.0
 11
2504.5686185331278466
 21
393.157849738809773
 31
0.0
  0
LINE
  5
14D92
  8
0
 10
2504.5666126903279292
 20
393.2172045203179778
 30
0.0
 11
2504.5666126903279292
 21
393.157849738809773
 31
0.0
  0
LINE
  5
14D93
  8
0
 10
2504.562962396527837
 20
393.2172045203179778
 30
0.0
 11
2504.562962396527837
 21
393.157849738809773
 31
0.0
  0
LINE
  5
14D94
  8
0
 10
2504.5605291918282092
 20
393.157849738809773
 30
0.0
 11
2504.5605291918282092
 21
393.2172045203179778
 31
0.0
  0
LINE
  5
14D95
  8
0
 10
2504.5562766853281573
 20
393.2172045203179778
 30
0.0
 11
2504.5562766853281573
 21
393.157849738809773
 31
0.0
  0
LINE
  5
14D96
  8
0
 10
2504.5534548904279291
 20
393.157849738809773
 30
0.0
 11
2504.5534548904279291
 21
393.2172045203179778
 31
0.0
  0
LINE
  5
14D97
  8
0
 10
2504.5485797246278707
 20
393.2172045203179778
 30
0.0
 11
2504.5485797246278707
 21
393.157849738809773
 31
0.0
  0
LINE
  5
14D98
  8
0
 10
2504.5453770739281936
 20
393.157849738809773
 30
0.0
 11
2504.5453770739281936
 21
393.2172045203179778
 31
0.0
  0
LINE
  5
14D99
  8
0
 10
2504.539892611328014
 20
393.2172045203179778
 30
0.0
 11
2504.539892611328014
 21
393.157849738809773
 31
0.0
  0
LINE
  5
14D9A
  8
0
 10
2504.5363178829279605
 20
393.157849738809773
 30
0.0
 11
2504.5363178829279605
 21
393.2172045203179778
 31
0.0
  0
LINE
  5
14D9B
  8
0
 10
2504.5302391560280739
 20
393.2172045203179778
 30
0.0
 11
2504.5302391560280739
 21
393.157849738809773
 31
0.0
  0
LINE
  5
14D9C
  8
0
 10
2504.5268466554280167
 20
393.157849738809773
 30
0.0
 11
2504.5268466554280167
 21
393.2172045203179778
 31
0.0
  0
LINE
  5
14D9D
  8
0
 10
2504.5263021481277974
 20
393.157849738809773
 30
0.0
 11
2504.5263021481277974
 21
393.2172045203179778
 31
0.0
  0
LINE
  5
14D9E
  8
0
 10
2504.5196458183290815
 20
393.2172045203179778
 30
0.0
 11
2504.5196458183290815
 21
393.157849738809773
 31
0.0
  0
LINE
  5
14D9F
  8
0
 10
2504.5163604754279731
 20
393.157849738809773
 30
0.0
 11
2504.5163604754279731
 21
393.2172045203179778
 31
0.0
  0
LINE
  5
14DA0
  8
0
 10
2504.5153573220281942
 20
393.157849738809773
 30
0.0
 11
2504.5153573220281942
 21
393.2172045203179778
 31
0.0
  0
LINE
  5
14DA1
  8
0
 10
2504.5081416338280178
 20
393.2172045203179778
 30
0.0
 11
2504.5081416338280178
 21
393.157849738809773
 31
0.0
  0
LINE
  5
14DA2
  8
0
 10
2504.5049724535278983
 20
393.157849738809773
 30
0.0
 11
2504.5049724535278983
 21
393.2172045203179778
 31
0.0
  0
LINE
  5
14DA3
  8
0
 10
2504.5035134035279043
 20
393.157849738809773
 30
0.0
 11
2504.5035134035279043
 21
393.2172045203179778
 31
0.0
  0
LINE
  5
14DA4
  8
0
 10
2504.4957581346279767
 20
393.2172045203179778
 30
0.0
 11
2504.4957581346279767
 21
393.157849738809773
 31
0.0
  0
LINE
  5
14DA5
  8
0
 10
2504.4927138034281597
 20
393.157849738809773
 30
0.0
 11
2504.4927138034281597
 21
393.2172045203179778
 31
0.0
  0
LINE
  5
14DA6
  8
0
 10
2504.49080285602804
 20
393.157849738809773
 30
0.0
 11
2504.49080285602804
 21
393.2172045203179778
 31
0.0
  0
LINE
  5
14DA7
  8
0
 10
2504.4825292631280718
 20
393.2172045203179778
 30
0.0
 11
2504.4825292631280718
 21
393.157849738809773
 31
0.0
  0
LINE
  5
14DA8
  8
0
 10
2504.4796181252281713
 20
393.157849738809773
 30
0.0
 11
2504.4796181252281713
 21
393.2172045203179778
 31
0.0
  0
LINE
  5
14DA9
  8
0
 10
2504.4772605181278777
 20
393.157849738809773
 30
0.0
 11
2504.4772605181278777
 21
393.2172045203179778
 31
0.0
  0
LINE
  5
14DAA
  8
0
 10
2504.4684912786278801
 20
393.2172045203179778
 30
0.0
 11
2504.4684912786278801
 21
393.157849738809773
 31
0.0
  0
LINE
  5
14DAB
  8
0
 10
2504.4657213134278209
 20
393.157849738809773
 30
0.0
 11
2504.4657213134278209
 21
393.2172045203179778
 31
0.0
  0
LINE
  5
14DAC
  8
0
 10
2504.4629235087281813
 20
393.157849738809773
 30
0.0
 11
2504.4629235087281813
 21
393.2172045203179778
 31
0.0
  0
LINE
  5
14DAD
  8
0
 10
2504.4536826583280344
 20
393.2172045203179778
 30
0.0
 11
2504.4536826583280344
 21
393.157849738809773
 31
0.0
  0
LINE
  5
14DAE
  8
0
 10
2504.4510614580281072
 20
393.157849738809773
 30
0.0
 11
2504.4510614580281072
 21
393.2172045203179778
 31
0.0
  0
LINE
  5
14DAF
  8
0
 10
2504.4478311242278323
 20
393.157849738809773
 30
0.0
 11
2504.4478311242278323
 21
393.2172045203179778
 31
0.0
  0
LINE
  5
14DB0
  8
0
 10
2504.4381439916278396
 20
393.2172045203179778
 30
0.0
 11
2504.4381439916278396
 21
393.157849738809773
 31
0.0
  0
LINE
  5
14DB1
  8
0
 10
2504.4356787408278251
 20
393.157849738809773
 30
0.0
 11
2504.4356787408278251
 21
393.2172045203179778
 31
0.0
  0
LINE
  5
14DB2
  8
0
 10
2504.4320247321279567
 20
393.157849738809773
 30
0.0
 11
2504.4320247321279567
 21
393.2172045203179778
 31
0.0
  0
LINE
  5
14DB3
  8
0
 10
2504.4219178689281762
 20
393.2172045203179778
 30
0.0
 11
2504.4219178689281762
 21
393.157849738809773
 31
0.0
  0
LINE
  5
14DB4
  8
0
 10
2504.4196153246280119
 20
393.157849738809773
 30
0.0
 11
2504.4196153246280119
 21
393.2172045203179778
 31
0.0
  0
LINE
  5
14DB5
  8
0
 10
2504.4155476564278615
 20
393.157849738809773
 30
0.0
 11
2504.4155476564278615
 21
393.2172045203179778
 31
0.0
  0
LINE
  5
14DB6
  8
0
 10
2504.4050487649278693
 20
393.2172045203179778
 30
0.0
 11
2504.4050487649278693
 21
393.157849738809773
 31
0.0
  0
LINE
  5
14DB7
  8
0
 10
2504.4029152383282053
 20
393.157849738809773
 30
0.0
 11
2504.4029152383282053
 21
393.2172045203179778
 31
0.0
  0
LINE
  5
14DB8
  8
0
 10
2504.3984450597281466
 20
393.157849738809773
 30
0.0
 11
2504.3984450597281466
 21
393.2172045203179778
 31
0.0
  0
LINE
  5
14DB9
  8
0
 10
2504.3875829166281619
 20
393.2172045203179778
 30
0.0
 11
2504.3875829166281619
 21
393.157849738809773
 31
0.0
  0
LINE
  5
14DBA
  8
0
 10
2504.3856242555280005
 20
393.157849738809773
 30
0.0
 11
2504.3856242555280005
 21
393.2172045203179778
 31
0.0
  0
LINE
  5
14DBB
  8
0
 10
2504.3808680169281615
 20
393.2172045203179778
 30
0.0
 11
2504.3808680169281615
 21
393.157849738809773
 31
0.0
  0
LINE
  5
14DBC
  8
0
 10
2504.3695681967278688
 20
393.2172045203179778
 30
0.0
 11
2504.3695681967278688
 21
393.157849738809773
 31
0.0
  0
LINE
  5
14DBD
  8
0
 10
2504.3677897696279615
 20
393.157849738809773
 30
0.0
 11
2504.3677897696279615
 21
393.2172045203179778
 31
0.0
  0
LINE
  5
14DBE
  8
0
 10
2504.3625523973278177
 20
393.157849738809773
 30
0.0
 11
2504.3625523973278177
 21
393.2172045203179778
 31
0.0
  0
LINE
  5
14DBF
  8
0
 10
2504.3510539823278123
 20
393.2172045203179778
 30
0.0
 11
2504.3510539823278123
 21
393.157849738809773
 31
0.0
  0
LINE
  5
14DC0
  8
0
 10
2504.3494606638278128
 20
393.157849738809773
 30
0.0
 11
2504.3494606638278128
 21
393.2172045203179778
 31
0.0
  0
LINE
  5
14DC1
  8
0
 10
2504.3438607110279008
 20
393.157849738809773
 30
0.0
 11
2504.3438607110279008
 21
393.2172045203179778
 31
0.0
  0
LINE
  5
14DC2
  8
0
 10
2504.3320910196280238
 20
393.2172045203179778
 30
0.0
 11
2504.3320910196280238
 21
393.157849738809773
 31
0.0
  0
LINE
  5
14DC3
  8
0
 10
2504.3306871768290875
 20
393.157849738809773
 30
0.0
 11
2504.3306871768290875
 21
393.2172045203179778
 31
0.0
  0
LINE
  5
14DC4
  8
0
 10
2504.3247399926281105
 20
393.157849738809773
 30
0.0
 11
2504.3247399926281105
 21
393.2172045203179778
 31
0.0
  0
LINE
  5
14DC5
  8
0
 10
2504.3127312847282155
 20
393.2172045203179778
 30
0.0
 11
2504.3127312847282155
 21
393.157849738809773
 31
0.0
  0
LINE
  5
14DC6
  8
0
 10
2504.3115207655278027
 20
393.157849738809773
 30
0.0
 11
2504.3115207655278027
 21
393.2172045203179778
 31
0.0
  0
LINE
  5
14DC7
  8
0
 10
2504.3052426507279051
 20
393.157849738809773
 30
0.0
 11
2504.3052426507279051
 21
393.2172045203179778
 31
0.0
  0
LINE
  5
14DC8
  8
0
 10
2504.2930278413277847
 20
393.2172045203179778
 30
0.0
 11
2504.2930278413277847
 21
393.157849738809773
 31
0.0
  0
LINE
  5
14DC9
  8
0
 10
2504.2920139637280954
 20
393.157849738809773
 30
0.0
 11
2504.2920139637280954
 21
393.2172045203179778
 31
0.0
  0
LINE
  5
14DCA
  8
0
 10
2504.2854221261291059
 20
393.157849738809773
 30
0.0
 11
2504.2854221261291059
 21
393.2172045203179778
 31
0.0
  0
LINE
  5
14DCB
  8
0
 10
2504.2730346952280343
 20
393.2172045203179778
 30
0.0
 11
2504.2730346952280343
 21
393.157849738809773
 31
0.0
  0
LINE
  5
14DCC
  8
0
 10
2504.2722202381278294
 20
393.157849738809773
 30
0.0
 11
2504.2722202381278294
 21
393.2172045203179778
 31
0.0
  0
LINE
  5
14DCD
  8
0
 10
2504.2653327456291663
 20
393.157849738809773
 30
0.0
 11
2504.2653327456291663
 21
393.2172045203179778
 31
0.0
  0
LINE
  5
14DCE
  8
0
 10
2504.252806646227782
 20
393.2172045203179778
 30
0.0
 11
2504.252806646227782
 21
393.157849738809773
 31
0.0
  0
LINE
  5
14DCF
  8
0
 10
2504.2521938420281913
 20
393.157849738809773
 30
0.0
 11
2504.2521938420281913
 21
393.2172045203179778
 31
0.0
  0
LINE
  5
14DD0
  8
0
 10
2504.2450295727280718
 20
393.157849738809773
 30
0.0
 11
2504.2450295727280718
 21
393.2172045203179778
 31
0.0
  0
LINE
  5
14DD1
  8
0
 10
2504.2323991380280859
 20
393.2172045203179778
 30
0.0
 11
2504.2323991380280859
 21
393.157849738809773
 31
0.0
  0
LINE
  5
14DD2
  8
0
 10
2504.2319896663279906
 20
393.157849738809773
 30
0.0
 11
2504.2319896663279906
 21
393.2172045203179778
 31
0.0
  0
LINE
  5
14DD3
  8
0
 10
2504.224568256927796
 20
393.157849738809773
 30
0.0
 11
2504.224568256927796
 21
393.2172045203179778
 31
0.0
  0
LINE
  5
14DD4
  8
0
 10
2504.2118681061278949
 20
393.2172045203179778
 30
0.0
 11
2504.2118681061278949
 21
393.157849738809773
 31
0.0
  0
LINE
  5
14DD5
  8
0
 10
2504.2040048814278634
 20
393.157849738809773
 30
0.0
 11
2504.2040048814278634
 21
393.2172045203179778
 31
0.0
  0
LINE
  5
14DD6
  8
0
 10
2504.1912698247278968
 20
393.2172045203179778
 30
0.0
 11
2504.1912698247278968
 21
393.157849738809773
 31
0.0
  0
LINE
  5
14DD7
  8
0
 10
2504.1833958090278429
 20
393.157849738809773
 30
0.0
 11
2504.1833958090278429
 21
393.2172045203179778
 31
0.0
  0
LINE
  5
14DD8
  8
0
 10
2504.1706607523278763
 20
393.2172045203179778
 30
0.0
 11
2504.1706607523278763
 21
393.157849738809773
 31
0.0
  0
LINE
  5
14DD9
  8
0
 10
2504.1627975276278448
 20
393.157849738809773
 30
0.0
 11
2504.1627975276278448
 21
393.2172045203179778
 31
0.0
  0
LINE
  5
14DDA
  8
0
 10
2504.1500973768279437
 20
393.2172045203179778
 30
0.0
 11
2504.1500973768279437
 21
393.157849738809773
 31
0.0
  0
LINE
  5
14DDB
  8
0
 10
2504.1426759674291134
 20
393.157849738809773
 30
0.0
 11
2504.1426759674291134
 21
393.2172045203179778
 31
0.0
  0
LINE
  5
14DDC
  8
0
 10
2504.1422664957281086
 20
393.157849738809773
 30
0.0
 11
2504.1422664957281086
 21
393.2172045203179778
 31
0.0
  0
LINE
  5
14DDD
  8
0
 10
2504.1296360611281671
 20
393.2172045203179778
 30
0.0
 11
2504.1296360611281671
 21
393.157849738809773
 31
0.0
  0
LINE
  5
14DDE
  8
0
 10
2504.1224717917280032
 20
393.157849738809773
 30
0.0
 11
2504.1224717917280032
 21
393.2172045203179778
 31
0.0
  0
LINE
  5
14DDF
  8
0
 10
2504.1218589875279577
 20
393.157849738809773
 30
0.0
 11
2504.1218589875279577
 21
393.2172045203179778
 31
0.0
  0
LINE
  5
14DE0
  8
0
 10
2504.1093328881279376
 20
393.2172045203179778
 30
0.0
 11
2504.1093328881279376
 21
393.157849738809773
 31
0.0
  0
LINE
  5
14DE1
  8
0
 10
2504.1024453956279103
 20
393.157849738809773
 30
0.0
 11
2504.1024453956279103
 21
393.2172045203179778
 31
0.0
  0
LINE
  5
14DE2
  8
0
 10
2504.1016309385281602
 20
393.157849738809773
 30
0.0
 11
2504.1016309385281602
 21
393.2172045203179778
 31
0.0
  0
LINE
  5
14DE3
  8
0
 10
2504.089243507627998
 20
393.2172045203179778
 30
0.0
 11
2504.089243507627998
 21
393.157849738809773
 31
0.0
  0
LINE
  5
14DE4
  8
0
 10
2504.082651670028099
 20
393.157849738809773
 30
0.0
 11
2504.082651670028099
 21
393.2172045203179778
 31
0.0
  0
LINE
  5
14DE5
  8
0
 10
2504.081753048128121
 20
393.2172045203179778
 30
0.0
 11
2504.081753048128121
 21
393.157849738809773
 31
0.0
  0
LINE
  5
14DE6
  8
0
 10
2504.0694229830278346
 20
393.2172045203179778
 30
0.0
 11
2504.0694229830278346
 21
393.157849738809773
 31
0.0
  0
LINE
  5
14DE7
  8
0
 10
2504.063144868227937
 20
393.157849738809773
 30
0.0
 11
2504.063144868227937
 21
393.2172045203179778
 31
0.0
  0
LINE
  5
14DE8
  8
0
 10
2504.0619343490279789
 20
393.157849738809773
 30
0.0
 11
2504.0619343490279789
 21
393.2172045203179778
 31
0.0
  0
LINE
  5
14DE9
  8
0
 10
2504.049925641128084
 20
393.2172045203179778
 30
0.0
 11
2504.049925641128084
 21
393.157849738809773
 31
0.0
  0
LINE
  5
14DEA
  8
0
 10
2504.0439784569280164
 20
393.157849738809773
 30
0.0
 11
2504.0439784569280164
 21
393.2172045203179778
 31
0.0
  0
LINE
  5
14DEB
  8
0
 10
2504.0425746141281707
 20
393.157849738809773
 30
0.0
 11
2504.0425746141281707
 21
393.2172045203179778
 31
0.0
  0
LINE
  5
14DEC
  8
0
 10
2504.0308049227278389
 20
393.2172045203179778
 30
0.0
 11
2504.0308049227278389
 21
393.157849738809773
 31
0.0
  0
LINE
  5
14DED
  8
0
 10
2504.0252049699279269
 20
393.157849738809773
 30
0.0
 11
2504.0252049699279269
 21
393.2172045203179778
 31
0.0
  0
LINE
  5
14DEE
  8
0
 10
2504.0236116514279274
 20
393.157849738809773
 30
0.0
 11
2504.0236116514279274
 21
393.2172045203179778
 31
0.0
  0
LINE
  5
14DEF
  8
0
 10
2504.0121132364279219
 20
393.2172045203179778
 30
0.0
 11
2504.0121132364279219
 21
393.157849738809773
 31
0.0
  0
LINE
  5
14DF0
  8
0
 10
2504.0068758641277782
 20
393.157849738809773
 30
0.0
 11
2504.0068758641277782
 21
393.2172045203179778
 31
0.0
  0
LINE
  5
14DF1
  8
0
 10
2504.0050974370278709
 20
393.157849738809773
 30
0.0
 11
2504.0050974370278709
 21
393.2172045203179778
 31
0.0
  0
LINE
  5
14DF2
  8
0
 10
2503.9939018148279501
 20
393.2172045203179778
 30
0.0
 11
2503.9939018148279501
 21
393.157849738809773
 31
0.0
  0
LINE
  5
14DF3
  8
0
 10
2503.9890413783291478
 20
393.157849738809773
 30
0.0
 11
2503.9890413783291478
 21
393.2172045203179778
 31
0.0
  0
LINE
  5
14DF4
  8
0
 10
2503.9870827171280325
 20
393.157849738809773
 30
0.0
 11
2503.9870827171280325
 21
393.2172045203179778
 31
0.0
  0
LINE
  5
14DF5
  8
0
 10
2503.9762205741280923
 20
393.2172045203179778
 30
0.0
 11
2503.9762205741280923
 21
393.157849738809773
 31
0.0
  0
LINE
  5
14DF6
  8
0
 10
2503.9717503955280336
 20
393.157849738809773
 30
0.0
 11
2503.9717503955280336
 21
393.2172045203179778
 31
0.0
  0
LINE
  5
14DF7
  8
0
 10
2503.9696168688278703
 20
393.157849738809773
 30
0.0
 11
2503.9696168688278703
 21
393.2172045203179778
 31
0.0
  0
LINE
  5
14DF8
  8
0
 10
2503.9591179774279226
 20
393.2172045203179778
 30
0.0
 11
2503.9591179774279226
 21
393.157849738809773
 31
0.0
  0
LINE
  5
14DF9
  8
0
 10
2503.9550503091281826
 20
393.157849738809773
 30
0.0
 11
2503.9550503091281826
 21
393.2172045203179778
 31
0.0
  0
LINE
  5
14DFA
  8
0
 10
2503.9527477648280183
 20
393.157849738809773
 30
0.0
 11
2503.9527477648280183
 21
393.2172045203179778
 31
0.0
  0
LINE
  5
14DFB
  8
0
 10
2503.9426409017278274
 20
393.2172045203179778
 30
0.0
 11
2503.9426409017278274
 21
393.157849738809773
 31
0.0
  0
LINE
  5
14DFC
  8
0
 10
2503.9389868929279146
 20
393.157849738809773
 30
0.0
 11
2503.9389868929279146
 21
393.2172045203179778
 31
0.0
  0
LINE
  5
14DFD
  8
0
 10
2503.9365216421279001
 20
393.157849738809773
 30
0.0
 11
2503.9365216421279001
 21
393.2172045203179778
 31
0.0
  0
LINE
  5
14DFE
  8
0
 10
2503.9268345095279074
 20
393.2172045203179778
 30
0.0
 11
2503.9268345095279074
 21
393.157849738809773
 31
0.0
  0
LINE
  5
14DFF
  8
0
 10
2503.9236041757280873
 20
393.157849738809773
 30
0.0
 11
2503.9236041757280873
 21
393.2172045203179778
 31
0.0
  0
LINE
  5
14E00
  8
0
 10
2503.92098297542816
 20
393.157849738809773
 30
0.0
 11
2503.92098297542816
 21
393.2172045203179778
 31
0.0
  0
LINE
  5
14E01
  8
0
 10
2503.9117421251280575
 20
393.2172045203179778
 30
0.0
 11
2503.9117421251280575
 21
393.157849738809773
 31
0.0
  0
LINE
  5
14E02
  8
0
 10
2503.9089443203279188
 20
393.157849738809773
 30
0.0
 11
2503.9089443203279188
 21
393.2172045203179778
 31
0.0
  0
LINE
  5
14E03
  8
0
 10
2503.9061743551278596
 20
393.157849738809773
 30
0.0
 11
2503.9061743551278596
 21
393.2172045203179778
 31
0.0
  0
LINE
  5
14E04
  8
0
 10
2503.897405115627862
 20
393.2172045203179778
 30
0.0
 11
2503.897405115627862
 21
393.157849738809773
 31
0.0
  0
LINE
  5
14E05
  8
0
 10
2503.8950475085280232
 20
393.157849738809773
 30
0.0
 11
2503.8950475085280232
 21
393.2172045203179778
 31
0.0
  0
LINE
  5
14E06
  8
0
 10
2503.8921363707281671
 20
393.157849738809773
 30
0.0
 11
2503.8921363707281671
 21
393.2172045203179778
 31
0.0
  0
LINE
  5
14E07
  8
0
 10
2503.8838627911900403
 20
393.2172045203179778
 30
0.0
 11
2503.8838627911900403
 21
393.157849738809773
 31
0.0
  0
LINE
  5
14E08
  8
0
 10
2503.8819518436898761
 20
393.157849738809773
 30
0.0
 11
2503.8819518436898761
 21
393.2172045203179778
 31
0.0
  0
LINE
  5
14E09
  8
0
 10
2503.8789074991291272
 20
393.157849738809773
 30
0.0
 11
2503.8789074991291272
 21
393.2172045203179778
 31
0.0
  0
LINE
  5
14E0A
  8
0
 10
2503.8711522435892221
 20
393.157849738809773
 30
0.0
 11
2503.8711522435892221
 21
393.2172045203179778
 31
0.0
  0
LINE
  5
14E0B
  8
0
 10
2503.8696931936888177
 20
393.157849738809773
 30
0.0
 11
2503.8696931936888177
 21
393.2172045203179778
 31
0.0
  0
LINE
  5
14E0C
  8
0
 10
2503.866524013290018
 20
393.157849738809773
 30
0.0
 11
2503.866524013290018
 21
393.2172045203179778
 31
0.0
  0
LINE
  5
14E0D
  8
0
 10
2503.8593083250898417
 20
393.157849738809773
 30
0.0
 11
2503.8593083250898417
 21
393.2172045203179778
 31
0.0
  0
LINE
  5
14E0E
  8
0
 10
2503.8583051716891532
 20
393.157849738809773
 30
0.0
 11
2503.8583051716891532
 21
393.2172045203179778
 31
0.0
  0
LINE
  5
14E0F
  8
0
 10
2503.8550198287889543
 20
393.157849738809773
 30
0.0
 11
2503.8550198287889543
 21
393.2172045203179778
 31
0.0
  0
LINE
  5
14E10
  8
0
 10
2503.8483634989897837
 20
393.157849738809773
 30
0.0
 11
2503.8483634989897837
 21
393.2172045203179778
 31
0.0
  0
LINE
  5
14E11
  8
0
 10
2503.8478189917891541
 20
393.157849738809773
 30
0.0
 11
2503.8478189917891541
 21
393.2172045203179778
 31
0.0
  0
LINE
  5
14E12
  8
0
 10
2503.844485289289878
 20
393.157849738809773
 30
0.0
 11
2503.844485289289878
 21
393.2172045203179778
 31
0.0
  0
LINE
  5
14E13
  8
0
 10
2503.8383477641891659
 20
393.157849738809773
 30
0.0
 11
2503.8383477641891659
 21
393.2172045203179778
 31
0.0
  0
LINE
  5
14E14
  8
0
 10
2503.8347730358891567
 20
393.157849738809773
 30
0.0
 11
2503.8347730358891567
 21
393.2172045203179778
 31
0.0
  0
LINE
  5
14E15
  8
0
 10
2503.8292885732889772
 20
393.157849738809773
 30
0.0
 11
2503.8292885732889772
 21
393.2172045203179778
 31
0.0
  0
LINE
  5
14E16
  8
0
 10
2503.8260859224888009
 20
393.157849738809773
 30
0.0
 11
2503.8260859224888009
 21
393.2172045203179778
 31
0.0
  0
LINE
  5
14E17
  8
0
 10
2503.8212107566891973
 20
393.157849738809773
 30
0.0
 11
2503.8212107566891973
 21
393.2172045203179778
 31
0.0
  0
LINE
  5
14E18
  8
0
 10
2503.8183889617898785
 20
393.157849738809773
 30
0.0
 11
2503.8183889617898785
 21
393.2172045203179778
 31
0.0
  0
LINE
  5
14E19
  8
0
 10
2503.8141364552898267
 20
393.157849738809773
 30
0.0
 11
2503.8141364552898267
 21
393.2172045203179778
 31
0.0
  0
LINE
  5
14E1A
  8
0
 10
2503.8117032505888346
 20
393.157849738809773
 30
0.0
 11
2503.8117032505888346
 21
393.2172045203179778
 31
0.0
  0
LINE
  5
14E1B
  8
0
 10
2503.8080850592891693
 20
393.157849738809773
 30
0.0
 11
2503.8080850592891693
 21
393.2172045203179778
 31
0.0
  0
LINE
  5
14E1C
  8
0
 10
2503.8060471139901892
 20
393.157849738809773
 30
0.0
 11
2503.8060471139901892
 21
393.2172045203179778
 31
0.0
  0
LINE
  5
14E1D
  8
0
 10
2503.8030731549902157
 20
393.157849738809773
 30
0.0
 11
2503.8030731549902157
 21
393.2172045203179778
 31
0.0
  0
LINE
  5
14E1E
  8
0
 10
2503.8014360549891535
 20
393.157849738809773
 30
0.0
 11
2503.8014360549891535
 21
393.2172045203179778
 31
0.0
  0
LINE
  5
14E1F
  8
0
 10
2503.799114479788841
 20
393.157849738809773
 30
0.0
 11
2503.799114479788841
 21
393.2172045203179778
 31
0.0
  0
LINE
  5
14E20
  8
0
 10
2503.7978827122888106
 20
393.157849738809773
 30
0.0
 11
2503.7978827122888106
 21
393.2172045203179778
 31
0.0
  0
LINE
  5
14E21
  8
0
 10
2503.7962198839900338
 20
393.157849738809773
 30
0.0
 11
2503.7962198839900338
 21
393.2172045203179778
 31
0.0
  0
LINE
  5
14E22
  8
0
 10
2503.7953968252891173
 20
393.157849738809773
 30
0.0
 11
2503.7953968252891173
 21
393.2172045203179778
 31
0.0
  0
LINE
  5
14E23
  8
0
 10
2503.7943973016890595
 20
393.157849738809773
 30
0.0
 11
2503.7943973016890595
 21
393.2172045203179778
 31
0.0
  0
LINE
  5
14E24
  8
0
 10
2503.7939852075901399
 20
393.157849738809773
 30
0.0
 11
2503.7939852075901399
 21
393.2172045203179778
 31
0.0
  0
LINE
  5
14E25
  8
0
 10
2503.7936517283887952
 20
393.157849738809773
 30
0.0
 11
2503.7936517283887952
 21
393.2172045203179778
 31
0.0
  0
LINE
  5
14E26
  8
0
 10
2504.5219783302891301
 20
393.157849738809773
 30
0.0
 11
2504.5219783302891301
 21
393.1384639140180184
 31
0.0
  0
LINE
  5
14E27
  8
0
 10
2503.8526873302889726
 20
393.1384639140180184
 30
0.0
 11
2503.8526873302889726
 21
393.157849738809773
 31
0.0
  0
LINE
  5
14E28
  8
0
 10
2504.5219783302891301
 20
393.1384639140180184
 30
0.0
 11
2503.8526873302889726
 21
393.1384639140180184
 31
0.0
  0
LINE
  5
14E29
  8
0
 10
2492.1991123578891347
 20
421.8784670399178935
 30
0.0
 11
2492.1991123578891347
 21
421.1310654651177856
 31
0.0
  0
ENDSEC
  0
EOF
