  0
SECTION
  2
HEADER
  9
$ACADVER
  1
AC1009
  9
$INSBASE
 10
4387.7604241028002434
 20
228.8538588536131897
 30
0.0
  9
$EXTMIN
 10
4367.0634151590929832
 20
228.8495091265698136
 30
-0.0000000000112498
  9
$EXTMAX
 10
4387.8197330584789597
 20
236.0722022262557971
 30
0.0000000000002956
  9
$LIMMIN
 10
0.0
 20
0.0
  9
$LIMMAX
 10
11.6929133858000007
 20
8.2677165353999982
  9
$ORTHOMODE
 70
     0
  9
$REGENMODE
 70
     1
  9
$FILLMODE
 70
     1
  9
$QTEXTMODE
 70
     0
  9
$MIRRTEXT
 70
     0
  9
$DRAGMODE
 70
     2
  9
$LTSCALE
 40
0.6431102362
  9
$OSMODE
 70
     7
  9
$ATTMODE
 70
     1
  9
$TEXTSIZE
 40
0.2
  9
$TRACEWID
 40
0.05
  9
$TEXTSTYLE
  7
STANDARD
  9
$CLAYER
  8
0
  9
$CELTYPE
  6
BYLAYER
  9
$CECOLOR
 62
   256
  9
$DIMSCALE
 40
1.0
  9
$DIMASZ
 40
0.1875
  9
$DIMEXO
 40
0.0625
  9
$DIMDLI
 40
0.4443307087
  9
$DIMRND
 40
0.0
  9
$DIMDLE
 40
0.0
  9
$DIMEXE
 40
0.125
  9
$DIMTP
 40
0.01
  9
$DIMTM
 40
0.01
  9
$DIMTXT
 40
2.0
  9
$DIMCEN
 40
0.1052362205
  9
$DIMTSZ
 40
0.0
  9
$DIMTOL
 70
     1
  9
$DIMLIM
 70
     0
  9
$DIMTIH
 70
     1
  9
$DIMTOH
 70
     1
  9
$DIMSE1
 70
     0
  9
$DIMSE2
 70
     0
  9
$DIMTAD
 70
     0
  9
$DIMZIN
 70
     0
  9
$DIMBLK
  1

  9
$DIMASO
 70
     1
  9
$DIMSHO
 70
     1
  9
$DIMPOST
  1
\X
  9
$DIMAPOST
  1

  9
$DIMALT
 70
     1
  9
$DIMALTD
 70
     2
  9
$DIMALTF
 40
25.3999999999999986
  9
$DIMLFAC
 40
1.0
  9
$DIMTOFL
 70
     0
  9
$DIMTVP
 40
0.0
  9
$DIMTIX
 70
     0
  9
$DIMSOXD
 70
     0
  9
$DIMSAH
 70
     0
  9
$DIMBLK1
  1

  9
$DIMBLK2
  1

  9
$DIMSTYLE
  2
STANDARD
  9
$DIMCLRD
 70
     0
  9
$DIMCLRE
 70
     0
  9
$DIMCLRT
 70
     0
  9
$DIMTFAC
 40
1.0
  9
$DIMGAP
 40
0.09
  9
$LUNITS
 70
     2
  9
$LUPREC
 70
     4
  9
$SKETCHINC
 40
0.1
  9
$FILLETRAD
 40
0.0
  9
$AUNITS
 70
     0
  9
$AUPREC
 70
     0
  9
$MENU
  1
.
  9
$ELEVATION
 40
0.0
  9
$PELEVATION
 40
0.0
  9
$THICKNESS
 40
0.0
  9
$LIMCHECK
 70
     0
  9
$BLIPMODE
 70
     0
  9
$CHAMFERA
 40
0.0
  9
$CHAMFERB
 40
0.0
  9
$SKPOLY
 70
     0
  9
$TDCREATE
 40
2458060.468368056230247
  9
$TDUPDATE
 40
2459538.7327662031166255
  9
$TDINDWG
 40
0.7154931713
  9
$TDUSRTIMER
 40
0.7154931713
  9
$USRTIMER
 70
     1
  9
$ANGBASE
 50
0.0
  9
$ANGDIR
 70
     0
  9
$PDMODE
 70
     0
  9
$PDSIZE
 40
0.3125
  9
$PLINEWID
 40
0.0
  9
$COORDS
 70
     1
  9
$SPLFRAME
 70
     0
  9
$SPLINETYPE
 70
     6
  9
$SPLINESEGS
 70
     8
  9
$ATTDIA
 70
     1
  9
$ATTREQ
 70
     1
  9
$HANDLING
 70
     1
  9
$HANDSEED
  5
14C79
  9
$SURFTAB1
 70
     6
  9
$SURFTAB2
 70
     6
  9
$SURFTYPE
 70
     6
  9
$SURFU
 70
     6
  9
$SURFV
 70
     6
  9
$UCSNAME
  2

  9
$UCSORG
 10
0.0
 20
0.0
 30
0.0
  9
$UCSXDIR
 10
1.0
 20
0.0
 30
0.0
  9
$UCSYDIR
 10
0.0
 20
1.0
 30
0.0
  9
$PUCSNAME
  2

  9
$PUCSORG
 10
0.0
 20
0.0
 30
0.0
  9
$PUCSXDIR
 10
1.0
 20
0.0
 30
0.0
  9
$PUCSYDIR
 10
0.0
 20
1.0
 30
0.0
  9
$USERI1
 70
     0
  9
$USERI2
 70
     0
  9
$USERI3
 70
     0
  9
$USERI4
 70
     0
  9
$USERI5
 70
     0
  9
$USERR1
 40
0.0
  9
$USERR2
 40
0.0
  9
$USERR3
 40
0.0
  9
$USERR4
 40
0.0
  9
$USERR5
 40
0.0
  9
$WORLDVIEW
 70
     1
  9
$SHADEDGE
 70
     3
  9
$SHADEDIF
 70
    70
  9
$TILEMODE
 70
     1
  9
$MAXACTVP
 70
    64
  9
$PLIMCHECK
 70
     0
  9
$PEXTMIN
 10
1.0000000000000000E+20
 20
1.0000000000000000E+20
 30
1.0000000000000000E+20
  9
$PEXTMAX
 10
-1.0000000000000000E+20
 20
-1.0000000000000000E+20
 30
-1.0000000000000000E+20
  9
$PLIMMIN
 10
0.0
 20
0.0
  9
$PLIMMAX
 10
12.0
 20
9.0
  9
$UNITMODE
 70
     0
  9
$VISRETAIN
 70
     1
  9
$PLINEGEN
 70
     0
  9
$PSLTSCALE
 70
     1
  0
ENDSEC
  0
SECTION
  2
TABLES
  0
TABLE
  2
VPORT
 70
     1
  0
VPORT
  2
*ACTIVE
 70
     0
 10
0.0
 20
0.0
 11
1.0
 21
1.0
 12
215.8851776244109999
 22
6.3500234620573224
 13
0.0
 23
0.0
 14
1.0
 24
1.0
 15
0.0
 25
0.0
 16
0.0
 26
0.0
 36
202.37134017897489
 17
4161.556396484375
 27
226.1108322143554972
 37
0.0
 40
9.1195810680159255
 41
2.2831541218637992
 42
50.0
 43
0.0
 44
0.0
 50
0.0
 51
0.0
 71
     0
 72
   100
 73
     1
 74
     1
 75
     0
 76
     0
 77
     0
 78
     0
  0
ENDTAB
  0
TABLE
  2
LTYPE
 70
     2
  0
LTYPE
  2
CONTINUOUS
 70
     0
  3
Solid line
 72
    65
 73
     0
 40
0.0
  0
LTYPE
  2
PHANTOM2
 70
     0
  3
___ _ _ ___ _ _ ___ _ _ ___ _ _
 72
    65
 73
     6
 40
1.25
 49
0.625
 49
-0.125
 49
0.125
 49
-0.125
 49
0.125
 49
-0.125
  0
ENDTAB
  0
TABLE
  2
LAYER
 70
     2
  0
LAYER
  2
0
 70
     0
 62
   255
  6
CONTINUOUS
  0
LAYER
  2
DEFPOINTS
 70
     0
 62
     7
  6
CONTINUOUS
  0
ENDTAB
  0
TABLE
  2
STYLE
 70
     1
  0
STYLE
  2
STANDARD
 70
     0
 40
0.0
 41
0.8
 50
0.0
 71
     0
 42
0.2
  3
txt
  4

  0
ENDTAB
  0
TABLE
  2
VIEW
 70
     0
  0
ENDTAB
  0
TABLE
  2
UCS
 70
     0
  0
ENDTAB
  0
TABLE
  2
APPID
 70
    10
  0
APPID
  2
ACAD
 70
     0
  0
APPID
  2
ACAD_MLEADERVER
 70
     0
  0
APPID
  2
ACAD_EXEMPT_FROM_CAD_STANDARDS
 70
     0
  0
APPID
  2
ACAD_NAV_VCDISPLAY
 70
     0
  0
APPID
  2
ACAECLAYERSTANDARD
 70
     0
  0
APPID
  2
ACCMTRANSPARENCY
 70
     0
  0
APPID
  2
ACAD_DSTYLE_DIMJAG
 70
     0
  0
APPID
  2
ACAD_DSTYLE_DIMTALN
 70
     0
  0
APPID
  2
ACDBATTR
 70
     0
  0
APPID
  2
DCO15
 70
     0
  0
ENDTAB
  0
TABLE
  2
DIMSTYLE
 70
     1
  0
DIMSTYLE
  2
STANDARD
 70
     0
  3

  4

  5

  6

  7

 40
1.0
 41
0.1875
 42
0.0625
 43
0.38
 44
0.125
 45
0.0
 46
0.0
 47
0.01
 48
0.01
140
0.15625
141
0.09
142
0.0
143
25.3999999999999986
144
1.0
145
0.0
146
1.0
147
0.09
 71
     1
 72
     0
 73
     1
 74
     1
 75
     0
 76
     0
 77
     0
 78
     4
170
     0
171
     2
172
     0
173
     0
174
     0
175
     0
176
     0
177
     0
178
     0
  0
ENDTAB
  0
ENDSEC
  0
SECTION
  2
BLOCKS
  0
BLOCK
  8
0
  2
$MODEL_SPACE
 70
     0
 10
0.0
 20
0.0
 30
0.0
  3
$MODEL_SPACE
  1

  0
ENDBLK
  5
21
  8
0
  0
BLOCK
 67
     1
  8
0
  2
$PAPER_SPACE
 70
     0
 10
0.0
 20
0.0
 30
0.0
  3
$PAPER_SPACE
  1

  0
ENDBLK
  5
1D
 67
     1
  8
0
  0
ENDSEC
  0
SECTION
  2
ENTITIES
  0
ATTDEF
  5
12CA7
  8
DEFPOINTS
 10
4387.7604190144038512
 20
228.8572004327743912
 30
0.0
 40
0.001
  1
K-4107T-HC
  3

  2
MODELNUMBER
 70
     0
1001
ACDBATTR
1070
     0
1070
     1
  0
ATTDEF
  5
12CA8
  8
DEFPOINTS
 10
4387.7604190144038512
 20
228.8555337661076976
 30
0.0
 40
0.001
  1
C3
  3

  2
TRADENAME
 70
     0
1001
ACDBATTR
1070
     0
1070
     1
  0
ATTDEF
  5
12CA9
  8
DEFPOINTS
 10
4387.7604190144038512
 20
228.8538670994410893
 30
0.0
 40
0.001
  1
TOILET SEAT
  3

  2
PRODUCT
 70
     0
1001
ACDBATTR
1070
     0
1070
     1
  0
ARC
  5
1491F
  8
0
 10
4387.3329415271582548
 20
235.9510028226949032
 30
0.0
 40
0.1217469045132856
 50
111.0491937472997961
 51
123.9082125036868973
  0
ARC
  5
14920
  8
0
 10
4387.3087781168324
 20
236.0085383653101871
 30
0.0
 40
0.0594017628811684
 50
9.481248952451919
 51
109.2297157008541006
  0
LINE
  5
14921
  8
0
 10
4387.3673684256991692
 20
236.0183233098771041
 30
0.0
 11
4387.3729555042991706
 21
235.9844597090771003
 31
0.0
  0
LINE
  5
14922
  8
0
 10
4387.3729555042991706
 20
235.9844597090771003
 30
0.0
 11
4387.3724477307996494
 21
235.9834076412770969
 31
0.0
  0
LINE
  5
14923
  8
0
 10
4387.3724477307996494
 20
235.9834076412770969
 30
0.0
 11
4387.3058387439014041
 21
235.8992377427771032
 31
0.0
  0
ARC
  5
14924
  8
0
 10
4387.2090711679984452
 20
235.9959128159788975
 30
0.0
 40
0.1367846245910042
 50
308.1347172230733804
 51
315.0273983732795955
  0
LINE
  5
14925
  8
0
 10
4387.2935373956997864
 20
235.8883233652771025
 30
0.0
 11
4386.9447087855824066
 21
235.6216605672487958
 31
0.0
  0
ARC
  5
14926
  8
0
 10
4259.9372729038313992
 20
440.0564916583884951
 30
0.0
 40
240.4790437355960933
 50
301.9452717185387769
 51
301.9700200875707878
  0
ARC
  5
14927
  8
0
 10
4371.7251294444877203
 20
260.8538790469938817
 30
0.0
 40
29.2680405025211208
 50
300.17589158189611
 51
301.8663625315721788
  0
ARC
  5
14928
  8
0
 10
4372.2086860796507608
 20
260.0222408565803107
 30
0.0
 40
28.3060378522311815
 50
297.1383354504466752
 51
300.17589158189611
  0
ARC
  5
14929
  8
0
 10
4373.3292069005628946
 20
257.8361591884038262
 30
0.0
 40
25.8495118560254689
 50
276.7293908436446941
 51
297.1383354504466752
  0
ARC
  5
1492A
  8
0
 10
4368.3953362588899836
 20
288.6955480247199262
 30
0.0
 40
57.0888881208426398
 50
276.0339866196558205
 51
278.0179225428568088
  0
ARC
  5
1492B
  8
0
 10
4362.4389472691827905
 20
349.0396683453495825
 30
0.0
 40
117.7255596230268964
 50
273.8119170883634865
 51
275.8296316970847215
  0
LINE
  5
1492C
  8
0
 10
4367.5597167379000894
 20
231.3848544846771063
 30
0.0
 11
4367.4450994216003892
 21
231.3764191869771025
 31
0.0
  0
ARC
  5
1492D
  8
0
 10
4367.4494329374656445
 20
231.3175258531150007
 30
0.0
 40
0.0590525539935509
 50
94.2083795855912456
 51
198.1474604490591105
  0
LINE
  5
1492E
  8
0
 10
4367.3933177721000902
 20
231.299133127677095
 30
0.0
 11
4367.5495971259997532
 21
230.8222480046771068
 31
0.0
  0
ARC
  5
1492F
  8
0
 10
4367.5870094199481173
 20
230.8345083349836102
 30
0.0
 40
0.0393699814291301
 50
198.1444146934516084
 51
270.4534300295321145
  0
ARC
  5
14930
  8
0
 10
4352.0742144720252327
 20
2301.0054857941540831
 30
0.0
 40
2070.2684690685177884
 50
270.4293374804724976
 51
270.5055559589104064
  0
ARC
  5
14931
  8
0
 10
4368.326208687955841
 20
534.0375513039787165
 30
0.0
 40
303.2266387422686194
 50
270.380748712834702
 51
270.9392630787800726
  0
ARC
  5
14932
  8
0
 10
4370.6724738328593958
 20
449.8249581230933245
 30
0.0
 40
218.9890281082057868
 50
270.6866523871963182
 51
271.231217047408677
  0
ARC
  5
14933
  8
0
 10
4373.3302490851556286
 20
328.865191913842807
 30
0.0
 40
98.0000977378637828
 50
271.1972590941604722
 51
272.2419590812589831
  0
ARC
  5
14934
  8
0
 10
4375.831715638390051
 20
270.0906890022192783
 30
0.0
 40
39.1732404347047378
 50
271.9489679999047098
 51
275.1507989985640279
  0
ARC
  5
14935
  8
0
 10
4377.9387208972002554
 20
243.1216585760894873
 30
0.0
 40
12.14188089304794
 50
286.0904885895088228
 51
298.1697604356409101
  0
ARC
  5
14936
  8
0
 10
4381.3080170707444267
 20
231.4358667418173923
 30
0.0
 40
0.0199942354464588
 50
101.8660265522493944
 51
150.2553239528718052
  0
LINE
  5
14937
  8
0
 10
4381.290657177400135
 20
231.4457865983771114
 30
0.0
 11
4380.5466056688992467
 21
230.1420672867770918
 31
0.0
  0
ARC
  5
14938
  8
0
 10
4381.2776752613426652
 20
229.724835273540009
 30
0.0
 40
0.8417513301819809
 50
150.285970725681608
 51
163.2409621047995074
  0
LINE
  5
14939
  8
0
 10
4380.4716765709999891
 20
229.9675520076771136
 30
0.0
 11
4386.340672002201245
 21
229.9675519034771014
 31
0.0
  0
LINE
  5
1493A
  8
0
 10
4386.340672002201245
 20
229.9675519034771014
 30
0.0
 11
4386.2729355279616357
 21
234.0955638130645013
 31
0.0
  0
LINE
  5
1493B
  8
0
 10
4380.5760600530002193
 20
229.9406429610770886
 30
0.0
 11
4378.0303047562001666
 21
229.9328480967770929
 31
0.0
  0
ARC
  5
1493C
  8
0
 10
4843.938404990239178
 20
-149937.4538566037081182
 30
0.0
 40
150168.1094642831012607
 50
90.1777648443850381
 51
90.1784956818580383
  0
LINE
  5
1493D
  8
0
 10
4368.4381363747006617
 20
229.9030900808770923
 30
0.0
 11
4369.1475311118001628
 21
229.6690586718771101
 31
0.0
  0
ARC
  5
1493E
  8
0
 10
4420.3294252017703911
 20
-15861.1682647470206575
 30
0.0
 40
16090.9187231498108304
 50
90.1733317637922056
 51
90.1822463660602835
  0
ARC
  5
1493F
  8
0
 10
4654.3390370141696621
 20
-90468.1726410783739993
 30
0.0
 40
90698.2900095431687078
 50
90.1735923671982391
 51
90.1785794683921438
  0
ARC
  5
14940
  8
0
 10
4384.3424028541039661
 20
-737.1784045424283249
 30
0.0
 40
966.8913926661653022
 50
89.9045633992418942
 51
90.2842514519614241
  0
ARC
  5
14941
  8
0
 10
4386.466032571100186
 20
-2717.5449650201021541
 30
0.0
 40
2947.2566564874241521
 50
89.9900252205964648
 51
90.0099747794035352
  0
ARC
  5
14942
  8
0
 10
4387.110213952900267
 20
982.6746084246472037
 30
0.0
 40
752.9629730309776505
 50
269.9711156791124722
 51
270.0099747794034784
  0
LINE
  5
14943
  8
0
 10
4387.2412993415991878
 20
229.7116468041770929
 30
0.0
 11
4387.6349998229998164
 21
229.8691271191771079
 31
0.0
  0
LINE
  5
14944
  8
0
 10
4387.6349998229998164
 20
229.8691271191771079
 30
0.0
 11
4387.6349998229998164
 21
230.0974735758771033
 31
0.0
  0
LINE
  5
14945
  8
0
 10
4387.6349998229998164
 20
230.0974735758771033
 30
0.0
 11
4386.3385401197811007
 21
230.0974735758771033
 31
0.0
  0
ARC
  5
14946
  8
0
 10
4365.9196084804980273
 20
262.0329211869149049
 30
0.0
 40
34.5155963573703914
 50
306.152132990865482
 51
306.1847163617505885
  0
ARC
  5
14947
  8
0
 10
4363.0947696356952292
 20
265.8993474397279897
 30
0.0
 40
39.3040163961248723
 50
304.5264429731200835
 51
306.152132990865482
  0
ARC
  5
14948
  8
0
 10
4356.006741494947164
 20
276.2023025831633731
 30
0.0
 40
51.8096562282841688
 50
303.7633269792693227
 51
304.5264429731200835
  0
ARC
  5
14949
  8
0
 10
4376.0455499792751652
 20
245.0421534737272111
 30
0.0
 40
14.7828043077362992
 50
303.859844701036991
 51
306.3168267408955785
  0
ARC
  5
1494A
  8
0
 10
4377.1237559976389093
 20
244.5264358081255978
 30
0.0
 40
13.7402481307939404
 50
298.9031969134125006
 51
303.9671022855969227
  0
ARC
  5
1494B
  8
0
 10
4378.1921037132478887
 20
242.5913824566015933
 30
0.0
 40
11.5298639300974308
 50
290.5216410906804185
 51
298.9031969134125006
  0
ARC
  5
1494C
  8
0
 10
4377.4604134240225903
 20
244.4022620002401993
 30
0.0
 40
13.4824212918443394
 50
286.8148080048551947
 51
290.7359654104531046
  0
ARC
  5
1494D
  8
0
 10
4378.1911427858412935
 20
242.739558880372897
 30
0.0
 40
11.7212106950577795
 50
275.6670641324080862
 51
280.8373219856289893
  0
ARC
  5
1494E
  8
0
 10
4378.3361227980649346
 20
241.5972437501849868
 30
0.0
 40
10.5722572707479596
 50
281.229612143024724
 51
286.229777609582527
  0
ARC
  5
1494F
  8
0
 10
4378.3485912090491183
 20
241.1698870974663862
 30
0.0
 40
10.1316713202188904
 50
278.4295828926963168
 51
287.2946802406523261
  0
ARC
  5
14950
  8
0
 10
4377.4584975494262835
 20
248.0747525268108973
 30
0.0
 40
17.0929317706490913
 50
273.3049842705647734
 51
277.9880087213412025
  0
ARC
  5
14951
  8
0
 10
4375.1991170018527555
 20
281.1439667865263914
 30
0.0
 40
50.2386140575210405
 50
272.2412794621620264
 51
273.7031877509269862
  0
ARC
  5
14952
  8
0
 10
4373.0606783382636422
 20
334.2255613851997964
 30
0.0
 40
103.3632486662021961
 50
271.2845693169488186
 51
272.2750383776286185
  0
ARC
  5
14953
  8
0
 10
4366.9782530341390157
 20
606.601289603841451
 30
0.0
 40
375.8068814508885112
 50
271.1291352458414963
 51
271.2807203292545069
  0
ARC
  5
14954
  8
0
 10
4377.3335805652541239
 20
244.2428072719166892
 30
0.0
 40
13.4159112570961305
 50
298.1876334451059734
 51
301.1930128837965981
  0
ARC
  5
14955
  8
0
 10
4386.5417745047197968
 20
234.4943456710520877
 30
0.0
 40
0.4809380060713345
 50
229.835534719262796
 51
249.7241082459154029
  0
ARC
  5
14956
  8
0
 10
4386.5869994941622281
 20
234.5823410388188108
 30
0.0
 40
0.579275870217561
 50
248.5441738319850913
 51
260.1193330439564875
  0
LINE
  5
14957
  8
0
 10
4386.487597672400625
 20
234.011657403477102
 30
0.0
 11
4387.23901303690036
 21
233.8810472753771137
 31
0.0
  0
ARC
  5
14958
  8
0
 10
4387.2374472783112651
 20
233.8905567839987043
 30
0.0
 40
0.0096375491793411
 50
279.3499675198515888
 51
341.5529431325180099
  0
ARC
  5
14959
  8
0
 10
4387.2184967447901727
 20
233.8941228958728971
 30
0.0
 40
0.0288613402348693
 50
346.7486251041121932
 51
11.10710692661522
  0
LINE
  5
1495A
  8
0
 10
4387.2468174768000608
 20
233.8996828507771113
 30
0.0
 11
4387.2444519087130175
 21
234.4086952878323018
 31
0.0
  0
ARC
  5
1495B
  8
0
 10
4386.5454395985789233
 20
234.3862010845319048
 30
0.0
 40
0.6993741480074865
 50
1.8431410855653001
 51
43.5431696351335233
  0
ARC
  5
1495C
  8
0
 10
4386.5860118139307815
 20
234.5770721167031923
 30
0.0
 40
0.4951886610260606
 50
234.3336259164748867
 51
251.272440362215292
  0
ARC
  5
1495D
  8
0
 10
4386.5878471822516076
 20
234.5852722635243026
 30
0.0
 40
0.503544732651466
 50
251.3742338421097884
 51
317.0432724281706101
  0
ARC
  5
1495E
  8
0
 10
4386.5928089187909791
 20
234.5738761415450995
 30
0.0
 40
0.4921725405459137
 50
317.6206152389891031
 51
334.7967114895694181
  0
ARC
  5
1495F
  8
0
 10
4386.9932653510040836
 20
234.3854075738381937
 30
0.0
 40
0.0495827133773493
 50
334.7967114895694181
 51
14.5742591703200297
  0
LINE
  5
14960
  8
0
 10
4387.0412526076006543
 20
234.3978842989770897
 30
0.0
 11
4386.998470806500336
 21
234.5488045895770881
 31
0.0
  0
ARC
  5
14961
  8
0
 10
4387.0413164877936651
 20
234.5626078911029992
 30
0.0
 40
0.0450142592801429
 50
172.9519000991427902
 51
197.8570300602079044
  0
ARC
  5
14962
  8
0
 10
4386.9991019234239502
 20
234.5675275473309114
 30
0.0
 40
0.0025325523692101
 50
61.1771399981958908
 51
166.2090981328609018
  0
ARC
  5
14963
  8
0
 10
4390.266057551160884
 20
242.4356225120752981
 30
0.0
 40
8.516867424402907
 50
247.4528754596535123
 51
247.9540062420207107
  0
ARC
  5
14964
  8
0
 10
4387.1989698514153133
 20
234.8539706052901863
 30
0.0
 40
0.3383434838570521
 50
247.4548037877424065
 51
250.3262719579799978
  0
LINE
  5
14965
  8
0
 10
4387.0850619403036035
 20
234.535377917277799
 30
0.0
 11
4387.0861389153205891
 21
234.537866264042492
 31
0.0
  0
ARC
  5
14966
  8
0
 10
4386.6108834526112332
 20
234.574951609542893
 30
0.0
 40
0.4767001968599915
 50
355.5381118471939885
 51
8.1474350433723401
  0
LINE
  5
14967
  8
0
 10
4387.0827721554696836
 20
234.6425099532193883
 30
0.0
 11
4387.0797184899001877
 21
234.6638952187770997
 31
0.0
  0
LINE
  5
14968
  8
0
 10
4387.0797184899001877
 20
234.6638952187770997
 30
0.0
 11
4387.0807067845998972
 21
234.6694117550771068
 31
0.0
  0
LINE
  5
14969
  8
0
 10
4387.0807067845998972
 20
234.6694117550771068
 30
0.0
 11
4386.9447087855824066
 21
235.6216605672487958
 31
0.0
  0
LINE
  5
1496A
  8
0
 10
4386.9806296369006304
 20
235.6488692801771094
 30
0.0
 11
4387.0651701012748163
 21
235.0663788370181067
 31
0.0
  0
ARC
  5
1496B
  8
0
 10
4386.6304545386810787
 20
234.4762882679837901
 30
0.0
 40
0.7329287141486142
 50
53.5503621383230168
 51
57.932046958929007
  0
ARC
  5
1496C
  8
0
 10
4386.646139743718777
 20
234.4975246193289991
 30
0.0
 40
0.7065277998554297
 50
14.4776292984508608
 51
53.5503621383220434
  0
LINE
  5
1496D
  8
0
 10
4387.3302319833001093
 20
234.6741579675770879
 30
0.0
 11
4387.6418816268997034
 21
233.427883428477088
 31
0.0
  0
LINE
  5
1496E
  8
0
 10
4387.6418816268997034
 20
233.427883428477088
 30
0.0
 11
4387.642349116299556
 21
233.4256808544770934
 31
0.0
  0
ARC
  5
1496F
  8
0
 10
4656.9598959404620473
 20
236.0797134671277888
 30
0.0
 40
269.330623799993873
 50
180.5646120979376974
 51
181.2668663105264102
  0
LINE
  5
14970
  8
0
 10
4386.3425262028003999
 20
230.1250322187771076
 30
0.0
 11
4387.7604241028002434
 21
230.1250324332771129
 31
0.0
  0
LINE
  5
14971
  8
0
 10
4387.7604241028002434
 20
230.1250324332771129
 30
0.0
 11
4387.758856064300744
 21
230.5187334152770973
 31
0.0
  0
LINE
  5
14972
  8
0
 10
4387.758856064300744
 20
230.5187334152770973
 30
0.0
 11
4387.6866881804353397
 21
230.5187334168996074
 31
0.0
  0
LINE
  5
14973
  8
0
 10
4384.4825543756996922
 20
232.2707019222771123
 30
0.0
 11
4385.3493026450996695
 21
232.2707018622770931
 31
0.0
  0
LINE
  5
14974
  8
0
 10
4385.4241918197012637
 20
232.1924343462771105
 30
0.0
 11
4385.4410574005014496
 21
230.2239220588770934
 31
0.0
  0
LINE
  5
14975
  8
0
 10
4385.3666527468003551
 20
230.1447177763770924
 30
0.0
 11
4384.5090944107014366
 21
230.1447176703771049
 31
0.0
  0
LINE
  5
14976
  8
0
 10
4384.4384867020999081
 20
230.2234578189770957
 30
0.0
 11
4384.4132403868998153
 21
232.1919617759770915
 31
0.0
  0
ARC
  5
14977
  8
0
 10
4384.4964440564663164
 20
232.1936652464397923
 30
0.0
 40
0.0832211057418791
 50
141.0121130745374103
 51
181.1728813757054013
  0
ARC
  5
14978
  8
0
 10
4384.4834956048489403
 20
232.2041461640203011
 30
0.0
 40
0.0665624133385481
 50
90.8102208515798139
 51
141.0121130745386893
  0
ARC
  5
14979
  8
0
 10
4385.3485766105923176
 20
232.1964211174044124
 30
0.0
 40
0.0742842929895075
 50
40.3029648486654324
 51
89.4399976933008247
  0
ARC
  5
1497A
  8
0
 10
4385.3457634201940891
 20
232.1933262093864982
 30
0.0
 40
0.0784334703361205
 50
359.3484784861494177
 51
40.6978997577388171
  0
ARC
  5
1497B
  8
0
 10
4385.3618630899545678
 20
230.2220035744487916
 30
0.0
 40
0.0792175448064291
 50
318.5726271448211264
 51
1.387720470660333
  0
ARC
  5
1497C
  8
0
 10
4385.3661402012112376
 20
230.2182291605232081
 30
0.0
 40
0.0735131709426917
 50
270.3994785778775736
 51
318.5726271448211264
  0
ARC
  5
1497D
  8
0
 10
4384.5144392936017539
 20
230.2205381990179092
 30
0.0
 40
0.0760086859287361
 50
177.79863231537621
 51
265.9676690306966975
  0
LINE
  5
1497E
  8
0
 10
4384.5824195447148668
 20
232.0267278424092865
 30
0.0
 11
4385.3074053551999896
 21
232.0248369432771085
 31
0.0
  0
LINE
  5
1497F
  8
0
 10
4385.3074053551999896
 20
232.0248369432771085
 30
0.0
 11
4385.3084769708284512
 21
231.9067101336904102
 31
0.0
  0
LINE
  5
14980
  8
0
 10
4385.3084769708284512
 20
231.9067101336904102
 30
0.0
 11
4384.5838886268011265
 21
231.9086091684937969
 31
0.0
  0
LINE
  5
14981
  8
0
 10
4384.5838886268011265
 20
231.9086091684937969
 30
0.0
 11
4384.5824195447148668
 21
232.0267278424092865
 31
0.0
  0
LINE
  5
14982
  8
0
 10
4384.5833050435003315
 20
231.9557413130771124
 30
0.0
 11
4385.2799710162989868
 21
231.9557418478771069
 31
0.0
  0
LINE
  5
14983
  8
0
 10
4385.2799710162989868
 20
231.9557418478771069
 30
0.0
 11
4385.3084769708284512
 21
231.9067101336904102
 31
0.0
  0
LINE
  5
14984
  8
0
 10
4384.5827148377029516
 20
232.0029853868770999
 30
0.0
 11
4384.6116698901014388
 21
232.0029853868770999
 31
0.0
  0
LINE
  5
14985
  8
0
 10
4384.6116698901014388
 20
232.0029853868770999
 30
0.0
 11
4384.6116698901014388
 21
231.9557413348514956
 31
0.0
  0
LINE
  5
14986
  8
0
 10
4384.6227950431002682
 20
231.955741343391793
 30
0.0
 11
4384.6227950431002682
 21
232.0029853868770999
 31
0.0
  0
LINE
  5
14987
  8
0
 10
4384.6227950431002682
 20
232.0029853868770999
 30
0.0
 11
4384.6672956553002223
 21
232.0029853868770999
 31
0.0
  0
LINE
  5
14988
  8
0
 10
4384.6672956553002223
 20
232.0029853868770999
 30
0.0
 11
4384.6672956553002223
 21
231.9557413775530108
 31
0.0
  0
LINE
  5
14989
  8
0
 10
4384.6784208084000056
 20
231.9557413860933082
 30
0.0
 11
4384.6784208084000056
 21
232.0029853868770999
 31
0.0
  0
LINE
  5
1498A
  8
0
 10
4384.6784208084000056
 20
232.0029853868770999
 30
0.0
 11
4384.7229214205999597
 21
232.0029853868770999
 31
0.0
  0
LINE
  5
1498B
  8
0
 10
4384.7229214205999597
 20
232.0029853868770999
 30
0.0
 11
4384.7229214205999597
 21
231.9557414202544976
 31
0.0
  0
LINE
  5
1498C
  8
0
 10
4384.7340465735996986
 20
231.955741428794795
 30
0.0
 11
4384.7340465735996986
 21
232.0029853868770999
 31
0.0
  0
LINE
  5
1498D
  8
0
 10
4384.7340465735996986
 20
232.0029853868770999
 30
0.0
 11
4384.7785471857996527
 21
232.0029853868770999
 31
0.0
  0
LINE
  5
1498E
  8
0
 10
4384.7785471857996527
 20
232.0029853868770999
 30
0.0
 11
4384.7785471857996527
 21
231.9557414629558991
 31
0.0
  0
LINE
  5
1498F
  8
0
 10
4384.7896723389003455
 20
231.9557414714961965
 30
0.0
 11
4384.7896723389003455
 21
232.0029853868770999
 31
0.0
  0
LINE
  5
14990
  8
0
 10
4384.7896723389003455
 20
232.0029853868770999
 30
0.0
 11
4384.834172951101209
 21
232.0029853868770999
 31
0.0
  0
LINE
  5
14991
  8
0
 10
4384.834172951101209
 20
232.0029853868770999
 30
0.0
 11
4384.834172951101209
 21
231.9557415056573859
 31
0.0
  0
LINE
  5
14992
  8
0
 10
4384.845298104099129
 20
231.9557415141977117
 30
0.0
 11
4384.845298104099129
 21
232.0029853868770999
 31
0.0
  0
LINE
  5
14993
  8
0
 10
4384.845298104099129
 20
232.0029853868770999
 30
0.0
 11
4384.8897987162999925
 21
232.0029853868770999
 31
0.0
  0
LINE
  5
14994
  8
0
 10
4384.8897987162999925
 20
232.0029853868770999
 30
0.0
 11
4384.8897987162999925
 21
231.9557415483589011
 31
0.0
  0
LINE
  5
14995
  8
0
 10
4384.9009238694006854
 20
231.9557415568991985
 30
0.0
 11
4384.9009238694006854
 21
232.0029853868770999
 31
0.0
  0
LINE
  5
14996
  8
0
 10
4384.9009238694006854
 20
232.0029853868770999
 30
0.0
 11
4384.9454244816006394
 21
232.0029853868770999
 31
0.0
  0
LINE
  5
14997
  8
0
 10
4384.9454244816006394
 20
232.0029853868770999
 30
0.0
 11
4384.9454244816006394
 21
231.9557415910603879
 31
0.0
  0
LINE
  5
14998
  8
0
 10
4384.9565496346003783
 20
231.9557415996006
 30
0.0
 11
4384.9565496346003783
 21
232.0029853868770999
 31
0.0
  0
LINE
  5
14999
  8
0
 10
4384.9565496346003783
 20
232.0029853868770999
 30
0.0
 11
4385.0010502468003324
 21
232.0029853868770999
 31
0.0
  0
LINE
  5
1499A
  8
0
 10
4385.0010502468003324
 20
232.0029853868770999
 30
0.0
 11
4385.0010502468003324
 21
231.9557416337617894
 31
0.0
  0
LINE
  5
1499B
  8
0
 10
4385.0121753999001157
 20
231.9557416423020868
 30
0.0
 11
4385.0121753999001157
 21
232.0029853868770999
 31
0.0
  0
LINE
  5
1499C
  8
0
 10
4385.0121753999001157
 20
232.0029853868770999
 30
0.0
 11
4385.0566760121009793
 21
232.0029853868770999
 31
0.0
  0
LINE
  5
1499D
  8
0
 10
4385.0566760121009793
 20
232.0029853868770999
 30
0.0
 11
4385.0566760121009793
 21
231.9557416764633047
 31
0.0
  0
LINE
  5
1499E
  8
0
 10
4385.0678011650998087
 20
231.955741685003602
 30
0.0
 11
4385.0678011650998087
 21
232.0029853868770999
 31
0.0
  0
LINE
  5
1499F
  8
0
 10
4385.0678011650998087
 20
232.0029853868770999
 30
0.0
 11
4385.1123017772997628
 21
232.0029853868770999
 31
0.0
  0
LINE
  5
149A0
  8
0
 10
4385.1123017772997628
 20
232.0029853868770999
 30
0.0
 11
4385.1123017772997628
 21
231.9557417191647062
 31
0.0
  0
LINE
  5
149A1
  8
0
 10
4385.1234269304013651
 20
231.9557417277050035
 30
0.0
 11
4385.1234269304013651
 21
232.0029853868770999
 31
0.0
  0
LINE
  5
149A2
  8
0
 10
4385.1234269304013651
 20
232.0029853868770999
 30
0.0
 11
4385.1679275426004097
 21
232.0029853868770999
 31
0.0
  0
LINE
  5
149A3
  8
0
 10
4385.1679275426004097
 20
232.0029853868770999
 30
0.0
 11
4385.1679275426004097
 21
231.955741761866193
 31
0.0
  0
LINE
  5
149A4
  8
0
 10
4385.1901778486990224
 20
231.9557417789467877
 30
0.0
 11
4385.1901778486990224
 21
231.9951113710770869
 31
0.0
  0
LINE
  5
149A5
  8
0
 10
4385.1938862329998301
 20
231.9557417817935914
 30
0.0
 11
4385.1938862329998301
 21
231.9951113710770869
 31
0.0
  0
ARC
  5
149A6
  8
0
 10
4385.1497982871123895
 20
231.9953604800078892
 30
0.0
 40
0.0403803299803939
 50
359.6465362984455965
 51
47.5946076437727896
  0
ARC
  5
149A7
  8
0
 10
4385.1492589699573728
 20
231.9953427614480006
 30
0.0
 40
0.044627862913455
 50
359.7029265976904071
 51
41.9278096567938405
  0
LINE
  5
149A8
  8
0
 10
4385.2458036139014439
 20
231.9557418216483029
 30
0.0
 11
4385.2458036139014439
 21
231.9951113710770869
 31
0.0
  0
ARC
  5
149A9
  8
0
 10
4385.1415501066785509
 20
231.9951057304621997
 30
0.0
 40
0.1042535073741386
 50
0.0030999765577634
 51
16.6684246463623111
  0
LINE
  5
149AA
  8
0
 10
4384.5843787734829675
 20
231.8101614988592019
 30
0.0
 11
4385.3093645839680903
 21
231.8082705997269102
 31
0.0
  0
LINE
  5
149AB
  8
0
 10
4385.3093645839680903
 20
231.8082705997269102
 30
0.0
 11
4385.3104361995956424
 21
231.6901437901402119
 31
0.0
  0
LINE
  5
149AC
  8
0
 10
4385.3104361995956424
 20
231.6901437901402119
 30
0.0
 11
4384.5858478555692272
 21
231.6920428249435986
 31
0.0
  0
LINE
  5
149AD
  8
0
 10
4384.5858478555692272
 20
231.6920428249435986
 30
0.0
 11
4384.5843787734829675
 21
231.8101614988592019
 31
0.0
  0
LINE
  5
149AE
  8
0
 10
4384.5852642722684323
 20
231.7391749695269993
 30
0.0
 11
4385.281930245067997
 21
231.7391755043269939
 31
0.0
  0
LINE
  5
149AF
  8
0
 10
4385.281930245067997
 20
231.7391755043269939
 30
0.0
 11
4385.3104361995956424
 21
231.6901437901402119
 31
0.0
  0
LINE
  5
149B0
  8
0
 10
4384.5846740664710524
 20
231.7864190433269869
 30
0.0
 11
4384.613629118866811
 21
231.7864190433269869
 31
0.0
  0
LINE
  5
149B1
  8
0
 10
4384.613629118866811
 20
231.7864190433269869
 30
0.0
 11
4384.613629118866811
 21
231.739174991301411
 31
0.0
  0
LINE
  5
149B2
  8
0
 10
4384.624754271868369
 20
231.7391749998417083
 30
0.0
 11
4384.624754271868369
 21
231.7864190433269869
 31
0.0
  0
LINE
  5
149B3
  8
0
 10
4384.624754271868369
 20
231.7864190433269869
 30
0.0
 11
4384.6692548840692325
 21
231.7864190433269869
 31
0.0
  0
LINE
  5
149B4
  8
0
 10
4384.6692548840692325
 20
231.7864190433269869
 30
0.0
 11
4384.6692548840692325
 21
231.7391750340028977
 31
0.0
  0
LINE
  5
149B5
  8
0
 10
4384.6803800371681064
 20
231.7391750425431951
 30
0.0
 11
4384.6803800371681064
 21
231.7864190433269869
 31
0.0
  0
LINE
  5
149B6
  8
0
 10
4384.6803800371681064
 20
231.7864190433269869
 30
0.0
 11
4384.7248806493671509
 21
231.7864190433269869
 31
0.0
  0
LINE
  5
149B7
  8
0
 10
4384.7248806493671509
 20
231.7864190433269869
 30
0.0
 11
4384.7248806493671509
 21
231.7391750767042993
 31
0.0
  0
LINE
  5
149B8
  8
0
 10
4384.7360058023677993
 20
231.7391750852447103
 30
0.0
 11
4384.7360058023677993
 21
231.7864190433269869
 31
0.0
  0
LINE
  5
149B9
  8
0
 10
4384.7360058023677993
 20
231.7864190433269869
 30
0.0
 11
4384.7805064145677534
 21
231.7864190433269869
 31
0.0
  0
LINE
  5
149BA
  8
0
 10
4384.7805064145677534
 20
231.7864190433269869
 30
0.0
 11
4384.7805064145677534
 21
231.7391751194057861
 31
0.0
  0
LINE
  5
149BB
  8
0
 10
4384.7916315676684462
 20
231.7391751279461118
 30
0.0
 11
4384.7916315676684462
 21
231.7864190433269869
 31
0.0
  0
LINE
  5
149BC
  8
0
 10
4384.7916315676684462
 20
231.7864190433269869
 30
0.0
 11
4384.8361321798684003
 21
231.7864190433269869
 31
0.0
  0
LINE
  5
149BD
  8
0
 10
4384.8361321798684003
 20
231.7864190433269869
 30
0.0
 11
4384.8361321798684003
 21
231.7391751621073013
 31
0.0
  0
LINE
  5
149BE
  8
0
 10
4384.8472573328681392
 20
231.7391751706475986
 30
0.0
 11
4384.8472573328681392
 21
231.7864190433269869
 31
0.0
  0
LINE
  5
149BF
  8
0
 10
4384.8472573328681392
 20
231.7864190433269869
 30
0.0
 11
4384.8917579450690027
 21
231.7864190433269869
 31
0.0
  0
LINE
  5
149C0
  8
0
 10
4384.8917579450690027
 20
231.7864190433269869
 30
0.0
 11
4384.8917579450690027
 21
231.7391752048087881
 31
0.0
  0
LINE
  5
149C1
  8
0
 10
4384.9028830981678766
 20
231.7391752133491138
 30
0.0
 11
4384.9028830981678766
 21
231.7864190433269869
 31
0.0
  0
LINE
  5
149C2
  8
0
 10
4384.9028830981678766
 20
231.7864190433269869
 30
0.0
 11
4384.9473837103669212
 21
231.7864190433269869
 31
0.0
  0
LINE
  5
149C3
  8
0
 10
4384.9473837103669212
 20
231.7864190433269869
 30
0.0
 11
4384.9473837103669212
 21
231.7391752475101896
 31
0.0
  0
LINE
  5
149C4
  8
0
 10
4384.9585088633693886
 20
231.739175256050487
 30
0.0
 11
4384.9585088633693886
 21
231.7864190433269869
 31
0.0
  0
LINE
  5
149C5
  8
0
 10
4384.9585088633693886
 20
231.7864190433269869
 30
0.0
 11
4385.0030094755684331
 21
231.7864190433269869
 31
0.0
  0
LINE
  5
149C6
  8
0
 10
4385.0030094755684331
 20
231.7864190433269869
 30
0.0
 11
4385.0030094755684331
 21
231.7391752902117048
 31
0.0
  0
LINE
  5
149C7
  8
0
 10
4385.0141346286682165
 20
231.7391752987520022
 30
0.0
 11
4385.0141346286682165
 21
231.7864190433269869
 31
0.0
  0
LINE
  5
149C8
  8
0
 10
4385.0141346286682165
 20
231.7864190433269869
 30
0.0
 11
4385.0586352408681705
 21
231.7864190433269869
 31
0.0
  0
LINE
  5
149C9
  8
0
 10
4385.0586352408681705
 20
231.7864190433269869
 30
0.0
 11
4385.0586352408681705
 21
231.7391753329131916
 31
0.0
  0
LINE
  5
149CA
  8
0
 10
4385.0697603938669999
 20
231.7391753414534037
 30
0.0
 11
4385.0697603938669999
 21
231.7864190433269869
 31
0.0
  0
LINE
  5
149CB
  8
0
 10
4385.0697603938669999
 20
231.7864190433269869
 30
0.0
 11
4385.1142610060678635
 21
231.7864190433269869
 31
0.0
  0
LINE
  5
149CC
  8
0
 10
4385.1142610060678635
 20
231.7864190433269869
 30
0.0
 11
4385.1142610060678635
 21
231.7391753756147068
 31
0.0
  0
LINE
  5
149CD
  8
0
 10
4385.1253861591685563
 20
231.7391753841548905
 30
0.0
 11
4385.1253861591685563
 21
231.7864190433269869
 31
0.0
  0
LINE
  5
149CE
  8
0
 10
4385.1253861591685563
 20
231.7864190433269869
 30
0.0
 11
4385.1698867713676009
 21
231.7864190433269869
 31
0.0
  0
LINE
  5
149CF
  8
0
 10
4385.1698867713676009
 20
231.7864190433269869
 30
0.0
 11
4385.1698867713676009
 21
231.7391754183161083
 31
0.0
  0
LINE
  5
149D0
  8
0
 10
4385.1921370774680327
 20
231.7391754353967031
 30
0.0
 11
4385.1921370774680327
 21
231.7785450275270023
 31
0.0
  0
LINE
  5
149D1
  8
0
 10
4385.1958454617679308
 20
231.739175438243393
 30
0.0
 11
4385.1958454617679308
 21
231.7785450275270023
 31
0.0
  0
ARC
  5
149D2
  8
0
 10
4385.1517575158786713
 20
231.7787941364576909
 30
0.0
 40
0.0403803299803939
 50
359.6465362984455965
 51
47.5946076437727896
  0
ARC
  5
149D3
  8
0
 10
4385.151218198724564
 20
231.7787764178978875
 30
0.0
 40
0.044627862913455
 50
359.7029265976904071
 51
41.9278096567938405
  0
LINE
  5
149D4
  8
0
 10
4385.2477628426668161
 20
231.7391754780981046
 30
0.0
 11
4385.2477628426668161
 21
231.7785450275270023
 31
0.0
  0
ARC
  5
149D5
  8
0
 10
4385.1435093354457422
 20
231.7785393869120867
 30
0.0
 40
0.1042535073741386
 50
0.0030999765577634
 51
16.6684246463623111
  0
LINE
  5
149D6
  8
0
 10
4384.5863310307813663
 20
231.5935936500987111
 30
0.0
 11
4385.3113168412646701
 21
231.5917027509665047
 31
0.0
  0
LINE
  5
149D7
  8
0
 10
4385.3113168412646701
 20
231.5917027509665047
 30
0.0
 11
4385.3123884568940412
 21
231.4735759413796927
 31
0.0
  0
LINE
  5
149D8
  8
0
 10
4385.3123884568940412
 20
231.4735759413796927
 30
0.0
 11
4384.5878001128667165
 21
231.4754749761831079
 31
0.0
  0
LINE
  5
149D9
  8
0
 10
4384.5878001128667165
 20
231.4754749761831079
 30
0.0
 11
4384.5863310307813663
 21
231.5935936500987111
 31
0.0
  0
LINE
  5
149DA
  8
0
 10
4384.587216529565012
 20
231.5226071207665086
 30
0.0
 11
4385.2838825023645768
 21
231.5226076555665031
 31
0.0
  0
LINE
  5
149DB
  8
0
 10
4385.2838825023645768
 20
231.5226076555665031
 30
0.0
 11
4385.3123884568940412
 21
231.4735759413796927
 31
0.0
  0
LINE
  5
149DC
  8
0
 10
4384.5866263237667226
 20
231.5698511945664961
 30
0.0
 11
4384.6155813761661193
 21
231.5698511945664961
 31
0.0
  0
LINE
  5
149DD
  8
0
 10
4384.6155813761661193
 20
231.5698511945664961
 30
0.0
 11
4384.6155813761661193
 21
231.5226071425410055
 31
0.0
  0
LINE
  5
149DE
  8
0
 10
4384.6267065291658582
 20
231.5226071510811892
 30
0.0
 11
4384.6267065291658582
 21
231.5698511945664961
 31
0.0
  0
LINE
  5
149DF
  8
0
 10
4384.6267065291658582
 20
231.5698511945664961
 30
0.0
 11
4384.6712071413649028
 21
231.5698511945664961
 31
0.0
  0
LINE
  5
149E0
  8
0
 10
4384.6712071413649028
 20
231.5698511945664961
 30
0.0
 11
4384.6712071413649028
 21
231.522607185242407
 31
0.0
  0
LINE
  5
149E1
  8
0
 10
4384.6823322944655956
 20
231.5226071937827044
 30
0.0
 11
4384.6823322944655956
 21
231.5698511945664961
 31
0.0
  0
LINE
  5
149E2
  8
0
 10
4384.6823322944655956
 20
231.5698511945664961
 30
0.0
 11
4384.7268329066646402
 21
231.5698511945664961
 31
0.0
  0
LINE
  5
149E3
  8
0
 10
4384.7268329066646402
 20
231.5698511945664961
 30
0.0
 11
4384.7268329066646402
 21
231.5226072279438938
 31
0.0
  0
LINE
  5
149E4
  8
0
 10
4384.7379580596652886
 20
231.5226072364841912
 30
0.0
 11
4384.7379580596652886
 21
231.5698511945664961
 31
0.0
  0
LINE
  5
149E5
  8
0
 10
4384.7379580596652886
 20
231.5698511945664961
 30
0.0
 11
4384.7824586718652426
 21
231.5698511945664961
 31
0.0
  0
LINE
  5
149E6
  8
0
 10
4384.7824586718652426
 20
231.5698511945664961
 30
0.0
 11
4384.7824586718652426
 21
231.5226072706452953
 31
0.0
  0
LINE
  5
149E7
  8
0
 10
4384.793583824965026
 20
231.5226072791855927
 30
0.0
 11
4384.793583824965026
 21
231.5698511945664961
 31
0.0
  0
LINE
  5
149E8
  8
0
 10
4384.793583824965026
 20
231.5698511945664961
 30
0.0
 11
4384.83808443716498
 21
231.5698511945664961
 31
0.0
  0
LINE
  5
149E9
  8
0
 10
4384.83808443716498
 20
231.5698511945664961
 30
0.0
 11
4384.83808443716498
 21
231.5226073133468105
 31
0.0
  0
LINE
  5
149EA
  8
0
 10
4384.849209590164719
 20
231.5226073218871079
 30
0.0
 11
4384.849209590164719
 21
231.5698511945664961
 31
0.0
  0
LINE
  5
149EB
  8
0
 10
4384.849209590164719
 20
231.5698511945664961
 30
0.0
 11
4384.893710202364673
 21
231.5698511945664961
 31
0.0
  0
LINE
  5
149EC
  8
0
 10
4384.893710202364673
 20
231.5698511945664961
 30
0.0
 11
4384.893710202364673
 21
231.5226073560482973
 31
0.0
  0
LINE
  5
149ED
  8
0
 10
4384.9048353554662754
 20
231.5226073645885947
 30
0.0
 11
4384.9048353554662754
 21
231.5698511945664961
 31
0.0
  0
LINE
  5
149EE
  8
0
 10
4384.9048353554662754
 20
231.5698511945664961
 30
0.0
 11
4384.9493359676653199
 21
231.5698511945664961
 31
0.0
  0
LINE
  5
149EF
  8
0
 10
4384.9493359676653199
 20
231.5698511945664961
 30
0.0
 11
4384.9493359676653199
 21
231.5226073987496989
 31
0.0
  0
LINE
  5
149F0
  8
0
 10
4384.9604611206650588
 20
231.5226074072899962
 30
0.0
 11
4384.9604611206650588
 21
231.5698511945664961
 31
0.0
  0
LINE
  5
149F1
  8
0
 10
4384.9604611206650588
 20
231.5698511945664961
 30
0.0
 11
4385.0049617328650129
 21
231.5698511945664961
 31
0.0
  0
LINE
  5
149F2
  8
0
 10
4385.0049617328650129
 20
231.5698511945664961
 30
0.0
 11
4385.0049617328650129
 21
231.5226074414512141
 31
0.0
  0
LINE
  5
149F3
  8
0
 10
4385.0160868859657057
 20
231.5226074499915114
 30
0.0
 11
4385.0160868859657057
 21
231.5698511945664961
 31
0.0
  0
LINE
  5
149F4
  8
0
 10
4385.0160868859657057
 20
231.5698511945664961
 30
0.0
 11
4385.0605874981647503
 21
231.5698511945664961
 31
0.0
  0
LINE
  5
149F5
  8
0
 10
4385.0605874981647503
 20
231.5698511945664961
 30
0.0
 11
4385.0605874981647503
 21
231.5226074841527009
 31
0.0
  0
LINE
  5
149F6
  8
0
 10
4385.0717126511653987
 20
231.522607492692913
 30
0.0
 11
4385.0717126511653987
 21
231.5698511945664961
 31
0.0
  0
LINE
  5
149F7
  8
0
 10
4385.0717126511653987
 20
231.5698511945664961
 30
0.0
 11
4385.1162132633653528
 21
231.5698511945664961
 31
0.0
  0
LINE
  5
149F8
  8
0
 10
4385.1162132633653528
 20
231.5698511945664961
 30
0.0
 11
4385.1162132633653528
 21
231.5226075268541024
 31
0.0
  0
LINE
  5
149F9
  8
0
 10
4385.1273384164651361
 20
231.5226075353943997
 30
0.0
 11
4385.1273384164651361
 21
231.5698511945664961
 31
0.0
  0
LINE
  5
149FA
  8
0
 10
4385.1273384164651361
 20
231.5698511945664961
 30
0.0
 11
4385.1718390286641807
 21
231.5698511945664961
 31
0.0
  0
LINE
  5
149FB
  8
0
 10
4385.1718390286641807
 20
231.5698511945664961
 30
0.0
 11
4385.1718390286641807
 21
231.5226075695555892
 31
0.0
  0
LINE
  5
149FC
  8
0
 10
4385.1940893347646124
 20
231.5226075866362123
 30
0.0
 11
4385.1940893347646124
 21
231.5619771787665115
 31
0.0
  0
LINE
  5
149FD
  8
0
 10
4385.1977977190654201
 20
231.5226075894829023
 30
0.0
 11
4385.1977977190654201
 21
231.5619771787665115
 31
0.0
  0
ARC
  5
149FE
  8
0
 10
4385.1537097731761605
 20
231.5622262876972002
 30
0.0
 40
0.0403803299803939
 50
359.6465362984455965
 51
47.5946076437727896
  0
ARC
  5
149FF
  8
0
 10
4385.1531704560220533
 20
231.5622085691373968
 30
0.0
 40
0.044627862913455
 50
359.7029265976904071
 51
41.9278096567938405
  0
LINE
  5
14A00
  8
0
 10
4385.2497150999652149
 20
231.5226076293376991
 30
0.0
 11
4385.2497150999652149
 21
231.5619771787665115
 31
0.0
  0
ARC
  5
14A01
  8
0
 10
4385.1454615927441409
 20
231.561971538151596
 30
0.0
 40
0.1042535073741386
 50
0.0030999765577634
 51
16.6684246463623111
  0
LINE
  5
14A02
  8
0
 10
4384.5882764216867145
 20
231.3770247732961138
 30
0.0
 11
4385.3132622321709277
 21
231.3751338741637937
 31
0.0
  0
LINE
  5
14A03
  8
0
 10
4385.3132622321709277
 20
231.3751338741637937
 30
0.0
 11
4385.3143338478012083
 21
231.2570070645770954
 31
0.0
  0
LINE
  5
14A04
  8
0
 10
4385.3143338478012083
 20
231.2570070645770954
 30
0.0
 11
4384.5897455037729742
 21
231.2589060993805106
 31
0.0
  0
LINE
  5
14A05
  8
0
 10
4384.5897455037729742
 20
231.2589060993805106
 30
0.0
 11
4384.5882764216867145
 21
231.3770247732961138
 31
0.0
  0
LINE
  5
14A06
  8
0
 10
4384.5891619204721792
 20
231.3060382439637976
 30
0.0
 11
4385.285827893271744
 21
231.3060387787637922
 31
0.0
  0
LINE
  5
14A07
  8
0
 10
4385.285827893271744
 20
231.3060387787637922
 30
0.0
 11
4385.3143338478012083
 21
231.2570070645770954
 31
0.0
  0
LINE
  5
14A08
  8
0
 10
4384.5885717146747993
 20
231.3532823177638136
 30
0.0
 11
4384.617526767072377
 21
231.3532823177638136
 31
0.0
  0
LINE
  5
14A09
  8
0
 10
4384.617526767072377
 20
231.3532823177638136
 30
0.0
 11
4384.617526767072377
 21
231.3060382657382945
 31
0.0
  0
LINE
  5
14A0A
  8
0
 10
4384.6286519200721159
 20
231.3060382742785919
 30
0.0
 11
4384.6286519200721159
 21
231.3532823177638136
 31
0.0
  0
LINE
  5
14A0B
  8
0
 10
4384.6286519200721159
 20
231.3532823177638136
 30
0.0
 11
4384.6731525322720699
 21
231.3532823177638136
 31
0.0
  0
LINE
  5
14A0C
  8
0
 10
4384.6731525322720699
 20
231.3532823177638136
 30
0.0
 11
4384.6731525322720699
 21
231.3060383084398097
 31
0.0
  0
LINE
  5
14A0D
  8
0
 10
4384.6842776853718533
 20
231.3060383169799934
 30
0.0
 11
4384.6842776853718533
 21
231.3532823177638136
 31
0.0
  0
LINE
  5
14A0E
  8
0
 10
4384.6842776853718533
 20
231.3532823177638136
 30
0.0
 11
4384.7287782975718073
 21
231.3532823177638136
 31
0.0
  0
LINE
  5
14A0F
  8
0
 10
4384.7287782975718073
 20
231.3532823177638136
 30
0.0
 11
4384.7287782975718073
 21
231.3060383511412113
 31
0.0
  0
LINE
  5
14A10
  8
0
 10
4384.7399034505706368
 20
231.3060383596815086
 30
0.0
 11
4384.7399034505706368
 21
231.3532823177638136
 31
0.0
  0
LINE
  5
14A11
  8
0
 10
4384.7399034505706368
 20
231.3532823177638136
 30
0.0
 11
4384.7844040627705908
 21
231.3532823177638136
 31
0.0
  0
LINE
  5
14A12
  8
0
 10
4384.7844040627705908
 20
231.3532823177638136
 30
0.0
 11
4384.7844040627705908
 21
231.306038393842698
 31
0.0
  0
LINE
  5
14A13
  8
0
 10
4384.7955292158721932
 20
231.3060384023829954
 30
0.0
 11
4384.7955292158721932
 21
231.3532823177638136
 31
0.0
  0
LINE
  5
14A14
  8
0
 10
4384.7955292158721932
 20
231.3532823177638136
 30
0.0
 11
4384.8400298280721472
 21
231.3532823177638136
 31
0.0
  0
LINE
  5
14A15
  8
0
 10
4384.8400298280721472
 20
231.3532823177638136
 30
0.0
 11
4384.8400298280721472
 21
231.3060384365442133
 31
0.0
  0
LINE
  5
14A16
  8
0
 10
4384.8511549810709766
 20
231.3060384450843969
 30
0.0
 11
4384.8511549810709766
 21
231.3532823177638136
 31
0.0
  0
LINE
  5
14A17
  8
0
 10
4384.8511549810709766
 20
231.3532823177638136
 30
0.0
 11
4384.8956555932709307
 21
231.3532823177638136
 31
0.0
  0
LINE
  5
14A18
  8
0
 10
4384.8956555932709307
 20
231.3532823177638136
 30
0.0
 11
4384.8956555932709307
 21
231.3060384792455864
 31
0.0
  0
LINE
  5
14A19
  8
0
 10
4384.9067807463716235
 20
231.3060384877859121
 30
0.0
 11
4384.9067807463716235
 21
231.3532823177638136
 31
0.0
  0
LINE
  5
14A1A
  8
0
 10
4384.9067807463716235
 20
231.3532823177638136
 30
0.0
 11
4384.9512813585715776
 21
231.3532823177638136
 31
0.0
  0
LINE
  5
14A1B
  8
0
 10
4384.9512813585715776
 20
231.3532823177638136
 30
0.0
 11
4384.9512813585715776
 21
231.3060385219471016
 31
0.0
  0
LINE
  5
14A1C
  8
0
 10
4384.962406511572226
 20
231.3060385304873989
 30
0.0
 11
4384.962406511572226
 21
231.3532823177638136
 31
0.0
  0
LINE
  5
14A1D
  8
0
 10
4384.962406511572226
 20
231.3532823177638136
 30
0.0
 11
4385.0069071237721801
 21
231.3532823177638136
 31
0.0
  0
LINE
  5
14A1E
  8
0
 10
4385.0069071237721801
 20
231.3532823177638136
 30
0.0
 11
4385.0069071237721801
 21
231.3060385646485031
 31
0.0
  0
LINE
  5
14A1F
  8
0
 10
4385.0180322768719634
 20
231.3060385731889141
 30
0.0
 11
4385.0180322768719634
 21
231.3532823177638136
 31
0.0
  0
LINE
  5
14A20
  8
0
 10
4385.0180322768719634
 20
231.3532823177638136
 30
0.0
 11
4385.062532889071008
 21
231.3532823177638136
 31
0.0
  0
LINE
  5
14A21
  8
0
 10
4385.062532889071008
 20
231.3532823177638136
 30
0.0
 11
4385.062532889071008
 21
231.3060386073499899
 31
0.0
  0
LINE
  5
14A22
  8
0
 10
4385.0736580420707469
 20
231.3060386158902872
 30
0.0
 11
4385.0736580420707469
 21
231.3532823177638136
 31
0.0
  0
LINE
  5
14A23
  8
0
 10
4385.0736580420707469
 20
231.3532823177638136
 30
0.0
 11
4385.1181586542707009
 21
231.3532823177638136
 31
0.0
  0
LINE
  5
14A24
  8
0
 10
4385.1181586542707009
 20
231.3532823177638136
 30
0.0
 11
4385.1181586542707009
 21
231.3060386500515051
 31
0.0
  0
LINE
  5
14A25
  8
0
 10
4385.1292838073723033
 20
231.3060386585918025
 30
0.0
 11
4385.1292838073723033
 21
231.3532823177638136
 31
0.0
  0
LINE
  5
14A26
  8
0
 10
4385.1292838073723033
 20
231.3532823177638136
 30
0.0
 11
4385.1737844195722573
 21
231.3532823177638136
 31
0.0
  0
LINE
  5
14A27
  8
0
 10
4385.1737844195722573
 20
231.3532823177638136
 30
0.0
 11
4385.1737844195722573
 21
231.3060386927529919
 31
0.0
  0
LINE
  5
14A28
  8
0
 10
4385.1960347256717796
 20
231.3060387098335013
 30
0.0
 11
4385.1960347256717796
 21
231.3454083019638006
 31
0.0
  0
LINE
  5
14A29
  8
0
 10
4385.1997431099707683
 20
231.306038712680305
 30
0.0
 11
4385.1997431099707683
 21
231.3454083019638006
 31
0.0
  0
ARC
  5
14A2A
  8
0
 10
4385.1556551640833277
 20
231.3456574108946029
 30
0.0
 40
0.0403803299803939
 50
359.6465362984455965
 51
47.5946076437727896
  0
ARC
  5
14A2B
  8
0
 10
4385.1551158469292204
 20
231.3456396923346858
 30
0.0
 40
0.044627862913455
 50
359.7029265976904071
 51
41.9278096567938405
  0
LINE
  5
14A2C
  8
0
 10
4385.2516604908723821
 20
231.3060387525349881
 30
0.0
 11
4385.2516604908723821
 21
231.3454083019638006
 31
0.0
  0
ARC
  5
14A2D
  8
0
 10
4385.1474069836513081
 20
231.3454026613489134
 30
0.0
 40
0.1042535073741386
 50
0.0030999765577634
 51
16.6684246463623111
  0
LINE
  5
14A2E
  8
0
 10
4384.5902149538360391
 20
231.160461330166612
 30
0.0
 11
4385.3152007643202523
 21
231.1585704310344056
 31
0.0
  0
LINE
  5
14A2F
  8
0
 10
4385.3152007643202523
 20
231.1585704310344056
 30
0.0
 11
4385.3162723799478044
 21
231.0404436214477073
 31
0.0
  0
LINE
  5
14A30
  8
0
 10
4385.3162723799478044
 20
231.0404436214477073
 30
0.0
 11
4384.5916840359213893
 21
231.042342656251094
 31
0.0
  0
LINE
  5
14A31
  8
0
 10
4384.5916840359213893
 20
231.042342656251094
 30
0.0
 11
4384.5902149538360391
 21
231.160461330166612
 31
0.0
  0
LINE
  5
14A32
  8
0
 10
4384.5911004526196848
 20
231.0894748008344095
 30
0.0
 11
4385.2877664254192496
 21
231.089475335634404
 31
0.0
  0
LINE
  5
14A33
  8
0
 10
4385.2877664254192496
 20
231.089475335634404
 30
0.0
 11
4385.3162723799478044
 21
231.0404436214477073
 31
0.0
  0
LINE
  5
14A34
  8
0
 10
4384.5905102468223049
 20
231.136718874634397
 30
0.0
 11
4384.6194652992207921
 21
231.136718874634397
 31
0.0
  0
LINE
  5
14A35
  8
0
 10
4384.6194652992207921
 20
231.136718874634397
 30
0.0
 11
4384.6194652992207921
 21
231.0894748226087927
 31
0.0
  0
LINE
  5
14A36
  8
0
 10
4384.6305904522196215
 20
231.0894748311492037
 30
0.0
 11
4384.6305904522196215
 21
231.136718874634397
 31
0.0
  0
LINE
  5
14A37
  8
0
 10
4384.6305904522196215
 20
231.136718874634397
 30
0.0
 11
4384.6750910644195756
 21
231.136718874634397
 31
0.0
  0
LINE
  5
14A38
  8
0
 10
4384.6750910644195756
 20
231.136718874634397
 30
0.0
 11
4384.6750910644195756
 21
231.0894748653103079
 31
0.0
  0
LINE
  5
14A39
  8
0
 10
4384.6862162175202684
 20
231.0894748738506053
 30
0.0
 11
4384.6862162175202684
 21
231.136718874634397
 31
0.0
  0
LINE
  5
14A3A
  8
0
 10
4384.6862162175202684
 20
231.136718874634397
 30
0.0
 11
4384.7307168297211319
 21
231.136718874634397
 31
0.0
  0
LINE
  5
14A3B
  8
0
 10
4384.7307168297211319
 20
231.136718874634397
 30
0.0
 11
4384.7307168297211319
 21
231.0894749080117947
 31
0.0
  0
LINE
  5
14A3C
  8
0
 10
4384.7418419827199614
 20
231.0894749165520921
 30
0.0
 11
4384.7418419827199614
 21
231.136718874634397
 31
0.0
  0
LINE
  5
14A3D
  8
0
 10
4384.7418419827199614
 20
231.136718874634397
 30
0.0
 11
4384.7863425949199154
 21
231.136718874634397
 31
0.0
  0
LINE
  5
14A3E
  8
0
 10
4384.7863425949199154
 20
231.136718874634397
 30
0.0
 11
4384.7863425949199154
 21
231.0894749507133099
 31
0.0
  0
LINE
  5
14A3F
  8
0
 10
4384.7974677480206083
 20
231.0894749592534936
 30
0.0
 11
4384.7974677480206083
 21
231.136718874634397
 31
0.0
  0
LINE
  5
14A40
  8
0
 10
4384.7974677480206083
 20
231.136718874634397
 30
0.0
 11
4384.8419683602205623
 21
231.136718874634397
 31
0.0
  0
LINE
  5
14A41
  8
0
 10
4384.8419683602205623
 20
231.136718874634397
 30
0.0
 11
4384.8419683602205623
 21
231.0894749934147114
 31
0.0
  0
LINE
  5
14A42
  8
0
 10
4384.8530935132203012
 20
231.0894750019550088
 30
0.0
 11
4384.8530935132203012
 21
231.136718874634397
 31
0.0
  0
LINE
  5
14A43
  8
0
 10
4384.8530935132203012
 20
231.136718874634397
 30
0.0
 11
4384.8975941254202553
 21
231.136718874634397
 31
0.0
  0
LINE
  5
14A44
  8
0
 10
4384.8975941254202553
 20
231.136718874634397
 30
0.0
 11
4384.8975941254202553
 21
231.0894750361161982
 31
0.0
  0
LINE
  5
14A45
  8
0
 10
4384.9087192785209481
 20
231.0894750446564956
 30
0.0
 11
4384.9087192785209481
 21
231.136718874634397
 31
0.0
  0
LINE
  5
14A46
  8
0
 10
4384.9087192785209481
 20
231.136718874634397
 30
0.0
 11
4384.9532198907209022
 21
231.136718874634397
 31
0.0
  0
LINE
  5
14A47
  8
0
 10
4384.9532198907209022
 20
231.136718874634397
 30
0.0
 11
4384.9532198907209022
 21
231.0894750788177134
 31
0.0
  0
LINE
  5
14A48
  8
0
 10
4384.9643450437197316
 20
231.0894750873578971
 30
0.0
 11
4384.9643450437197316
 21
231.136718874634397
 31
0.0
  0
LINE
  5
14A49
  8
0
 10
4384.9643450437197316
 20
231.136718874634397
 30
0.0
 11
4385.0088456559196857
 21
231.136718874634397
 31
0.0
  0
LINE
  5
14A4A
  8
0
 10
4385.0088456559196857
 20
231.136718874634397
 30
0.0
 11
4385.0088456559196857
 21
231.0894751215192002
 31
0.0
  0
LINE
  5
14A4B
  8
0
 10
4385.0199708090203785
 20
231.0894751300594123
 30
0.0
 11
4385.0199708090203785
 21
231.136718874634397
 31
0.0
  0
LINE
  5
14A4C
  8
0
 10
4385.0199708090203785
 20
231.136718874634397
 30
0.0
 11
4385.0644714212203326
 21
231.136718874634397
 31
0.0
  0
LINE
  5
14A4D
  8
0
 10
4385.0644714212203326
 20
231.136718874634397
 30
0.0
 11
4385.0644714212203326
 21
231.0894751642206018
 31
0.0
  0
LINE
  5
14A4E
  8
0
 10
4385.0755965742200715
 20
231.0894751727608991
 30
0.0
 11
4385.0755965742200715
 21
231.136718874634397
 31
0.0
  0
LINE
  5
14A4F
  8
0
 10
4385.0755965742200715
 20
231.136718874634397
 30
0.0
 11
4385.120097186420935
 21
231.136718874634397
 31
0.0
  0
LINE
  5
14A50
  8
0
 10
4385.120097186420935
 20
231.136718874634397
 30
0.0
 11
4385.120097186420935
 21
231.0894752069220885
 31
0.0
  0
LINE
  5
14A51
  8
0
 10
4385.1312223395198089
 20
231.0894752154623859
 30
0.0
 11
4385.1312223395198089
 21
231.136718874634397
 31
0.0
  0
LINE
  5
14A52
  8
0
 10
4385.1312223395198089
 20
231.136718874634397
 30
0.0
 11
4385.1757229517197629
 21
231.136718874634397
 31
0.0
  0
LINE
  5
14A53
  8
0
 10
4385.1757229517197629
 20
231.136718874634397
 30
0.0
 11
4385.1757229517197629
 21
231.0894752496234901
 31
0.0
  0
LINE
  5
14A54
  8
0
 10
4385.1979732578192852
 20
231.0894752667041132
 30
0.0
 11
4385.1979732578192852
 21
231.1288448588344124
 31
0.0
  0
LINE
  5
14A55
  8
0
 10
4385.2016816421210024
 20
231.0894752695508885
 30
0.0
 11
4385.2016816421210024
 21
231.1288448588344124
 31
0.0
  0
ARC
  5
14A56
  8
0
 10
4385.1575936962326523
 20
231.1290939677651863
 30
0.0
 40
0.0403803299803939
 50
359.6465362984455965
 51
47.5946076437727896
  0
ARC
  5
14A57
  8
0
 10
4385.157054379076726
 20
231.1290762492052977
 30
0.0
 40
0.044627862913455
 50
359.7029265976904071
 51
41.9278096567938405
  0
LINE
  5
14A58
  8
0
 10
4385.2535990230207972
 20
231.0894753094056
 30
0.0
 11
4385.2535990230207972
 21
231.1288448588344124
 31
0.0
  0
ARC
  5
14A59
  8
0
 10
4385.1493455157979042
 20
231.1288392182194968
 30
0.0
 40
0.1042535073741386
 50
0.0030999765577634
 51
16.6684246463623111
  0
LINE
  5
14A5A
  8
0
 10
4384.5921467860207486
 20
230.9438948856403897
 30
0.0
 11
4385.3171325965049618
 21
230.9420039865082117
 31
0.0
  0
LINE
  5
14A5B
  8
0
 10
4385.3171325965049618
 20
230.9420039865082117
 30
0.0
 11
4385.3182042121352424
 21
230.8238771769213997
 31
0.0
  0
LINE
  5
14A5C
  8
0
 10
4385.3182042121352424
 20
230.8238771769213997
 30
0.0
 11
4384.5936158681070083
 21
230.8257762117249001
 31
0.0
  0
LINE
  5
14A5D
  8
0
 10
4384.5936158681070083
 20
230.8257762117249001
 30
0.0
 11
4384.5921467860207486
 21
230.9438948856403897
 31
0.0
  0
LINE
  5
14A5E
  8
0
 10
4384.5930322848062133
 20
230.8729083563081872
 30
0.0
 11
4385.2896982576048686
 21
230.8729088911082101
 31
0.0
  0
LINE
  5
14A5F
  8
0
 10
4385.2896982576048686
 20
230.8729088911082101
 30
0.0
 11
4385.3182042121352424
 21
230.8238771769213997
 31
0.0
  0
LINE
  5
14A60
  8
0
 10
4384.5924420790070144
 20
230.9201524301082031
 30
0.0
 11
4384.6213971314064111
 21
230.9201524301080894
 31
0.0
  0
LINE
  5
14A61
  8
0
 10
4384.6213971314064111
 20
230.9201524301080894
 30
0.0
 11
4384.6213971314064111
 21
230.8729083780825988
 31
0.0
  0
LINE
  5
14A62
  8
0
 10
4384.63252228440615
 20
230.8729083866228962
 30
0.0
 11
4384.63252228440615
 21
230.9201524301080894
 31
0.0
  0
LINE
  5
14A63
  8
0
 10
4384.63252228440615
 20
230.9201524301080894
 30
0.0
 11
4384.677022896606104
 21
230.9201524301080894
 31
0.0
  0
LINE
  5
14A64
  8
0
 10
4384.677022896606104
 20
230.9201524301080894
 30
0.0
 11
4384.677022896606104
 21
230.872908420784114
 31
0.0
  0
LINE
  5
14A65
  8
0
 10
4384.6881480497058874
 20
230.8729084293244114
 30
0.0
 11
4384.6881480497058874
 21
230.9201524301080894
 31
0.0
  0
LINE
  5
14A66
  8
0
 10
4384.6881480497058874
 20
230.9201524301080894
 30
0.0
 11
4384.7326486619058414
 21
230.9201524301080894
 31
0.0
  0
LINE
  5
14A67
  8
0
 10
4384.7326486619058414
 20
230.9201524301080894
 30
0.0
 11
4384.7326486619058414
 21
230.8729084634856008
 31
0.0
  0
LINE
  5
14A68
  8
0
 10
4384.7437738149046709
 20
230.8729084720258129
 30
0.0
 11
4384.7437738149046709
 21
230.9201524301080894
 31
0.0
  0
LINE
  5
14A69
  8
0
 10
4384.7437738149046709
 20
230.9201524301080894
 30
0.0
 11
4384.7882744271046249
 21
230.9201524301080894
 31
0.0
  0
LINE
  5
14A6A
  8
0
 10
4384.7882744271046249
 20
230.9201524301080894
 30
0.0
 11
4384.7882744271046249
 21
230.8729085061870023
 31
0.0
  0
LINE
  5
14A6B
  8
0
 10
4384.7993995802062273
 20
230.8729085147272997
 30
0.0
 11
4384.7993995802062273
 21
230.9201524301080894
 31
0.0
  0
LINE
  5
14A6C
  8
0
 10
4384.7993995802062273
 20
230.9201524301080894
 30
0.0
 11
4384.8439001924061813
 21
230.9201524301080894
 31
0.0
  0
LINE
  5
14A6D
  8
0
 10
4384.8439001924061813
 20
230.9201524301080894
 30
0.0
 11
4384.8439001924061813
 21
230.8729085488884891
 31
0.0
  0
LINE
  5
14A6E
  8
0
 10
4384.8550253454050107
 20
230.8729085574287865
 30
0.0
 11
4384.8550253454050107
 21
230.9201524301080894
 31
0.0
  0
LINE
  5
14A6F
  8
0
 10
4384.8550253454050107
 20
230.9201524301080894
 30
0.0
 11
4384.8995259576058743
 21
230.9201524301080894
 31
0.0
  0
LINE
  5
14A70
  8
0
 10
4384.8995259576058743
 20
230.9201524301080894
 30
0.0
 11
4384.8995259576058743
 21
230.8729085915898906
 31
0.0
  0
LINE
  5
14A71
  8
0
 10
4384.9106511107056576
 20
230.872908600130188
 30
0.0
 11
4384.9106511107056576
 21
230.9201524301080894
 31
0.0
  0
LINE
  5
14A72
  8
0
 10
4384.9106511107056576
 20
230.9201524301080894
 30
0.0
 11
4384.9551517229047022
 21
230.9201524301080894
 31
0.0
  0
LINE
  5
14A73
  8
0
 10
4384.9551517229047022
 20
230.9201524301080894
 30
0.0
 11
4384.9551517229047022
 21
230.8729086342914059
 31
0.0
  0
LINE
  5
14A74
  8
0
 10
4384.9662768759062601
 20
230.8729086428317032
 30
0.0
 11
4384.9662768759062601
 21
230.9201524301080894
 31
0.0
  0
LINE
  5
14A75
  8
0
 10
4384.9662768759062601
 20
230.9201524301080894
 30
0.0
 11
4385.0107774881062142
 21
230.9201524301080894
 31
0.0
  0
LINE
  5
14A76
  8
0
 10
4385.0107774881062142
 20
230.9201524301080894
 30
0.0
 11
4385.0107774881062142
 21
230.8729086769928927
 31
0.0
  0
LINE
  5
14A77
  8
0
 10
4385.0219026412059975
 20
230.87290868553319
 30
0.0
 11
4385.0219026412059975
 21
230.9201524301080894
 31
0.0
  0
LINE
  5
14A78
  8
0
 10
4385.0219026412059975
 20
230.9201524301080894
 30
0.0
 11
4385.0664032534059515
 21
230.9201524301080894
 31
0.0
  0
LINE
  5
14A79
  8
0
 10
4385.0664032534059515
 20
230.9201524301080894
 30
0.0
 11
4385.0664032534059515
 21
230.8729087196942942
 31
0.0
  0
LINE
  5
14A7A
  8
0
 10
4385.077528406404781
 20
230.8729087282347052
 30
0.0
 11
4385.077528406404781
 21
230.9201524301080894
 31
0.0
  0
LINE
  5
14A7B
  8
0
 10
4385.077528406404781
 20
230.9201524301080894
 30
0.0
 11
4385.1220290186056445
 21
230.9201524301080894
 31
0.0
  0
LINE
  5
14A7C
  8
0
 10
4385.1220290186056445
 20
230.9201524301080894
 30
0.0
 11
4385.1220290186056445
 21
230.8729087623958094
 31
0.0
  0
LINE
  5
14A7D
  8
0
 10
4385.1331541717054279
 20
230.8729087709361067
 30
0.0
 11
4385.1331541717054279
 21
230.9201524301080894
 31
0.0
  0
LINE
  5
14A7E
  8
0
 10
4385.1331541717054279
 20
230.9201524301080894
 30
0.0
 11
4385.1776547839035629
 21
230.9201524301080894
 31
0.0
  0
LINE
  5
14A7F
  8
0
 10
4385.1776547839035629
 20
230.9201524301080894
 30
0.0
 11
4385.1776547839035629
 21
230.8729088050972962
 31
0.0
  0
LINE
  5
14A80
  8
0
 10
4385.1999050900058137
 20
230.8729088221778909
 30
0.0
 11
4385.1999050900058137
 21
230.9122784143081049
 31
0.0
  0
LINE
  5
14A81
  8
0
 10
4385.2036134743048024
 20
230.8729088250246093
 30
0.0
 11
4385.2036134743048024
 21
230.9122784143081049
 31
0.0
  0
ARC
  5
14A82
  8
0
 10
4385.1595255284173618
 20
230.9125275232389072
 30
0.0
 40
0.0403803299803939
 50
359.6465362984455965
 51
47.5946076437727896
  0
ARC
  5
14A83
  8
0
 10
4385.158986211262345
 20
230.9125098046791038
 30
0.0
 40
0.044627862913455
 50
359.7029265976904071
 51
41.9278096567938405
  0
LINE
  5
14A84
  8
0
 10
4385.2555308552045972
 20
230.8729088648794061
 30
0.0
 11
4385.2555308552045972
 21
230.9122784143081049
 31
0.0
  0
ARC
  5
14A85
  8
0
 10
4385.1512773479853422
 20
230.9122727736931893
 30
0.0
 40
0.1042535073741386
 50
0.0030999765577634
 51
16.6684246463623111
  0
LINE
  5
14A86
  8
0
 10
4384.5940719018153686
 20
230.7273263254402877
 30
0.0
 11
4385.3190577122995819
 21
230.7254354263081098
 31
0.0
  0
LINE
  5
14A87
  8
0
 10
4385.3190577122995819
 20
230.7254354263081098
 30
0.0
 11
4385.3201293279280435
 21
230.6073086167214115
 31
0.0
  0
LINE
  5
14A88
  8
0
 10
4385.3201293279280435
 20
230.6073086167214115
 30
0.0
 11
4384.5955409839007189
 21
230.6092076515247982
 31
0.0
  0
LINE
  5
14A89
  8
0
 10
4384.5955409839007189
 20
230.6092076515247982
 30
0.0
 11
4384.5940719018153686
 21
230.7273263254402877
 31
0.0
  0
LINE
  5
14A8A
  8
0
 10
4384.5949574005999239
 20
230.6563397961081137
 30
0.0
 11
4385.2916233734003981
 21
230.6563403309081082
 31
0.0
  0
LINE
  5
14A8B
  8
0
 10
4385.2916233734003981
 20
230.6563403309081082
 30
0.0
 11
4385.3201293279280435
 21
230.6073086167214115
 31
0.0
  0
LINE
  5
14A8C
  8
0
 10
4384.5943671948034535
 20
230.7035838699081012
 30
0.0
 11
4384.6233222472001216
 21
230.7035838699081012
 31
0.0
  0
LINE
  5
14A8D
  8
0
 10
4384.6233222472001216
 20
230.7035838699081012
 30
0.0
 11
4384.6233222472001216
 21
230.6563398178826105
 31
0.0
  0
LINE
  5
14A8E
  8
0
 10
4384.6344474002007701
 20
230.6563398264229079
 30
0.0
 11
4384.6344474002007701
 21
230.7035838699081012
 31
0.0
  0
LINE
  5
14A8F
  8
0
 10
4384.6344474002007701
 20
230.7035838699081012
 30
0.0
 11
4384.6789480124007241
 21
230.7035838699081012
 31
0.0
  0
LINE
  5
14A90
  8
0
 10
4384.6789480124007241
 20
230.7035838699081012
 30
0.0
 11
4384.6789480124007241
 21
230.6563398605840121
 31
0.0
  0
LINE
  5
14A91
  8
0
 10
4384.690073165499598
 20
230.6563398691243094
 30
0.0
 11
4384.690073165499598
 21
230.7035838699081012
 31
0.0
  0
LINE
  5
14A92
  8
0
 10
4384.690073165499598
 20
230.7035838699081012
 30
0.0
 11
4384.734573777699552
 21
230.7035838699081012
 31
0.0
  0
LINE
  5
14A93
  8
0
 10
4384.734573777699552
 20
230.7035838699081012
 30
0.0
 11
4384.734573777699552
 21
230.6563399032854988
 31
0.0
  0
LINE
  5
14A94
  8
0
 10
4384.7456989307011099
 20
230.6563399118257962
 30
0.0
 11
4384.7456989307011099
 21
230.7035838699081012
 31
0.0
  0
LINE
  5
14A95
  8
0
 10
4384.7456989307011099
 20
230.7035838699081012
 30
0.0
 11
4384.790199542901064
 21
230.7035838699081012
 31
0.0
  0
LINE
  5
14A96
  8
0
 10
4384.790199542901064
 20
230.7035838699081012
 30
0.0
 11
4384.790199542901064
 21
230.6563399459870141
 31
0.0
  0
LINE
  5
14A97
  8
0
 10
4384.8013246960008473
 20
230.6563399545273114
 30
0.0
 11
4384.8013246960008473
 21
230.7035838699081012
 31
0.0
  0
LINE
  5
14A98
  8
0
 10
4384.8013246960008473
 20
230.7035838699081012
 30
0.0
 11
4384.8458253081998919
 21
230.7035838699081012
 31
0.0
  0
LINE
  5
14A99
  8
0
 10
4384.8458253081998919
 20
230.7035838699081012
 30
0.0
 11
4384.8458253081998919
 21
230.6563399886885009
 31
0.0
  0
LINE
  5
14A9A
  8
0
 10
4384.8569504612014498
 20
230.6563399972287129
 30
0.0
 11
4384.8569504612014498
 21
230.7035838699081012
 31
0.0
  0
LINE
  5
14A9B
  8
0
 10
4384.8569504612014498
 20
230.7035838699081012
 30
0.0
 11
4384.9014510734014038
 21
230.7035838699081012
 31
0.0
  0
LINE
  5
14A9C
  8
0
 10
4384.9014510734014038
 20
230.7035838699081012
 30
0.0
 11
4384.9014510734014038
 21
230.6563400313899024
 31
0.0
  0
LINE
  5
14A9D
  8
0
 10
4384.9125762265011872
 20
230.6563400399301997
 30
0.0
 11
4384.9125762265011872
 21
230.7035838699081012
 31
0.0
  0
LINE
  5
14A9E
  8
0
 10
4384.9125762265011872
 20
230.7035838699081012
 30
0.0
 11
4384.9570768387011412
 21
230.7035838699081012
 31
0.0
  0
LINE
  5
14A9F
  8
0
 10
4384.9570768387011412
 20
230.7035838699081012
 30
0.0
 11
4384.9570768387011412
 21
230.6563400740913039
 31
0.0
  0
LINE
  5
14AA0
  8
0
 10
4384.9682019917008802
 20
230.6563400826316865
 30
0.0
 11
4384.9682019917008802
 21
230.7035838699081012
 31
0.0
  0
LINE
  5
14AA1
  8
0
 10
4384.9682019917008802
 20
230.7035838699081012
 30
0.0
 11
4385.0127026038999247
 21
230.7035838699081012
 31
0.0
  0
LINE
  5
14AA2
  8
0
 10
4385.0127026038999247
 20
230.7035838699081012
 30
0.0
 11
4385.0127026038999247
 21
230.6563401167927907
 31
0.0
  0
LINE
  5
14AA3
  8
0
 10
4385.0238277570006176
 20
230.6563401253332017
 30
0.0
 11
4385.0238277570006176
 21
230.7035838699081012
 31
0.0
  0
LINE
  5
14AA4
  8
0
 10
4385.0238277570006176
 20
230.7035838699081012
 30
0.0
 11
4385.0683283691996621
 21
230.7035838699081012
 31
0.0
  0
LINE
  5
14AA5
  8
0
 10
4385.0683283691996621
 20
230.7035838699081012
 30
0.0
 11
4385.0683283691996621
 21
230.6563401594943059
 31
0.0
  0
LINE
  5
14AA6
  8
0
 10
4385.07945352220122
 20
230.6563401680346033
 30
0.0
 11
4385.07945352220122
 21
230.7035838699081012
 31
0.0
  0
LINE
  5
14AA7
  8
0
 10
4385.07945352220122
 20
230.7035838699081012
 30
0.0
 11
4385.1239541344011741
 21
230.7035838699081012
 31
0.0
  0
LINE
  5
14AA8
  8
0
 10
4385.1239541344011741
 20
230.7035838699081012
 30
0.0
 11
4385.1239541344011741
 21
230.6563402021957927
 31
0.0
  0
LINE
  5
14AA9
  8
0
 10
4385.1350792875009574
 20
230.6563402107360901
 30
0.0
 11
4385.1350792875009574
 21
230.7035838699081012
 31
0.0
  0
LINE
  5
14AAA
  8
0
 10
4385.1350792875009574
 20
230.7035838699081012
 30
0.0
 11
4385.1795798997009115
 21
230.7035838699081012
 31
0.0
  0
LINE
  5
14AAB
  8
0
 10
4385.1795798997009115
 20
230.7035838699081012
 30
0.0
 11
4385.1795798997009115
 21
230.6563402448971942
 31
0.0
  0
LINE
  5
14AAC
  8
0
 10
4385.2018302058004338
 20
230.6563402619777889
 30
0.0
 11
4385.2018302058004338
 21
230.6957098541080882
 31
0.0
  0
LINE
  5
14AAD
  8
0
 10
4385.2055385901003319
 20
230.6563402648245926
 30
0.0
 11
4385.2055385901003319
 21
230.6957098541080882
 31
0.0
  0
ARC
  5
14AAE
  8
0
 10
4385.1614506442128913
 20
230.6959589630388905
 30
0.0
 40
0.0403803299803939
 50
359.6465362984455965
 51
47.5946076437727896
  0
ARC
  5
14AAF
  8
0
 10
4385.1609113270578746
 20
230.6959412444790019
 30
0.0
 40
0.044627862913455
 50
359.7029265976904071
 51
41.9278096567938405
  0
LINE
  5
14AB0
  8
0
 10
4385.2574559710010362
 20
230.6563403046793042
 30
0.0
 11
4385.2574559710010362
 21
230.6957098541080882
 31
0.0
  0
ARC
  5
14AB1
  8
0
 10
4385.1532024637781433
 20
230.695704213493201
 30
0.0
 40
0.1042535073741386
 50
0.0030999765577634
 51
16.6684246463623111
  0
LINE
  5
14AB2
  8
0
 10
4384.5959904223536796
 20
230.510762785695988
 30
0.0
 11
4385.3209762328388024
 21
230.5088718865636963
 31
0.0
  0
LINE
  5
14AB3
  8
0
 10
4385.3209762328388024
 20
230.5088718865636963
 30
0.0
 11
4385.322047848467264
 21
230.390745076976998
 31
0.0
  0
LINE
  5
14AB4
  8
0
 10
4385.322047848467264
 20
230.390745076976998
 30
0.0
 11
4384.5974595044408488
 21
230.3926441117804131
 31
0.0
  0
LINE
  5
14AB5
  8
0
 10
4384.5974595044408488
 20
230.3926441117804131
 30
0.0
 11
4384.5959904223536796
 21
230.510762785695988
 31
0.0
  0
LINE
  5
14AB6
  8
0
 10
4384.5968759211391443
 20
230.4397762563637002
 30
0.0
 11
4385.2935418939387091
 21
230.4397767911638084
 31
0.0
  0
LINE
  5
14AB7
  8
0
 10
4385.2935418939387091
 20
230.4397767911638084
 30
0.0
 11
4385.322047848467264
 21
230.390745076976998
 31
0.0
  0
LINE
  5
14AB8
  8
0
 10
4384.5962857153417644
 20
230.4870203301636877
 30
0.0
 11
4384.6252407677393421
 21
230.4870203301636877
 31
0.0
  0
LINE
  5
14AB9
  8
0
 10
4384.6252407677393421
 20
230.4870203301636877
 30
0.0
 11
4384.6252407677393421
 21
230.4397762781381971
 31
0.0
  0
LINE
  5
14ABA
  8
0
 10
4384.636365920739081
 20
230.4397762866784944
 30
0.0
 11
4384.636365920739081
 21
230.4870203301636877
 31
0.0
  0
LINE
  5
14ABB
  8
0
 10
4384.636365920739081
 20
230.4870203301636877
 30
0.0
 11
4384.6808665329390351
 21
230.4870203301636877
 31
0.0
  0
LINE
  5
14ABC
  8
0
 10
4384.6808665329390351
 20
230.4870203301636877
 30
0.0
 11
4384.6808665329390351
 21
230.4397763208397123
 31
0.0
  0
LINE
  5
14ABD
  8
0
 10
4384.6919916860397279
 20
230.439776329379896
 30
0.0
 11
4384.6919916860397279
 21
230.4870203301636877
 31
0.0
  0
LINE
  5
14ABE
  8
0
 10
4384.6919916860397279
 20
230.4870203301636877
 30
0.0
 11
4384.736492298239682
 21
230.4870203301636877
 31
0.0
  0
LINE
  5
14ABF
  8
0
 10
4384.736492298239682
 20
230.4870203301636877
 30
0.0
 11
4384.736492298239682
 21
230.4397763635411138
 31
0.0
  0
LINE
  5
14AC0
  8
0
 10
4384.7476174512394209
 20
230.4397763720814112
 30
0.0
 11
4384.7476174512394209
 21
230.4870203301636877
 31
0.0
  0
LINE
  5
14AC1
  8
0
 10
4384.7476174512394209
 20
230.4870203301636877
 30
0.0
 11
4384.792118063439375
 21
230.4870203301636877
 31
0.0
  0
LINE
  5
14AC2
  8
0
 10
4384.792118063439375
 20
230.4870203301636877
 30
0.0
 11
4384.792118063439375
 21
230.4397764062426006
 31
0.0
  0
LINE
  5
14AC3
  8
0
 10
4384.8032432165391583
 20
230.439776414782898
 30
0.0
 11
4384.8032432165391583
 21
230.4870203301636877
 31
0.0
  0
LINE
  5
14AC4
  8
0
 10
4384.8032432165391583
 20
230.4870203301636877
 30
0.0
 11
4384.8477438287382029
 21
230.4870203301636877
 31
0.0
  0
LINE
  5
14AC5
  8
0
 10
4384.8477438287382029
 20
230.4870203301636877
 30
0.0
 11
4384.8477438287382029
 21
230.4397764489440021
 31
0.0
  0
LINE
  5
14AC6
  8
0
 10
4384.8588689817397608
 20
230.4397764574844132
 30
0.0
 11
4384.8588689817397608
 21
230.4870203301636877
 31
0.0
  0
LINE
  5
14AC7
  8
0
 10
4384.8588689817397608
 20
230.4870203301636877
 30
0.0
 11
4384.9033695939388053
 21
230.4870203301636877
 31
0.0
  0
LINE
  5
14AC8
  8
0
 10
4384.9033695939388053
 20
230.4870203301636877
 30
0.0
 11
4384.9033695939388053
 21
230.4397764916454889
 31
0.0
  0
LINE
  5
14AC9
  8
0
 10
4384.9144947470385887
 20
230.4397765001857863
 30
0.0
 11
4384.9144947470385887
 21
230.4870203301636877
 31
0.0
  0
LINE
  5
14ACA
  8
0
 10
4384.9144947470385887
 20
230.4870203301636877
 30
0.0
 11
4384.9589953592394522
 21
230.4870203301636877
 31
0.0
  0
LINE
  5
14ACB
  8
0
 10
4384.9589953592394522
 20
230.4870203301636877
 30
0.0
 11
4384.9589953592394522
 21
230.4397765343470041
 31
0.0
  0
LINE
  5
14ACC
  8
0
 10
4384.9701205122391912
 20
230.4397765428873015
 30
0.0
 11
4384.9701205122391912
 21
230.4870203301636877
 31
0.0
  0
LINE
  5
14ACD
  8
0
 10
4384.9701205122391912
 20
230.4870203301636877
 30
0.0
 11
4385.0146211244391452
 21
230.4870203301636877
 31
0.0
  0
LINE
  5
14ACE
  8
0
 10
4385.0146211244391452
 20
230.4870203301636877
 30
0.0
 11
4385.0146211244391452
 21
230.4397765770484909
 31
0.0
  0
LINE
  5
14ACF
  8
0
 10
4385.0257462775389286
 20
230.4397765855887883
 30
0.0
 11
4385.0257462775389286
 21
230.4870203301636877
 31
0.0
  0
LINE
  5
14AD0
  8
0
 10
4385.0257462775389286
 20
230.4870203301636877
 30
0.0
 11
4385.0702468897388826
 21
230.4870203301636877
 31
0.0
  0
LINE
  5
14AD1
  8
0
 10
4385.0702468897388826
 20
230.4870203301636877
 30
0.0
 11
4385.0702468897388826
 21
230.4397766197498925
 31
0.0
  0
LINE
  5
14AD2
  8
0
 10
4385.0813720427404405
 20
230.4397766282901898
 30
0.0
 11
4385.0813720427404405
 21
230.4870203301636877
 31
0.0
  0
LINE
  5
14AD3
  8
0
 10
4385.0813720427404405
 20
230.4870203301636877
 30
0.0
 11
4385.1258726549385756
 21
230.4870203301636877
 31
0.0
  0
LINE
  5
14AD4
  8
0
 10
4385.1258726549385756
 20
230.4870203301636877
 30
0.0
 11
4385.1258726549385756
 21
230.4397766624514077
 31
0.0
  0
LINE
  5
14AD5
  8
0
 10
4385.1369978080392684
 20
230.439776670991705
 30
0.0
 11
4385.1369978080392684
 21
230.4870203301636877
 31
0.0
  0
LINE
  5
14AD6
  8
0
 10
4385.1369978080392684
 20
230.4870203301636877
 30
0.0
 11
4385.1814984202392225
 21
230.4870203301636877
 31
0.0
  0
LINE
  5
14AD7
  8
0
 10
4385.1814984202392225
 20
230.4870203301636877
 30
0.0
 11
4385.1814984202392225
 21
230.4397767051528945
 31
0.0
  0
LINE
  5
14AD8
  8
0
 10
4385.2037487263387447
 20
230.4397767222334039
 30
0.0
 11
4385.2037487263387447
 21
230.4791463143637031
 31
0.0
  0
LINE
  5
14AD9
  8
0
 10
4385.2074571106395524
 20
230.4397767250802076
 30
0.0
 11
4385.2074571106395524
 21
230.4791463143637031
 31
0.0
  0
ARC
  5
14ADA
  8
0
 10
4385.1633691647512023
 20
230.4793954232945055
 30
0.0
 40
0.0403803299803939
 50
359.6465362984455965
 51
47.5946076437727896
  0
ARC
  5
14ADB
  8
0
 10
4385.1628298475970951
 20
230.4793777047345884
 30
0.0
 40
0.044627862913455
 50
359.7029265976904071
 51
41.9278096567938405
  0
LINE
  5
14ADC
  8
0
 10
4385.2593744915393472
 20
230.4397767649348907
 30
0.0
 11
4385.2593744915393472
 21
230.4791463143637031
 31
0.0
  0
ARC
  5
14ADD
  8
0
 10
4385.1551209843182733
 20
230.4791406737487875
 30
0.0
 40
0.1042535073741386
 50
0.0030999765577634
 51
16.6684246463623111
  0
ARC
  5
14ADE
  8
0
 10
4385.8069297780757552
 20
230.222128799095799
 30
0.0
 40
0.0902693714301745
 50
50.3977155816395523
 51
138.9270481182778099
  0
ARC
  5
14ADF
  8
0
 10
4385.8867273114001364
 20
230.1496892526569127
 30
0.0
 40
0.1980328365300328
 50
138.2958057450321974
 51
176.3758789910885127
  0
LINE
  5
14AE0
  8
0
 10
4385.6890904997999314
 20
230.1622070417770942
 30
0.0
 11
4385.6745280839004408
 21
229.9675518969771133
 31
0.0
  0
ARC
  5
14AE1
  8
0
 10
4385.7649002200796531
 20
230.1698325140982035
 30
0.0
 40
0.1573578495105
 50
16.4400489775676384
 51
50.7448069809641922
  0
ARC
  5
14AE2
  8
0
 10
4385.7039378523286359
 20
230.146042225246191
 30
0.0
 40
0.2226303444627813
 50
4.1638176946821543
 51
17.872288835579031
  0
LINE
  5
14AE3
  8
0
 10
4385.9259805703004531
 20
230.1622070534770899
 30
0.0
 11
4385.9405429829002969
 21
229.9675518989770922
 31
0.0
  0
ARC
  5
14AE4
  8
0
 10
4385.7628376618449693
 20
230.2234045073383015
 30
0.0
 40
0.0884973374408022
 50
49.6945997255954808
 51
76.2997780124100302
  0
ARC
  5
14AE5
  8
0
 10
4385.7122415628127783
 20
230.165617006285089
 30
0.0
 40
0.1652995760164916
 50
16.8950195215585488
 51
49.2771160449789321
  0
ARC
  5
14AE6
  8
0
 10
4385.6509136377289906
 20
230.1425605308567128
 30
0.0
 40
0.2307200988916255
 50
4.8848273688917274
 51
17.9475877125426599
  0
LINE
  5
14AE7
  8
0
 10
4385.8807957337003245
 20
230.1622070568770937
 30
0.0
 11
4385.8976898166010869
 21
229.9675519287771124
 31
0.0
  0
LINE
  5
14AE8
  8
0
 10
4385.6009603114007405
 20
229.967552081877102
 30
0.0
 11
4385.6132178144989666
 21
230.1673511736771047
 31
0.0
  0
LINE
  5
14AE9
  8
0
 10
4385.6393064698004309
 20
229.9675518965771062
 30
0.0
 11
4385.6542537247996734
 21
230.1673511573771123
 31
0.0
  0
LINE
  5
14AEA
  8
0
 10
4385.9757645958006833
 20
229.9675518993770993
 30
0.0
 11
4385.9608173453998461
 21
230.1673511725770993
 31
0.0
  0
LINE
  5
14AEB
  8
0
 10
4385.7638854025899491
 20
230.3612524851671992
 30
0.0
 11
4385.8075355406626841
 21
230.3612524834150008
 31
0.0
  0
ARC
  5
14AEC
  8
0
 10
4385.8075355406626841
 20
230.2452462887821127
 30
0.0
 40
0.1160061946328704
 50
51.2388592815561168
 51
128.761140718442789
  0
ARC
  5
14AED
  8
0
 10
4385.763885393846067
 20
230.2452462967384861
 30
0.0
 40
0.1160061884287242
 50
89.9999956813144166
 51
128.7611431787314018
  0
ARC
  5
14AEE
  8
0
 10
4385.8123421132686417
 20
230.1865558762816022
 30
0.0
 40
0.192111154218245
 50
129.0713563667871995
 51
156.4855776669107001
  0
ARC
  5
14AEF
  8
0
 10
4385.8880151685871169
 20
230.1521885073381952
 30
0.0
 40
0.2752153561550621
 50
156.2104673602530056
 51
176.8417573250420958
  0
ARC
  5
14AF0
  8
0
 10
4385.8538229630166825
 20
230.1850268826649994
 30
0.0
 40
0.1919491887592841
 50
128.2809581518137065
 51
156.229050166970012
  0
ARC
  5
14AF1
  8
0
 10
4385.9366729521079833
 20
230.14685229283279
 30
0.0
 40
0.2831621856826684
 50
155.9172929517320085
 51
175.8485745106542026
  0
ARC
  5
14AF2
  8
0
 10
4385.7613141499432459
 20
230.1850613565823949
 30
0.0
 40
0.1918812219658024
 50
23.6586453626278903
 51
51.7281421225601505
  0
ARC
  5
14AF3
  8
0
 10
4385.6810342899052557
 20
230.1475259576853034
 30
0.0
 40
0.2804845758461887
 50
4.0531608111990227
 51
24.1009843467580112
  0
ARC
  5
14AF4
  8
0
 10
4385.7157619764730043
 20
230.1433919878390952
 30
0.0
 40
0.1072454759997057
 50
323.880567781357513
 51
39.0125416798700826
  0
ARC
  5
14AF5
  8
0
 10
4385.8130493270818988
 20
230.1458573163648964
 30
0.0
 40
0.1053609011107348
 50
140.8712766686786892
 51
220.8714885235874874
  0
ARC
  5
14AF6
  8
0
 10
4385.7665645987799508
 20
230.1065026881103961
 30
0.0
 40
0.0444627223632389
 50
221.7204788066501919
 51
323.6900670792286974
  0
ARC
  5
14AF7
  8
0
 10
4385.764596451759644
 20
230.1830723957228884
 30
0.0
 40
0.0443223432360198
 50
38.8946930964160416
 51
138.6627302636854893
  0
ARC
  5
14AF8
  8
0
 10
4385.6195069862242235
 20
230.1433752361340055
 30
0.0
 40
0.113787839688571
 50
333.9171657928370109
 51
27.5523310143110791
  0
ARC
  5
14AF9
  8
0
 10
4385.6269962216529166
 20
230.1446931230819928
 30
0.0
 40
0.0896823028058344
 50
341.3863134862826882
 51
19.3307128804741808
  0
LINE
  5
14AFA
  8
0
 10
4387.6349998229998164
 20
229.8691271191771079
 30
0.0
 11
4386.4425542585995572
 21
229.8691271191771079
 31
0.0
  0
LINE
  5
14AFB
  8
0
 10
4386.4425542585995572
 20
229.8691271191771079
 30
0.0
 11
4385.964471271488037
 21
229.7116453915199088
 31
0.0
  0
LINE
  5
14AFC
  8
0
 10
4385.9529347876732572
 20
229.7116464426152049
 30
0.0
 11
4386.384781717793885
 21
229.8533823668630021
 31
0.0
  0
LINE
  5
14AFD
  8
0
 10
4386.384781717793885
 20
229.8533823668630021
 30
0.0
 11
4386.3847797027001434
 21
229.9360562529770959
 31
0.0
  0
LINE
  5
14AFE
  8
0
 10
4386.3847797027001434
 20
229.9360562529770959
 30
0.0
 11
4386.2849849010999606
 21
229.9360562529770959
 31
0.0
  0
LINE
  5
14AFF
  8
0
 10
4386.2849849010999606
 20
229.9360562529770959
 30
0.0
 11
4386.2849849010999606
 21
229.9675519044658074
 31
0.0
  0
LINE
  5
14B00
  8
0
 10
4386.4425542585995572
 20
229.8691271191771079
 30
0.0
 11
4386.4425542532990221
 21
229.951804284477106
 31
0.0
  0
LINE
  5
14B01
  8
0
 10
4386.4425542532990221
 20
229.951804284477106
 30
0.0
 11
4386.2849849010999606
 21
229.951804284477106
 31
0.0
  0
LINE
  5
14B02
  8
0
 10
4387.1788760180997997
 20
229.7116385242879062
 30
0.0
 11
4387.4557441999995717
 21
229.8218868615770987
 31
0.0
  0
LINE
  5
14B03
  8
0
 10
4387.4557441999995717
 20
229.8218868615770987
 30
0.0
 11
4387.4703113271998518
 21
229.821886304977113
 31
0.0
  0
LINE
  5
14B04
  8
0
 10
4387.4703113271998518
 20
229.821886304977113
 30
0.0
 11
4387.193850709146318
 21
229.7116400387234876
 31
0.0
  0
ARC
  5
14B05
  8
0
 10
4387.2249871291669479
 20
229.2152403947480082
 30
0.0
 40
0.5539546527377905
 50
110.9231053142647028
 51
116.3481456733206016
  0
ARC
  5
14B06
  8
0
 10
4387.1768608820766531
 20
229.3411182377583941
 30
0.0
 40
0.4191905365202859
 50
102.4332195985570024
 51
110.9231053142647028
  0
ARC
  5
14B07
  8
0
 10
4386.7618064783064256
 20
230.4006323148526008
 30
0.0
 40
0.7285872073078089
 50
288.9768149230312133
 51
291.4248629304565839
  0
ARC
  5
14B08
  8
0
 10
4386.8641238684704149
 20
230.1398822315279062
 30
0.0
 40
0.4484810590640437
 50
291.4248629304565839
 51
299.7413090153701773
  0
ARC
  5
14B09
  8
0
 10
4386.5490429471246898
 20
229.4880042088379923
 30
0.0
 40
0.260520521099269
 50
108.6328284827634008
 51
120.8385718412824019
  0
ARC
  5
14B0A
  8
0
 10
4386.5275816996900176
 20
229.551654352295202
 30
0.0
 40
0.1933496501540575
 50
90.6901168968210385
 51
108.6328284827634008
  0
ARC
  5
14B0B
  8
0
 10
4386.3888358514468564
 20
229.9276400543728016
 30
0.0
 40
0.2279707451690629
 50
288.6903107994124866
 51
306.7551880650113958
  0
LINE
  5
14B0C
  8
0
 10
4386.384781717793885
 20
229.8533823668630021
 30
0.0
 11
4380.7526976219996868
 21
229.8533790870770872
 31
0.0
  0
LINE
  5
14B0D
  8
0
 10
4380.6793112078321428
 20
229.809806497598089
 30
0.0
 11
4380.7789787636002075
 21
229.7116468041770929
 31
0.0
  0
LINE
  5
14B0E
  8
0
 10
4380.7789787636002075
 20
229.7116468041770929
 30
0.0
 11
4382.7317565094826932
 21
229.7116466165799125
 31
0.0
  0
LINE
  5
14B0F
  8
0
 10
4382.7317565094826932
 20
229.7116466165799125
 30
0.0
 11
4382.9297555171142449
 21
229.7529053268075074
 31
0.0
  0
ARC
  5
14B10
  8
0
 10
4382.9905792521285548
 20
229.5050838344928934
 30
0.0
 40
0.2551764463938853
 50
81.4712238091478866
 51
103.7897380525579933
  0
ARC
  5
14B11
  8
0
 10
4383.0162419266198413
 20
229.6762088340666139
 30
0.0
 40
0.0821379005693747
 50
48.7105213911871715
 51
81.4712238091478866
  0
LINE
  5
14B12
  8
0
 10
4383.0704417455999646
 20
229.7379260466771029
 30
0.0
 11
4383.086858066604691
 21
229.7121729373623964
 31
0.0
  0
LINE
  5
14B13
  8
0
 10
4380.6733792745990286
 20
229.9675523159770876
 30
0.0
 11
4380.6733792745990286
 21
229.8218048563770992
 31
0.0
  0
ARC
  5
14B14
  8
0
 10
4380.6905011347653272
 20
229.8228042854566127
 30
0.0
 40
0.0171510044601663
 50
183.3406513089663008
 51
229.2745070016887041
  0
ARC
  5
14B15
  8
0
 10
4380.6902087540338471
 20
229.8208942419634866
 30
0.0
 40
0.0168540973251319
 50
131.887501134028696
 51
176.9028433094877073
  0
ARC
  5
14B16
  8
0
 10
4380.7194872889931503
 20
229.7882484573925126
 30
0.0
 40
0.0607058915819267
 50
101.308376555763104
 51
131.887501134028696
  0
ARC
  5
14B17
  8
0
 10
4380.7516226470897891
 20
229.6776171371110991
 30
0.0
 40
0.1757652372539267
 50
89.6495785491090231
 51
104.5104534202954056
  0
ARC
  5
14B18
  8
0
 10
4380.6643401636056296
 20
234.5220052321498088
 30
0.0
 40
3.32124537412543
 50
277.5157869372545747
 51
278.8131390806673267
  0
ARC
  5
14B19
  8
0
 10
4377.4889347622938658
 20
243.9323677797974028
 30
0.0
 40
13.2060183779210192
 50
284.9857331380811161
 51
285.8635153682918144
  0
LINE
  5
14B1A
  8
0
 10
4380.9028437627994208
 20
231.1760178079771038
 30
0.0
 11
4380.2449571457918864
 21
230.0183873170381901
 31
0.0
  0
ARC
  5
14B1B
  8
0
 10
4374.8700696929154219
 20
237.1596919346982872
 30
0.0
 40
7.3391306028675274
 50
266.7636758689749854
 51
279.7650021564426197
  0
ARC
  5
14B1C
  8
0
 10
4375.2630785376468339
 20
239.4099757749524997
 30
0.0
 40
9.6116760249557451
 50
260.8894820725474233
 51
265.1817465617264133
  0
LINE
  5
14B1D
  8
0
 10
4380.2753924982498575
 20
230.0184800405629915
 30
0.0
 11
4379.0223790589006967
 21
230.0146626435771111
 31
0.0
  0
LINE
  5
14B1E
  8
0
 10
4379.0223790589006967
 20
230.0146626435771111
 30
0.0
 11
4377.7786618578002162
 21
230.0108191645771001
 31
0.0
  0
LINE
  5
14B1F
  8
0
 10
4367.3635567718984021
 20
229.9785157829527975
 30
0.0
 11
4377.7786618578002162
 21
230.0108191645771001
 31
0.0
  0
LINE
  5
14B20
  8
0
 10
4367.3635567718984021
 20
229.9785157829527975
 30
0.0
 11
4367.3701782509997429
 21
229.9174083150770969
 31
0.0
  0
ARC
  5
14B21
  8
0
 10
4367.3897904512414243
 20
229.9195822540332017
 30
0.0
 40
0.0197323188930326
 50
186.3252012561054869
 51
270.0
  0
LINE
  5
14B22
  8
0
 10
4367.3897904512414243
 20
229.8998499351401961
 30
0.0
 11
4368.4381363747006617
 21
229.9030900808770923
 31
0.0
  0
LINE
  5
14B23
  8
0
 10
4368.4381363747006617
 20
229.9030900808770923
 30
0.0
 11
4373.7411722286005897
 21
229.9195533820771118
 31
0.0
  0
LINE
  5
14B24
  8
0
 10
4367.3176016774013988
 20
230.002020595377104
 30
0.0
 11
4367.393864455199946
 21
230.3792425665770907
 31
0.0
  0
ARC
  5
14B25
  8
0
 10
4367.3368921697865517
 20
229.9981150347065011
 30
0.0
 40
0.0196818825497885
 50
168.5545836746163957
 51
264.7479682849315736
  0
ARC
  5
14B26
  8
0
 10
4367.7807115114601402
 20
230.3007820734034112
 30
0.0
 40
0.3947235664684983
 50
119.7352038939946937
 51
168.534767761055889
  0
ARC
  5
14B27
  8
0
 10
4367.8675706722042378
 20
230.067260914477913
 30
0.0
 40
0.6418506214180376
 50
92.4048455343072987
 51
116.1262228370615048
  0
ARC
  5
14B28
  8
0
 10
4368.6790420470751997
 20
215.2104753831675907
 30
0.0
 40
15.5207319741637093
 50
89.6754443623146784
 51
93.0965276646909956
  0
ARC
  5
14B29
  8
0
 10
4373.1379575375058266
 20
-128.1497350079928026
 30
0.0
 40
358.9073107166300929
 50
90.0550777128913751
 51
90.6978010991889647
  0
ARC
  5
14B2A
  8
0
 10
4356.7038406898409448
 20
1092.3492075897090672
 30
0.0
 40
861.7420061373787803
 50
271.069799665111077
 51
271.2855527940874936
  0
ARC
  5
14B2B
  8
0
 10
4374.3232426983131518
 20
287.2132950200476103
 30
0.0
 40
56.4152345717656729
 50
271.7410126571082856
 51
274.6591687093530254
  0
ARC
  5
14B2C
  8
0
 10
4378.0968754721579899
 20
241.4619592752627
 30
0.0
 40
10.5086531043414197
 50
274.4145678572858742
 51
286.8337523385266081
  0
LINE
  5
14B2D
  8
0
 10
4380.9171589942006904
 20
231.1559864642771061
 30
0.0
 11
4381.0625937078002607
 21
231.1962227643770973
 31
0.0
  0
LINE
  5
14B2E
  8
0
 10
4381.0849356168000668
 20
231.1682270676770941
 30
0.0
 11
4380.441774197200175
 21
230.0109277005770991
 31
0.0
  0
LINE
  5
14B2F
  8
0
 10
4380.441774197200175
 20
230.0109277005770991
 30
0.0
 11
4380.4147474472401882
 21
229.9516580905134049
 31
0.0
  0
ARC
  5
14B30
  8
0
 10
4380.3976944675214327
 20
229.9584222567710867
 30
0.0
 40
0.0183455188666884
 50
272.8624433784050893
 51
338.3639519876820145
  0
LINE
  5
14B31
  8
0
 10
4380.5755903550725634
 20
229.9675520058322036
 30
0.0
 11
4380.5797135887996774
 21
229.7313315431771059
 31
0.0
  0
LINE
  5
14B32
  8
0
 10
4380.5797135887996774
 20
229.7313315431771059
 30
0.0
 11
4380.7589916410470323
 21
229.7313315431771059
 31
0.0
  0
LINE
  5
14B33
  8
0
 10
4380.8990129267003795
 20
231.1323252562771131
 30
0.0
 11
4380.2753924982498575
 21
230.0184800405629915
 31
0.0
  0
ARC
  5
14B34
  8
0
 10
4380.9891630823558444
 20
231.0819768317668093
 30
0.0
 40
0.1032570308285535
 50
134.2130739413966865
 51
150.8168534669387952
  0
ARC
  5
14B35
  8
0
 10
4381.0674347089743605
 20
231.1771733096074115
 30
0.0
 40
0.0196549489796859
 50
332.9244584457704832
 51
104.2586343265661952
  0
LINE
  5
14B36
  8
0
 10
4372.5729548831986904
 20
230.8406522603251005
 30
0.0
 11
4372.5734575260012207
 21
230.8326377765770872
 31
0.0
  0
ARC
  5
14B37
  8
0
 10
4372.6520422365374543
 20
230.837566358405212
 30
0.0
 40
0.0787391113039724
 50
183.5887077839670951
 51
270.8377037963675207
  0
ARC
  5
14B38
  8
0
 10
4657.3393605557739647
 20
-19239.3135896445310209
 30
0.0
 40
19472.1536163946911984
 50
90.8359883906381356
 51
90.8377037963675349
  0
ARC
  5
14B39
  8
0
 10
4373.2350509669386156
 20
230.840430235541902
 30
0.0
 40
0.0730877236489257
 50
270.8359883906381924
 51
5.2724944546162194
  0
LINE
  5
14B3A
  8
0
 10
4373.3078294511005879
 20
230.847146454077091
 30
0.0
 11
4373.3075385818801806
 21
230.8517842740006074
 31
0.0
  0
ARC
  5
14B3B
  8
0
 10
4373.3553531106990704
 20
230.8616255785771045
 30
0.0
 40
0.078700738399996
 50
289.9444086955797957
 51
353.9550872098856757
  0
LINE
  5
14B3C
  8
0
 10
4373.3821985814156506
 20
230.7876449937812993
 30
0.0
 11
4373.3394838617014102
 21
230.7721253038770897
 31
0.0
  0
ARC
  5
14B3D
  8
0
 10
4373.3115010284664095
 20
230.8502000442005908
 30
0.0
 40
0.0829379529066478
 50
271.5640594398906842
 51
289.7182298781995087
  0
ARC
  5
14B3E
  8
0
 10
4043.2426874601528652
 20
4926.3858628526768371
 30
0.0
 40
4706.1871106983971913
 50
273.9613325914373831
 51
273.9845715528347796
  0
ARC
  5
14B3F
  8
0
 10
4384.5633795591666058
 20
-0.2381953029669432
 30
0.0
 40
232.2463384905533985
 50
94.0003482078852386
 51
94.1986047777549942
  0
ARC
  5
14B40
  8
0
 10
4365.4941396093199728
 20
419.3284164915905876
 30
0.0
 40
187.9661348968080006
 50
270.832041224166403
 51
272.947165038693015
  0
ARC
  5
14B41
  8
0
 10
4367.6515930372888761
 20
256.4269138578605975
 30
0.0
 40
25.0513457297064797
 50
269.5277161241730255
 51
271.3085105280437119
  0
ARC
  5
14B42
  8
0
 10
4372.6913024413688618
 20
274.1500921602017797
 30
0.0
 40
42.6106835139552089
 50
273.3192382625572918
 51
278.5161362279604873
  0
ARC
  5
14B43
  8
0
 10
4376.9379308166926421
 20
245.5614588499859963
 30
0.0
 40
13.7084301325111202
 50
278.6575155368259971
 51
302.5929025119341986
  0
ARC
  5
14B44
  8
0
 10
4366.134194803597893
 20
262.6935762810111896
 30
0.0
 40
33.9624108994718483
 50
302.3800958144207129
 51
305.9914698336797869
  0
LINE
  5
14B45
  8
0
 10
4386.0927082036141655
 20
235.2144369756042863
 30
0.0
 11
4387.2650233030999516
 21
236.0520445150770001
 31
0.0
  0
LINE
  5
14B46
  8
0
 10
4381.9975315343999682
 20
229.6210956230771103
 30
0.0
 11
4381.9975315343999682
 21
229.4353322491770939
 31
0.0
  0
ARC
  5
14B47
  8
0
 10
4381.8789237786013473
 20
229.4353322491770939
 30
0.0
 40
0.1186077557989336
 50
333.680229532361011
 51
0.0
  0
ARC
  5
14B48
  8
0
 10
4382.1161989543943491
 20
229.3179616627581083
 30
0.0
 40
0.1461097608171167
 50
153.6802295323608973
 51
209.3127133270045874
  0
ARC
  5
14B49
  8
0
 10
4381.8729905052514368
 20
229.1814084776073059
 30
0.0
 40
0.1328115938847677
 50
16.6763704679688907
 51
29.3127133270046585
  0
LINE
  5
14B4A
  8
0
 10
4382.0002161662996514
 20
229.2195208199771059
 30
0.0
 11
4382.1515038084999105
 21
229.2195208199771059
 31
0.0
  0
ARC
  5
14B4B
  8
0
 10
4382.0889574673383322
 20
229.219907438559801
 30
0.0
 40
0.0271664144837369
 50
180.8154318966680023
 51
206.6796493052403889
  0
LINE
  5
14B4C
  8
0
 10
4382.064683435902225
 20
229.2077096734498127
 30
0.0
 11
4382.4593608399000004
 21
229.1140531142771124
 31
0.0
  0
LINE
  5
14B4D
  8
0
 10
4382.0819560703002935
 20
229.6851882472770967
 30
0.0
 11
4382.5772725426995748
 21
228.9356146803771139
 31
0.0
  0
LINE
  5
14B4E
  8
0
 10
4382.5772725426995748
 20
228.9356146803771139
 30
0.0
 11
4382.5826620430998446
 21
228.9356146803771139
 31
0.0
  0
LINE
  5
14B4F
  8
0
 10
4382.073807641849271
 20
229.704426978153208
 30
0.0
 11
4382.6250983683003142
 21
228.8714989556771116
 31
0.0
  0
LINE
  5
14B50
  8
0
 10
4382.6947265978997166
 20
228.8630695281771068
 30
0.0
 11
4383.7073493091502314
 21
229.7127795723675092
 31
0.0
  0
LINE
  5
14B51
  8
0
 10
4383.0356985282996902
 20
229.1034193340771026
 30
0.0
 11
4383.7700215981276415
 21
229.7128187043311129
 31
0.0
  0
ARC
  5
14B52
  8
0
 10
4382.8346424169012607
 20
229.3457822336980882
 30
0.0
 40
0.3149021039042106
 50
282.7050923429972045
 51
309.6779592320958159
  0
ARC
  5
14B53
  8
0
 10
4382.1127517034001357
 20
229.2295782392396859
 30
0.0
 40
0.0400359504933878
 50
345.4508922362678049
 51
32.3767966756608274
  0
ARC
  5
14B54
  8
0
 10
4382.2476522740080327
 20
229.3173618973179089
 30
0.0
 40
0.1209153775000185
 50
152.4384272294182097
 51
213.2771628189890123
  0
ARC
  5
14B55
  8
0
 10
4382.0357311414018113
 20
229.4286647630476068
 30
0.0
 40
0.118457304403958
 50
332.1408063732600908
 51
0.0041144633421955
  0
ARC
  5
14B56
  8
0
 10
4382.1118934366577378
 20
229.2256991457454944
 30
0.0
 40
0.0136320721767033
 50
333.049545092013318
 51
17.0879829308379314
  0
ARC
  5
14B57
  8
0
 10
4382.0304627971354421
 20
229.2006665042374891
 30
0.0
 40
0.0988235165475712
 50
17.087982930839491
 51
30.6303392796407294
  0
ARC
  5
14B58
  8
0
 10
4382.2453644770348546
 20
229.3179332369884094
 30
0.0
 40
0.1460930822768343
 50
153.6646097158738939
 51
207.2606866953869087
  0
ARC
  5
14B59
  8
0
 10
4382.0080440199781151
 20
229.4353503737883102
 30
0.0
 40
0.1186856678064181
 50
333.6890058027943837
 51
359.9912503021354837
  0
LINE
  5
14B5A
  8
0
 10
4382.1267296863998126
 20
229.4353322491770939
 30
0.0
 11
4382.1267296863998126
 21
229.61743132621109
 31
0.0
  0
LINE
  5
14B5B
  8
0
 10
4382.1541884454991305
 20
229.4286732695771036
 30
0.0
 11
4382.1541884454991305
 21
229.5758773679881983
 31
0.0
  0
ARC
  5
14B5C
  8
0
 10
4382.1586352070771682
 20
229.6232260406310957
 30
0.0
 40
0.1611177582665199
 50
169.4984570728254027
 51
180.757629034815011
  0
LINE
  5
14B5D
  8
0
 10
4382.0002161713000532
 20
229.6525916860771019
 30
0.0
 11
4382.0294115979004346
 21
229.6525916860771019
 31
0.0
  0
LINE
  5
14B5E
  8
0
 10
4382.0294115979004346
 20
229.6525916860771019
 30
0.0
 11
4382.0294115979004346
 21
229.7007554262170004
 31
0.0
  0
ARC
  5
14B5F
  8
0
 10
4382.0899428759266812
 20
229.7507669902807095
 30
0.0
 40
0.078518737634044
 50
211.1033545241467948
 51
250.5553348486000971
  0
ARC
  5
14B60
  8
0
 10
4382.0898521167910076
 20
229.7506916841159921
 30
0.0
 40
0.0784175366402538
 50
250.5995489742265931
 51
270.464594156811188
  0
ARC
  5
14B61
  8
0
 10
4382.1033760475465897
 20
229.7507755043077111
 30
0.0
 40
0.0785318174226525
 50
211.0775338261207139
 51
247.8820179450111141
  0
LINE
  5
14B62
  8
0
 10
4382.0738074002310896
 20
229.6780222188938865
 30
0.0
 11
4382.0637402493439367
 21
229.678022803388302
 31
0.0
  0
LINE
  5
14B63
  8
0
 10
4382.0738074002310896
 20
229.6780222188938865
 30
0.0
 11
4382.073807695834148
 21
229.7103267436098974
 31
0.0
  0
ARC
  5
14B64
  8
0
 10
4382.0931654749447262
 20
229.7504909793829881
 30
0.0
 40
0.0782143237114895
 50
247.9007121293259956
 51
268.0155308203464983
  0
LINE
  5
14B65
  8
0
 10
4382.0819560703002935
 20
229.6851882472770967
 30
0.0
 11
4382.0819560703002935
 21
229.6921157708893872
 31
0.0
  0
ARC
  5
14B66
  8
0
 10
4382.0948325072004081
 20
229.7505838961774032
 30
0.0
 40
0.0586211471003597
 50
248.9821975795856019
 51
256.3056185467023056
  0
ARC
  5
14B67
  8
0
 10
4382.0094182955990618
 20
229.7507792328771075
 30
0.0
 40
0.078537611999987
 50
211.2728675418117916
 51
247.8799734499837086
  0
LINE
  5
14B68
  8
0
 10
4381.9798451078868311
 20
229.678022219007886
 30
0.0
 11
4381.9899127339003826
 21
229.6780228033771039
 31
0.0
  0
ARC
  5
14B69
  8
0
 10
4382.0197769322066961
 20
229.7519616452497928
 30
0.0
 40
0.0797422264423209
 50
248.0060176674930972
 51
272.0925531035700828
  0
LINE
  5
14B6A
  8
0
 10
4382.0226886257350998
 20
229.6722725950685913
 30
0.0
 11
4382.0294115979004346
 21
229.6722767254771043
 31
0.0
  0
ARC
  5
14B6B
  8
0
 10
4382.6579279333618615
 20
228.8932280573147864
 30
0.0
 40
0.0393692037016328
 50
213.499619591470406
 51
270.0000000045856723
  0
ARC
  5
14B6C
  8
0
 10
4382.6694201873669954
 20
228.8932289852444057
 30
0.0
 40
0.0393701316312658
 50
269.9999999894216103
 51
309.9995777362698277
  0
LINE
  5
14B6E
  8
0
 10
4367.3350905506831623
 20
229.9785157829527975
 30
0.0
 11
4367.3635567718984021
 21
229.9785157829527975
 31
0.0
  0
LINE
  5
14B6F
  8
0
 10
4382.6694201873597194
 20
228.8538588536131897
 30
0.0
 11
4382.6579279333636805
 21
228.8538588536131897
 31
0.0
  0
ENDSEC
  0
EOF
