  0
SECTION
  2
HEADER
  9
$ACADVER
  1
AC1009
  9
$INSBASE
 10
4376.6922222792882167
 20
222.5860547101106874
 30
0.0
  9
$EXTMIN
 10
4366.6883858804849297
 20
222.5837900028822105
 30
-0.0000000000000058
  9
$EXTMAX
 10
4384.63832008411282
 20
229.8003886235368896
 30
0.0000000000000104
  9
$LIMMIN
 10
0.0
 20
0.0
  9
$LIMMAX
 10
11.6929133858000007
 20
8.2677165353999982
  9
$ORTHOMODE
 70
     0
  9
$REGENMODE
 70
     1
  9
$FILLMODE
 70
     1
  9
$QTEXTMODE
 70
     0
  9
$MIRRTEXT
 70
     0
  9
$DRAGMODE
 70
     2
  9
$LTSCALE
 40
0.6431102362
  9
$OSMODE
 70
     7
  9
$ATTMODE
 70
     1
  9
$TEXTSIZE
 40
0.2
  9
$TRACEWID
 40
0.05
  9
$TEXTSTYLE
  7
STANDARD
  9
$CLAYER
  8
0
  9
$CELTYPE
  6
BYLAYER
  9
$CECOLOR
 62
   256
  9
$DIMSCALE
 40
1.0
  9
$DIMASZ
 40
0.1875
  9
$DIMEXO
 40
0.0625
  9
$DIMDLI
 40
0.4443307087
  9
$DIMRND
 40
0.0
  9
$DIMDLE
 40
0.0
  9
$DIMEXE
 40
0.125
  9
$DIMTP
 40
0.01
  9
$DIMTM
 40
0.01
  9
$DIMTXT
 40
2.0
  9
$DIMCEN
 40
0.1052362205
  9
$DIMTSZ
 40
0.0
  9
$DIMTOL
 70
     1
  9
$DIMLIM
 70
     0
  9
$DIMTIH
 70
     1
  9
$DIMTOH
 70
     1
  9
$DIMSE1
 70
     0
  9
$DIMSE2
 70
     0
  9
$DIMTAD
 70
     0
  9
$DIMZIN
 70
     0
  9
$DIMBLK
  1

  9
$DIMASO
 70
     1
  9
$DIMSHO
 70
     1
  9
$DIMPOST
  1
\X
  9
$DIMAPOST
  1

  9
$DIMALT
 70
     1
  9
$DIMALTD
 70
     2
  9
$DIMALTF
 40
25.3999999999999986
  9
$DIMLFAC
 40
1.0
  9
$DIMTOFL
 70
     0
  9
$DIMTVP
 40
0.0
  9
$DIMTIX
 70
     0
  9
$DIMSOXD
 70
     0
  9
$DIMSAH
 70
     0
  9
$DIMBLK1
  1

  9
$DIMBLK2
  1

  9
$DIMSTYLE
  2
STANDARD
  9
$DIMCLRD
 70
     0
  9
$DIMCLRE
 70
     0
  9
$DIMCLRT
 70
     0
  9
$DIMTFAC
 40
1.0
  9
$DIMGAP
 40
0.09
  9
$LUNITS
 70
     2
  9
$LUPREC
 70
     4
  9
$SKETCHINC
 40
0.1
  9
$FILLETRAD
 40
0.0
  9
$AUNITS
 70
     0
  9
$AUPREC
 70
     0
  9
$MENU
  1
.
  9
$ELEVATION
 40
0.0
  9
$PELEVATION
 40
0.0
  9
$THICKNESS
 40
0.0
  9
$LIMCHECK
 70
     0
  9
$BLIPMODE
 70
     0
  9
$CHAMFERA
 40
0.0
  9
$CHAMFERB
 40
0.0
  9
$SKPOLY
 70
     0
  9
$TDCREATE
 40
2458060.468368056230247
  9
$TDUPDATE
 40
2459393.0732407411560416
  9
$TDINDWG
 40
0.6982130787
  9
$TDUSRTIMER
 40
0.6982130787
  9
$USRTIMER
 70
     1
  9
$ANGBASE
 50
0.0
  9
$ANGDIR
 70
     0
  9
$PDMODE
 70
     0
  9
$PDSIZE
 40
0.3125
  9
$PLINEWID
 40
0.0
  9
$COORDS
 70
     1
  9
$SPLFRAME
 70
     0
  9
$SPLINETYPE
 70
     6
  9
$SPLINESEGS
 70
     8
  9
$ATTDIA
 70
     1
  9
$ATTREQ
 70
     1
  9
$HANDLING
 70
     1
  9
$HANDSEED
  5
14BE7
  9
$SURFTAB1
 70
     6
  9
$SURFTAB2
 70
     6
  9
$SURFTYPE
 70
     6
  9
$SURFU
 70
     6
  9
$SURFV
 70
     6
  9
$UCSNAME
  2

  9
$UCSORG
 10
0.0
 20
0.0
 30
0.0
  9
$UCSXDIR
 10
1.0
 20
0.0
 30
0.0
  9
$UCSYDIR
 10
0.0
 20
1.0
 30
0.0
  9
$PUCSNAME
  2

  9
$PUCSORG
 10
0.0
 20
0.0
 30
0.0
  9
$PUCSXDIR
 10
1.0
 20
0.0
 30
0.0
  9
$PUCSYDIR
 10
0.0
 20
1.0
 30
0.0
  9
$USERI1
 70
     0
  9
$USERI2
 70
     0
  9
$USERI3
 70
     0
  9
$USERI4
 70
     0
  9
$USERI5
 70
     0
  9
$USERR1
 40
0.0
  9
$USERR2
 40
0.0
  9
$USERR3
 40
0.0
  9
$USERR4
 40
0.0
  9
$USERR5
 40
0.0
  9
$WORLDVIEW
 70
     1
  9
$SHADEDGE
 70
     3
  9
$SHADEDIF
 70
    70
  9
$TILEMODE
 70
     1
  9
$MAXACTVP
 70
    64
  9
$PLIMCHECK
 70
     0
  9
$PEXTMIN
 10
1.0000000000000000E+20
 20
1.0000000000000000E+20
 30
1.0000000000000000E+20
  9
$PEXTMAX
 10
-1.0000000000000000E+20
 20
-1.0000000000000000E+20
 30
-1.0000000000000000E+20
  9
$PLIMMIN
 10
0.0
 20
0.0
  9
$PLIMMAX
 10
12.0
 20
9.0
  9
$UNITMODE
 70
     0
  9
$VISRETAIN
 70
     1
  9
$PLINEGEN
 70
     0
  9
$PSLTSCALE
 70
     1
  0
ENDSEC
  0
SECTION
  2
TABLES
  0
TABLE
  2
VPORT
 70
     1
  0
VPORT
  2
*ACTIVE
 70
     0
 10
0.0
 20
0.0
 11
1.0
 21
1.0
 12
214.1069564979243012
 22
0.0812570988541097
 13
0.0
 23
0.0
 14
1.0
 24
1.0
 15
0.0
 25
0.0
 16
0.0
 26
0.0
 36
202.37134017897489
 17
4161.556396484375
 27
226.1108322143554972
 37
0.0
 40
7.6758440719720387
 41
2.3461538461538458
 42
50.0
 43
0.0
 44
0.0
 50
0.0
 51
0.0
 71
     0
 72
   100
 73
     1
 74
     1
 75
     0
 76
     0
 77
     0
 78
     0
  0
ENDTAB
  0
TABLE
  2
LTYPE
 70
     2
  0
LTYPE
  2
CONTINUOUS
 70
     0
  3
Solid line
 72
    65
 73
     0
 40
0.0
  0
LTYPE
  2
PHANTOM2
 70
     0
  3
___ _ _ ___ _ _ ___ _ _ ___ _ _
 72
    65
 73
     6
 40
1.25
 49
0.625
 49
-0.125
 49
0.125
 49
-0.125
 49
0.125
 49
-0.125
  0
ENDTAB
  0
TABLE
  2
LAYER
 70
     2
  0
LAYER
  2
0
 70
     0
 62
   255
  6
CONTINUOUS
  0
LAYER
  2
DEFPOINTS
 70
     0
 62
     7
  6
CONTINUOUS
  0
ENDTAB
  0
TABLE
  2
STYLE
 70
     1
  0
STYLE
  2
STANDARD
 70
     0
 40
0.0
 41
0.8
 50
0.0
 71
     0
 42
0.2
  3
txt
  4

  0
ENDTAB
  0
TABLE
  2
VIEW
 70
     0
  0
ENDTAB
  0
TABLE
  2
UCS
 70
     0
  0
ENDTAB
  0
TABLE
  2
APPID
 70
    10
  0
APPID
  2
ACAD
 70
     0
  0
APPID
  2
ACAD_MLEADERVER
 70
     0
  0
APPID
  2
ACAD_EXEMPT_FROM_CAD_STANDARDS
 70
     0
  0
APPID
  2
ACAD_NAV_VCDISPLAY
 70
     0
  0
APPID
  2
ACAECLAYERSTANDARD
 70
     0
  0
APPID
  2
ACCMTRANSPARENCY
 70
     0
  0
APPID
  2
ACAD_DSTYLE_DIMJAG
 70
     0
  0
APPID
  2
ACAD_DSTYLE_DIMTALN
 70
     0
  0
APPID
  2
ACDBATTR
 70
     0
  0
APPID
  2
DCO15
 70
     0
  0
ENDTAB
  0
TABLE
  2
DIMSTYLE
 70
     1
  0
DIMSTYLE
  2
STANDARD
 70
     0
  3

  4

  5

  6

  7

 40
1.0
 41
0.1875
 42
0.0625
 43
0.38
 44
0.125
 45
0.0
 46
0.0
 47
0.01
 48
0.01
140
0.15625
141
0.09
142
0.0
143
25.3999999999999986
144
1.0
145
0.0
146
1.0
147
0.09
 71
     1
 72
     0
 73
     1
 74
     1
 75
     0
 76
     0
 77
     0
 78
     4
170
     0
171
     2
172
     0
173
     0
174
     0
175
     0
176
     0
177
     0
178
     0
  0
ENDTAB
  0
ENDSEC
  0
SECTION
  2
BLOCKS
  0
BLOCK
  8
0
  2
$MODEL_SPACE
 70
     0
 10
0.0
 20
0.0
 30
0.0
  3
$MODEL_SPACE
  1

  0
ENDBLK
  5
21
  8
0
  0
BLOCK
 67
     1
  8
0
  2
$PAPER_SPACE
 70
     0
 10
0.0
 20
0.0
 30
0.0
  3
$PAPER_SPACE
  1

  0
ENDBLK
  5
1D
 67
     1
  8
0
  0
ENDSEC
  0
SECTION
  2
ENTITIES
  0
ATTDEF
  5
12CA7
  8
DEFPOINTS
 10
4376.692215703437796
 20
222.5894061610372034
 30
0.0
 40
0.001
  1
K-4107T
  3

  2
MODELNUMBER
 70
     0
1001
ACDBATTR
1070
     0
1070
     1
  0
ATTDEF
  5
12CA8
  8
DEFPOINTS
 10
4376.692215703437796
 20
222.5877394943705099
 30
0.0
 40
0.001
  1
C3
  3

  2
TRADENAME
 70
     0
1001
ACDBATTR
1070
     0
1070
     1
  0
ATTDEF
  5
12CA9
  8
DEFPOINTS
 10
4376.692215703437796
 20
222.5860728277037879
 30
0.0
 40
0.001
  1
TOILET SEAT
  3

  2
PRODUCT
 70
     0
1001
ACDBATTR
1070
     0
1070
     1
  0
ARC
  5
14830
  8
0
 10
4376.6922222792882167
 20
215.5740630615233897
 30
0.0
 40
14.2260729231655603
 50
76.875463755429422
 51
103.1245362445706064
  0
ARC
  5
14831
  8
0
 10
4375.205473390626139
 20
222.3508114883794065
 30
0.0
 40
7.2893139673966418
 50
103.8388310730596942
 51
112.6503788756321001
  0
ARC
  5
14832
  8
0
 10
4375.7955384285251057
 20
221.3659945491071142
 30
0.0
 40
8.4270333082355542
 50
113.7742967135074963
 51
121.9086524420666962
  0
ARC
  5
14833
  8
0
 10
4374.7075763085285871
 20
223.1905074747116942
 30
0.0
 40
6.3032908781184434
 50
122.2796493970210037
 51
139.8406994613984864
  0
ARC
  5
14834
  8
0
 10
4373.4415637933370817
 20
224.1760295452843934
 30
0.0
 40
4.7005833688584566
 50
139.0693401357279981
 51
152.2923674577122881
  0
ARC
  5
14835
  8
0
 10
4370.6619020406496929
 20
225.6756924677565905
 30
0.0
 40
1.542780622068108
 50
153.6022503782889999
 51
161.8341401107369961
  0
ARC
  5
14836
  8
0
 10
4369.8813724384717716
 20
225.9261270166819031
 30
0.0
 40
0.723096608418752
 50
161.4068601017746971
 51
177.9350696509268914
  0
LINE
  5
14837
  8
0
 10
4369.1587453833235486
 20
225.9521816568745862
 30
0.0
 11
4369.1364726831243388
 21
225.0765194582745892
 31
0.0
  0
ARC
  5
14838
  8
0
 10
4376.6922222792882167
 20
450.7446567300157199
 30
0.0
 40
225.6360416865412049
 50
268.8331647885855205
 51
271.1668352114144795
  0
ARC
  5
14839
  8
0
 10
4372.7304389944192735
 20
248.2077971476909113
 30
0.0
 40
23.0610830916729412
 50
264.6985191549056822
 51
268.4270914642133903
  0
ARC
  5
1483A
  8
0
 10
4371.0335291820720158
 20
229.9208035469816878
 30
0.0
 40
4.6955273455590518
 50
257.1382409196543222
 51
264.6985191549056822
  0
ARC
  5
1483B
  8
0
 10
4370.3371681713088037
 20
226.8709792837832993
 30
0.0
 40
1.5672136314786931
 50
237.7781101605206118
 51
257.1382409196543222
  0
ARC
  5
1483C
  8
0
 10
4369.8311077503203705
 20
226.1142634100471867
 30
0.0
 40
0.6576705426232352
 50
207.3847304685457118
 51
239.9253420727036996
  0
ARC
  5
1483D
  8
0
 10
4369.6678710334408606
 20
225.9988998245262053
 30
0.0
 40
0.4604765720513956
 50
168.736972449129297
 51
203.9792909907058913
  0
ARC
  5
1483E
  8
0
 10
4370.1721342888140498
 20
225.9102561601831951
 30
0.0
 40
0.9724100880004979
 50
155.6260402531015075
 51
169.4176996055668099
  0
ARC
  5
1483F
  8
0
 10
4373.7424653208818199
 20
224.2783430930907116
 30
0.0
 40
4.8980145352205371
 50
148.655182178514508
 51
155.4737220130992057
  0
LINE
  5
14840
  8
0
 10
4369.1384764800659468
 20
225.1552997238404998
 30
0.0
 11
4368.9620102605231295
 21
225.1490245075746088
 31
0.0
  0
LINE
  5
14841
  8
0
 10
4368.9620102605231295
 20
225.1490245075746088
 30
0.0
 11
4368.910472106224006
 21
225.1381650567745965
 31
0.0
  0
ARC
  5
14842
  8
0
 10
4368.9145164296596704
 20
225.1189709953845011
 30
0.0
 40
0.0196155179566587
 50
101.8985717415350933
 51
122.2653094474037943
  0
ARC
  5
14843
  8
0
 10
4368.8285587981308709
 20
225.2520974316300908
 30
0.0
 40
0.1388512971169345
 50
287.8865625867754261
 51
302.9322443848654984
  0
ARC
  5
14844
  8
0
 10
4355.6703512027434044
 20
268.3908983924965241
 30
0.0
 40
45.2397709389928622
 50
286.3518866534283234
 51
286.9656022794397927
  0
ARC
  5
14845
  8
0
 10
4407.0381647422736933
 20
91.8725485778980868
 30
0.0
 40
138.6010132948588875
 50
106.1839648909663936
 51
106.4810523198280947
  0
LINE
  5
14846
  8
0
 10
4366.9876348675243207
 20
224.3846510147745903
 30
0.0
 11
4367.054485533022671
 21
224.2717047283746012
 31
0.0
  0
ARC
  5
14847
  8
0
 10
4367.0481447831980404
 20
224.4211726102874991
 30
0.0
 40
0.070677272398394
 50
148.8863386751328903
 51
211.1136613248698097
  0
ARC
  5
14848
  8
0
 10
4367.1341215492248011
 20
224.3718078806300014
 30
0.0
 40
0.1698081528288274
 50
127.8713197335867022
 51
149.6165594661902105
  0
ARC
  5
14849
  8
0
 10
4367.3396365136395616
 20
224.1203616233217133
 30
0.0
 40
0.4945239429834957
 50
119.2675487238098953
 51
128.7833405610363968
  0
ARC
  5
1484A
  8
0
 10
4367.7212231217408771
 20
223.4142876584022019
 30
0.0
 40
1.297076716045964
 50
111.1801326703373007
 51
118.7235174348329991
  0
ARC
  5
1484B
  8
0
 10
4369.4738106686681931
 20
218.7461321704996067
 30
0.0
 40
6.2833249743619248
 50
106.2334164020015947
 51
110.7022000528624943
  0
ARC
  5
1484C
  8
0
 10
4367.0469015893559117
 20
224.4409393287238004
 30
0.0
 40
0.0520714190587178
 50
143.0674933256412089
 51
216.9325066743614059
  0
ARC
  5
1484D
  8
0
 10
4367.1699459385727096
 20
224.3575947656692051
 30
0.0
 40
0.2006390578445441
 50
122.4999211108449941
 51
145.1563497630156974
  0
ARC
  5
1484E
  8
0
 10
4367.3754639803382815
 20
224.0768920618457969
 30
0.0
 40
0.548268384248631
 50
119.5053558111079042
 51
124.853072442396396
  0
ARC
  5
1484F
  8
0
 10
4367.9656376648154037
 20
223.0088625072365005
 30
0.0
 40
1.7684915699064561
 50
116.5904372801154949
 51
119.1043953146793939
  0
ARC
  5
14850
  8
0
 10
4367.1374794902312715
 20
224.5212083272062955
 30
0.0
 40
0.1729800941861089
 50
220.1592568070190907
 51
245.9518491420463135
  0
ARC
  5
14851
  8
0
 10
4367.3783688292842271
 20
225.0053609493008082
 30
0.0
 40
0.7136340011325696
 50
244.1300873019405913
 51
259.0336722043496138
  0
ARC
  5
14852
  8
0
 10
4367.5368714778642243
 20
226.003470581093012
 30
0.0
 40
1.724010119318458
 50
260.1724843123233768
 51
270.6974148491357823
  0
ARC
  5
14853
  8
0
 10
4367.535931144891947
 20
233.5722948962902024
 30
0.0
 40
9.2927325837457104
 50
270.1351807804439886
 51
272.9143505533078837
  0
ARC
  5
14854
  8
0
 10
4365.6449522334678477
 20
270.9697438318743252
 30
0.0
 40
46.7379586507436215
 50
272.8985753256317821
 51
274.2975219762849974
  0
ARC
  5
14855
  8
0
 10
4313.3809536909047893
 20
995.2773672740310076
 30
0.0
 40
772.9285513745161325
 50
274.1374513461985885
 51
274.2478705302179947
  0
ARC
  5
14856
  8
0
 10
4370.8162122362127775
 20
223.5007083512091981
 30
0.0
 40
0.9889952866915155
 50
92.8001537941182733
 51
98.5155299355391634
  0
ARC
  5
14857
  8
0
 10
4370.7590177315723849
 20
223.8826974291760905
 30
0.0
 40
0.6027481287122047
 50
98.5155299355391634
 51
110.0594433027825971
  0
ARC
  5
14858
  8
0
 10
4370.7202117721590184
 20
223.9889727326844877
 30
0.0
 40
0.489609529543566
 50
110.0594433027825971
 51
129.7662926828184027
  0
ARC
  5
14859
  8
0
 10
4370.5677645692239821
 20
224.1721645864091954
 30
0.0
 40
0.2512832721698119
 50
129.7662926828184027
 51
168.2511692238444994
  0
LINE
  5
1485A
  8
0
 10
4370.3217457750934045
 20
224.2233313315391001
 30
0.0
 11
4370.3068187884227882
 21
224.1448758229745977
 31
0.0
  0
LINE
  5
1485B
  8
0
 10
4370.3068187884227882
 20
224.1448758229745977
 30
0.0
 11
4370.2536909881237079
 21
223.7505008843745884
 31
0.0
  0
ARC
  5
1485C
  8
0
 10
4367.1586160320430281
 20
224.3384186120993036
 30
0.0
 40
0.1236685210862721
 50
212.6467010288205017
 51
226.0649433773347141
  0
ARC
  5
1485D
  8
0
 10
4367.2298464123832673
 20
224.4245734054703121
 30
0.0
 40
0.2352865307921394
 50
228.1311192694346062
 51
242.4732860908077043
  0
ARC
  5
1485E
  8
0
 10
4367.4357524100450973
 20
224.8276784993794024
 30
0.0
 40
0.6879302159164541
 50
242.7817339248967983
 51
259.6880069550610983
  0
ARC
  5
1485F
  8
0
 10
4367.5459221912387875
 20
225.4390930284793058
 30
0.0
 40
1.309190643591394
 50
259.7343057910508719
 51
267.5922809503961162
  0
ARC
  5
14860
  8
0
 10
4367.8144250883888162
 20
231.8248157069428999
 30
0.0
 40
7.7005557506731197
 50
267.5922809503961162
 51
268.1621995988587059
  0
ARC
  5
14861
  8
0
 10
4367.6534322891975535
 20
229.8117257264133002
 30
0.0
 40
5.6841548502394579
 50
269.1334441383942817
 51
271.8987259872027948
  0
ARC
  5
14862
  8
0
 10
4367.0596784051977011
 20
246.6077319765398101
 30
0.0
 40
22.490642437111191
 50
271.9927978859200834
 51
273.727831374929508
  0
ARC
  5
14863
  8
0
 10
4355.4932883809833584
 20
423.7611213290310843
 30
0.0
 40
200.0212163473117926
 50
273.734685746305388
 51
274.2475845883333818
  0
ARC
  5
14864
  8
0
 10
4360.3042102619683646
 20
220.2318559870437014
 30
0.0
 40
7.8978679207473581
 50
28.1412170559474006
 51
30.2794321311799415
  0
ARC
  5
14865
  8
0
 10
4364.8114475363236124
 20
222.6426649635062915
 30
0.0
 40
2.7863918356681969
 50
26.1325948096655196
 51
28.1412170559474006
  0
ARC
  5
14866
  8
0
 10
4367.3654342554227696
 20
223.895652277215703
 30
0.0
 40
0.0583973251741191
 50
206.1325948096655054
 51
236.6362149185237911
  0
ARC
  5
14867
  8
0
 10
4367.4751001777412966
 20
224.1330832264630999
 30
0.0
 40
0.319397654185722
 50
243.6468002967702944
 51
259.641548662693026
  0
ARC
  5
14868
  8
0
 10
4367.5424298788484521
 20
224.4829593718064871
 30
0.0
 40
0.6756860026607839
 50
259.3598035144323148
 51
271.7860795826774734
  0
ARC
  5
14869
  8
0
 10
4367.4575244065281368
 20
227.0595671508777968
 30
0.0
 40
3.2536914864532331
 50
271.8663209324868717
 51
276.7476415210825849
  0
ARC
  5
1486A
  8
0
 10
4366.9539297489227465
 20
232.9811475563523118
 30
0.0
 40
9.1955072798810882
 50
275.5284306156956973
 51
277.2116428325476249
  0
ARC
  5
1486B
  8
0
 10
4360.1492587681395889
 20
296.8780124037713222
 30
0.0
 40
73.4521085681623447
 50
276.2205946891763801
 51
276.8136570303024087
  0
ARC
  5
1486C
  8
0
 10
4322.8168303835791448
 20
614.3327605447575479
 30
0.0
 40
393.094348165766803
 50
276.7270375202919013
 51
276.929347007008289
  0
LINE
  5
1486D
  8
0
 10
4370.308149633823632
 20
224.2893015771745979
 30
0.0
 11
4370.3068190413550838
 21
224.1448858094775005
 31
0.0
  0
LINE
  5
1486E
  8
0
 10
4370.3071064989244405
 20
224.2236383000746116
 30
0.0
 11
4370.246681413323131
 21
223.7505588866746109
 31
0.0
  0
ARC
  5
1486F
  8
0
 10
4370.265189247024864
 20
223.992789349114986
 30
0.0
 40
0.1192233399059659
 50
76.7844069585975433
 51
101.3029174555191929
  0
ARC
  5
14870
  8
0
 10
4370.2738855284451347
 20
223.7485697031119969
 30
0.0
 40
0.0202866685248751
 50
174.5374797615696991
 51
265.2077818755344083
  0
ARC
  5
14871
  8
0
 10
4370.2672020841710037
 20
223.7488795904536119
 30
0.0
 40
0.020589268268764
 50
175.3216606564519964
 51
263.8913911935076726
  0
ARC
  5
14872
  8
0
 10
4371.6116011678914219
 20
425.8487228898450212
 30
0.0
 40
202.1242074858261901
 50
269.3953505920894145
 51
269.4201033767025137
  0
ARC
  5
14873
  8
0
 10
4371.7078813613406965
 20
417.6886076683089755
 30
0.0
 40
193.9655671224253126
 50
269.3672686892289789
 51
269.5766852941964089
  0
ARC
  5
14874
  8
0
 10
4393.1403358755042063
 20
2060.5836435900810102
 30
0.0
 40
1837.0777602413641034
 50
269.2620045393596229
 51
269.2655178451722122
  0
ARC
  5
14875
  8
0
 10
4371.1579964689653934
 20
345.8703973156095799
 30
0.0
 40
122.2236147832378066
 50
269.2655178451722122
 51
269.6113453742628963
  0
ARC
  5
14876
  8
0
 10
4368.0246997575086425
 20
-203.1608555268587963
 30
0.0
 40
426.8951201290057043
 50
89.3981312370602836
 51
89.6979969505608352
  0
ARC
  5
14877
  8
0
 10
4373.7912676312316762
 20
662.6782064496393332
 30
0.0
 40
439.0422644413500848
 50
269.5481533209567147
 51
269.8031557952697881
  0
ARC
  5
14878
  8
0
 10
4369.7134256007593649
 20
-700.7940000220428374
 30
0.0
 40
924.4361040375449647
 50
89.7327238397790552
 51
89.8407455405301931
  0
LINE
  5
14879
  8
0
 10
4367.3733397448240794
 20
223.7617863582746054
 30
0.0
 11
4367.3733418358251583
 21
223.659424641474601
 31
0.0
  0
ARC
  5
1487A
  8
0
 10
4367.4097611905572194
 20
223.3899291127698064
 30
0.0
 40
0.3736366319616286
 50
89.9990006780094234
 51
95.5939753976155231
  0
ARC
  5
1487B
  8
0
 10
4367.5855498837336199
 20
201.8064098968353051
 30
0.0
 40
21.9578594653450914
 50
90.0455984720994991
 51
90.4586824329144008
  0
ARC
  5
1487C
  8
0
 10
4367.7374116794308065
 20
128.8049737384901903
 30
0.0
 40
94.9594396554061575
 50
90.0066537690860287
 51
90.1021729896408345
  0
ARC
  5
1487D
  8
0
 10
4368.0880885004198717
 20
276.0374054405295965
 30
0.0
 40
52.2742440842483376
 50
269.6035465316938939
 51
270.4149826845696225
  0
ARC
  5
1487E
  8
0
 10
4368.495372371195117
 20
197.1788821711610922
 30
0.0
 40
26.5856657533928313
 50
89.660336309386139
 51
90.0617976134716685
  0
ARC
  5
1487F
  8
0
 10
4567.2698021650448936
 20
12288.7051493848903192
 30
0.0
 40
12066.5758039408501645
 50
269.05686419369232
 51
269.0588172427023892
  0
ARC
  5
14880
  8
0
 10
4368.1026130874588489
 20
247.1923554980392055
 30
0.0
 40
23.5442279817859017
 50
268.225006604928808
 51
270.083982691142694
  0
LINE
  5
14881
  8
0
 10
4368.1371236035229231
 20
223.6481528085745936
 30
0.0
 11
4368.4039473124230426
 21
223.6476704023745867
 31
0.0
  0
LINE
  5
14882
  8
0
 10
4368.4039473124230426
 20
223.6476704023745867
 30
0.0
 11
4369.4786009295239637
 21
223.6480895224746064
 31
0.0
  0
LINE
  5
14883
  8
0
 10
4369.4786009295239637
 20
223.6480895224746064
 30
0.0
 11
4369.4785988397243273
 21
223.7504512393745983
 31
0.0
  0
ARC
  5
14884
  8
0
 10
4369.322195252221718
 20
244.3972809553368108
 30
0.0
 40
20.6474221006430909
 50
269.9018288261971747
 51
270.4340179186814908
  0
LINE
  5
14885
  8
0
 10
4369.2868185228244329
 20
223.7498891625745898
 30
0.0
 11
4368.4039450073241824
 21
223.7500321191745911
 31
0.0
  0
ARC
  5
14886
  8
0
 10
4357.2772083970985477
 20
-502.8110665317572057
 30
0.0
 40
726.6639874884615438
 50
89.0445695429659452
 51
89.0705791945425034
  0
ARC
  5
14887
  8
0
 10
4357.5203013609552727
 20
-501.5725012114020842
 30
0.0
 40
725.4215749749882889
 50
89.055703233966895
 51
89.0621358200473452
  0
LINE
  5
14888
  8
0
 10
4369.4754967041253622
 20
223.7505542221745998
 30
0.0
 11
4369.4785988397243273
 21
223.7504512393745983
 31
0.0
  0
LINE
  5
14889
  8
0
 10
4367.5950054131244542
 20
223.8074063548745869
 30
0.0
 11
4368.1054833134230648
 21
223.8074059342746125
 31
0.0
  0
ARC
  5
1488A
  8
0
 10
4367.6070206195718129
 20
225.2425522591807123
 30
0.0
 40
1.4351961997694129
 50
268.5307035856445736
 51
269.5203243560185911
  0
ARC
  5
1488B
  8
0
 10
4368.1972147561991733
 20
253.2747027255963133
 30
0.0
 40
29.4674395705740118
 50
269.8216393047663928
 51
270.1783543241566008
  0
LINE
  5
1488C
  8
0
 10
4368.2889429223241677
 20
223.807405924074601
 30
0.0
 11
4369.1920186726229076
 21
223.807405873674611
 31
0.0
  0
ARC
  5
1488D
  8
0
 10
4369.1947466406290914
 20
224.6401463191112953
 30
0.0
 40
0.8327449136893694
 50
269.8123058689803884
 51
281.8160310664505914
  0
ARC
  5
1488E
  8
0
 10
4369.1570678118869182
 20
224.7498159330324086
 30
0.0
 40
0.9479158727192666
 50
282.6878708091912245
 51
289.553698067440223
  0
ARC
  5
1488F
  8
0
 10
4368.1065468034230435
 20
223.8717858711742963
 30
0.0
 40
0.0142210602997067
 50
259.0572432861227981
 51
276.3361720729884041
  0
ARC
  5
14890
  8
0
 10
4368.245795755961808
 20
222.5974038816881944
 30
0.0
 40
1.2677461013769851
 50
95.1131850572296997
 51
96.2345128307266151
  0
ARC
  5
14891
  8
0
 10
4368.2682123741888063
 20
222.335441827280107
 30
0.0
 40
1.530663886560895
 50
94.1711251115078056
 51
95.0750207697246168
  0
ARC
  5
14892
  8
0
 10
4368.3688933225930668
 20
220.9155035396561004
 30
0.0
 40
2.954165603727287
 50
91.7932058658372227
 51
94.1155438781798637
  0
ARC
  5
14893
  8
0
 10
4368.4156810099912036
 20
219.6411857478802006
 30
0.0
 40
4.2293290353409621
 50
90.156921558499036
 51
91.8865264074943155
  0
ARC
  5
14894
  8
0
 10
3952.1168898541159251
 20
96250.4370014660526067
 30
0.0
 40
96027.4688269306789152
 50
270.2483828333466249
 51
270.2489082781834213
  0
ARC
  5
14895
  8
0
 10
4369.2951566543779336
 20
221.2061936459741105
 30
0.0
 40
2.6681453209780779
 50
88.7433731904875884
 51
90.2238312639760949
  0
ARC
  5
14896
  8
0
 10
4369.3183784767115867
 20
222.118722001334902
 30
0.0
 40
1.7553300887526619
 50
85.5513468752026682
 51
88.8479557177161752
  0
ARC
  5
14897
  8
0
 10
4369.4650239600196073
 20
223.8830252154452864
 30
0.0
 40
0.0280447584579476
 50
289.3709605283747806
 51
306.0988444416320249
  0
ARC
  5
14898
  8
0
 10
4369.4491622700279549
 20
223.8016540718543865
 30
0.0
 40
0.0673241101405148
 50
69.8849563713277604
 51
85.4254311880044241
  0
ARC
  5
14899
  8
0
 10
4369.4551443694199406
 20
223.8179876370423074
 30
0.0
 40
0.049929545906344
 50
47.2806355681010473
 51
69.8849563712788324
  0
ARC
  5
1489A
  8
0
 10
4369.469146890826778
 20
223.8331517377010016
 30
0.0
 40
0.0292892805366068
 50
23.7645463540375594
 51
47.280635568099953
  0
ARC
  5
1489B
  8
0
 10
4369.4883012775026145
 20
223.8415856746613031
 30
0.0
 40
0.0083603096693833
 50
304.3392396479413264
 51
23.7645463540300987
  0
ARC
  5
1489C
  8
0
 10
4367.66008612278074
 20
226.0442149118493944
 30
0.0
 40
2.870830921738631
 50
307.14521744216961
 51
309.6776108533742899
  0
LINE
  5
1489D
  8
0
 10
4369.393600765123665
 20
223.7558536715746129
 30
0.0
 11
4369.3940647495228404
 21
223.7518918584746075
 31
0.0
  0
ARC
  5
1489E
  8
0
 10
4369.6452546391938085
 20
225.119867107602488
 30
0.0
 40
1.5539787305565089
 50
237.6270920840827898
 51
240.7390731850875056
  0
ARC
  5
1489F
  8
0
 10
4387.967211276964008
 20
1373.4001868736570486
 30
0.0
 40
1149.7943606885130521
 50
269.049098762752692
 51
269.0744120711601113
  0
LINE
  5
148A0
  8
0
 10
4368.8856890656243195
 20
223.7641717013746074
 30
0.0
 11
4368.8861257085236502
 21
223.7602448622720885
 31
0.0
  0
ARC
  5
148A1
  8
0
 10
4368.9469950071143103
 20
223.837883115507907
 30
0.0
 40
0.0118070979987223
 50
179.9488298725910909
 51
268.0557370414791194
  0
ARC
  5
148A2
  8
0
 10
4369.1753270343060649
 20
223.8379040390356067
 30
0.0
 40
0.0118293845749498
 50
272.0420647588599081
 51
359.9746608644800858
  0
ARC
  5
148A3
  8
0
 10
4369.0612244356461815
 20
242.552018725506997
 30
0.0
 40
18.7262867587559008
 50
269.6492707309542993
 51
270.35040526609572
  0
LINE
  5
148A4
  8
0
 10
4368.9351879138239383
 20
223.8378936602746023
 30
0.0
 11
4368.9351879138239383
 21
223.843534449465011
 31
0.0
  0
LINE
  5
148A5
  8
0
 10
4369.1871564177226901
 20
223.8378988074746019
 30
0.0
 11
4369.1871564177226901
 21
223.8434344257946975
 31
0.0
  0
ARC
  5
148A6
  8
0
 10
4369.0594745820080789
 20
221.8408576906390124
 30
0.0
 40
2.0080139316022709
 50
87.5368442868948904
 51
91.8953967381721242
  0
ARC
  5
148A7
  8
0
 10
4369.0159132709814003
 20
223.1385353703196017
 30
0.0
 40
0.7096057249516347
 50
91.8455827826658151
 51
96.8928070360210825
  0
ARC
  5
148A8
  8
0
 10
4368.9311824584819988
 20
223.840496552101996
 30
0.0
 40
0.0025523818007507
 50
99.7110882310602733
 51
261.3237084923330826
  0
LINE
  5
148A9
  8
0
 10
4368.9307974271523562
 20
223.8379733787566011
 30
0.0
 11
4368.9351984577961048
 21
223.8373841291964084
 31
0.0
  0
ARC
  5
148AA
  8
0
 10
4369.1103585330693022
 20
223.1970062584591119
 30
0.0
 40
0.6509741090185278
 50
82.8203623222001823
 51
86.881451717700898
  0
ARC
  5
148AB
  8
0
 10
4369.1913406137273341
 20
223.8403956340499974
 30
0.0
 40
0.0025090599954609
 50
275.7090402350218028
 51
81.3564410503877582
  0
LINE
  5
148AC
  8
0
 10
4369.1915902068603828
 20
223.8378990192763922
 30
0.0
 11
4369.1871407355001793
 21
223.8372951026495059
 31
0.0
  0
ARC
  5
148AD
  8
0
 10
4368.199734893666573
 20
221.2510082086579928
 30
0.0
 40
2.5766442563824561
 50
87.6178896795901068
 51
92.6961358522490428
  0
ARC
  5
148AE
  8
0
 10
4368.0858890947802138
 20
223.6971038019368905
 30
0.0
 40
0.1279082110431322
 50
93.2974305425751567
 51
102.1058875931548044
  0
ARC
  5
148AF
  8
0
 10
4368.0761391367968827
 20
223.8873609202329078
 30
0.0
 40
0.0673923230436272
 50
255.3232985188654141
 51
266.2041116663075968
  0
LINE
  5
148B0
  8
0
 10
4368.0716775264627358
 20
223.8242200549427139
 30
0.0
 11
4368.0716776244244102
 21
223.8194242943746133
 31
0.0
  0
ARC
  5
148B1
  8
0
 10
4368.0834670883095896
 20
223.8193870033051098
 30
0.0
 40
0.0117895228638249
 50
179.8187692171883043
 51
264.8144558789584266
  0
ARC
  5
148B2
  8
0
 10
4368.294971265240747
 20
223.583614100067507
 30
0.0
 40
0.2421023701836994
 50
80.1872809391666692
 51
87.1924578611445753
  0
ARC
  5
148B3
  8
0
 10
4368.319714171691885
 20
223.8819998185545899
 30
0.0
 40
0.0620637959695578
 50
273.6319157762667942
 51
285.4351979166104911
  0
LINE
  5
148B4
  8
0
 10
4368.3236460129101033
 20
223.8240123456820925
 30
0.0
 11
4368.3236456414206259
 21
223.8194294414736021
 31
0.0
  0
ARC
  5
148B5
  8
0
 10
4368.2015628639974238
 20
242.3471981698752984
 30
0.0
 40
18.5399353831497606
 50
269.6317415322267834
 51
270.3402833835568231
  0
ARC
  5
148B6
  8
0
 10
4368.3117873163428158
 20
223.8194475398937868
 30
0.0
 40
0.0118583388894006
 50
269.4433312091645121
 51
359.9125540680192898
  0
LINE
  5
148B7
  8
0
 10
4368.7407291888703185
 20
223.8074058988607078
 30
0.0
 11
4368.7375885117253347
 21
223.772741383474596
 31
0.0
  0
ARC
  5
148B8
  8
0
 10
4368.7571301034704447
 20
223.7708158951473933
 30
0.0
 40
0.0196362245166389
 50
174.3726492712874858
 51
204.5395842701771016
  0
ARC
  5
148B9
  8
0
 10
4369.5252893206234148
 20
225.060684823246504
 30
0.0
 40
0.3891389382503781
 50
177.6679066857140867
 51
199.3135428660555135
  0
ARC
  5
148BA
  8
0
 10
4369.4420391281482807
 20
225.0414441420450089
 30
0.0
 40
0.3043546754380941
 50
201.078901956525101
 51
242.9394393567696113
  0
ARC
  5
148BB
  8
0
 10
4369.8622772274429735
 20
225.9317855944867119
 30
0.0
 40
1.288775179624887
 50
244.3093875460978097
 51
262.1795482362830967
  0
ARC
  5
148BC
  8
0
 10
4370.6780034899229577
 20
231.6170427870196988
 30
0.0
 40
7.032235800240672
 50
261.8980396998618971
 51
269.0772133231823773
  0
ARC
  5
148BD
  8
0
 10
4373.0608072659952086
 20
294.715580854671316
 30
0.0
 40
70.1742675406567855
 50
267.9615925989090215
 51
269.7842014632151972
  0
ARC
  5
148BE
  8
0
 10
4375.7355186621889516
 20
551.1472397128525245
 30
0.0
 40
326.6186520085450979
 50
269.4844280497296154
 51
269.8102438926155173
  0
LINE
  5
148BF
  8
0
 10
4370.7832863568228277
 20
224.4996459143746108
 30
0.0
 11
4371.0141465780252474
 21
224.49102135327459
 31
0.0
  0
LINE
  5
148C0
  8
0
 10
4371.0281802844228878
 20
224.4917519412746003
 30
0.0
 11
4371.1371965047237609
 21
224.5072666305746054
 31
0.0
  0
LINE
  5
148C1
  8
0
 10
4370.7067079731232297
 20
224.5802655488745927
 30
0.0
 11
4370.7080309166240113
 21
224.5690815658745976
 31
0.0
  0
ARC
  5
148C2
  8
0
 10
4370.786225910261237
 20
224.5783311828101034
 30
0.0
 40
0.0787401577542783
 50
186.7461192420603879
 51
267.8605179738437982
  0
ARC
  5
148C3
  8
0
 10
4371.0170860447224186
 20
224.5697082800411977
 30
0.0
 40
0.0787418116914369
 50
267.8606260912301877
 51
278.0995747659122799
  0
LINE
  5
148C4
  8
0
 10
4370.9429099492226669
 20
224.5720333153745969
 30
0.0
 11
4370.944408651123922
 21
224.5593634952745958
 31
0.0
  0
ARC
  5
148C5
  8
0
 10
4371.0217318207296557
 20
224.5685136933900026
 30
0.0
 40
0.0778626912164645
 50
186.7488292554596967
 51
264.4094821613555837
  0
ARC
  5
148C6
  8
0
 10
4371.1261024550622096
 20
224.5852206359288061
 30
0.0
 40
0.0787394747802319
 50
278.0996770896073826
 51
345.8143721994845805
  0
ARC
  5
148C7
  8
0
 10
4369.7766942034922977
 20
224.9861973878601873
 30
0.0
 40
0.8292626616995374
 50
168.7244026380085984
 51
175.6656333327821926
  0
ARC
  5
148C8
  8
0
 10
4369.430981172704378
 20
225.0124002256455071
 30
0.0
 40
0.4825580491471092
 50
175.6656333327821926
 51
197.076127448556889
  0
ARC
  5
148C9
  8
0
 10
4369.2211278794484315
 20
224.9635670625854971
 30
0.0
 40
0.2680333478557517
 50
200.2717073158150924
 51
232.3537171997257076
  0
ARC
  5
148CA
  8
0
 10
4369.4985843445656428
 20
225.3840247668508994
 30
0.0
 40
0.7713102747348988
 50
235.1122071147759129
 51
256.3652628635118731
  0
ARC
  5
148CB
  8
0
 10
4369.9721542397101075
 20
226.8232105733588071
 30
0.0
 40
2.2847768941867979
 50
253.3304405938363004
 51
264.0276539868984855
  0
ARC
  5
148CC
  8
0
 10
4371.6093049680166587
 20
247.0449979385907966
 30
0.0
 40
22.5721629030600184
 50
265.2354359781253947
 51
267.8637282238847206
  0
ARC
  5
148CD
  8
0
 10
4369.8496932177185954
 20
-5.0651856357669942
 30
0.0
 40
229.5555447991287963
 50
89.1193506785506031
 51
89.7708207646055456
  0
ARC
  5
148CE
  8
0
 10
4368.9619058134885563
 20
225.1469718237379993
 30
0.0
 40
0.0020553394162848
 50
41.8029347072251483
 51
87.0871220059008948
  0
LINE
  5
148CF
  8
0
 10
4369.05009947972394
 20
223.6479224048399885
 30
0.0
 11
4369.05009947972394
 21
223.585568787674589
 31
0.0
  0
LINE
  5
148D0
  8
0
 10
4369.05009947972394
 20
223.585568787674589
 30
0.0
 11
4369.2162880064897763
 21
223.5187490741051022
 31
0.0
  0
LINE
  5
148D1
  8
0
 10
4369.2135933947856756
 20
223.6479861682564092
 30
0.0
 11
4369.2174393698242056
 21
223.4635281859746101
 31
0.0
  0
LINE
  5
148D2
  8
0
 10
4369.2174393698242056
 20
223.4635281859746101
 30
0.0
 11
4371.9431380328005616
 21
223.4635281859746101
 31
0.0
  0
LINE
  5
148D3
  8
0
 10
4369.3553395564240418
 20
223.4635275092745985
 30
0.0
 11
4369.4049843713237351
 21
223.4438426606745907
 31
0.0
  0
LINE
  5
148D4
  8
0
 10
4369.4049843713237351
 20
223.4438426606745907
 30
0.0
 11
4372.0021968338942315
 21
223.4438426606745907
 31
0.0
  0
LINE
  5
148D5
  8
0
 10
4370.8284717282231213
 20
223.4438426606745907
 30
0.0
 11
4370.8284717282231213
 21
223.439118251274607
 31
0.0
  0
LINE
  5
148D6
  8
0
 10
4370.8284717282231213
 20
223.439118251274607
 30
0.0
 11
4371.4859774172236939
 21
223.439118251274607
 31
0.0
  0
LINE
  5
148D7
  8
0
 10
4371.4859774172236939
 20
223.439118251274607
 30
0.0
 11
4371.4859774172236939
 21
223.4438426606745907
 31
0.0
  0
LINE
  5
148D8
  8
0
 10
4371.4215260908240452
 20
223.6373922822745897
 30
0.0
 11
4372.054103828125335
 21
223.426540981174611
 31
0.0
  0
ARC
  5
148D9
  8
0
 10
4372.5892281620217545
 20
239.6558787201464895
 30
0.0
 40
16.2381575770881987
 50
268.1114902956791752
 51
269.5198231252069263
  0
LINE
  5
148DA
  8
0
 10
4369.462854496789987
 20
223.6480833812898084
 30
0.0
 11
4369.5687286505226439
 21
223.4960161184746141
 31
0.0
  0
ARC
  5
148DB
  8
0
 10
4369.5849665535652093
 20
223.507481838786191
 30
0.0
 40
0.0198779334301274
 50
215.2262377350301108
 51
269.2424350199215723
  0
LINE
  5
148DC
  8
0
 10
4369.5847037351240942
 20
223.4876056428745983
 30
0.0
 11
4369.6620027956241756
 21
223.4862266563746118
 31
0.0
  0
ARC
  5
148DD
  8
0
 10
4369.6888416622769
 20
224.8114811557728956
 30
0.0
 40
1.3255262400038039
 50
268.8398125731674213
 51
269.3733725902249034
  0
LINE
  5
148DE
  8
0
 10
4369.6743450532239876
 20
223.4860341891746032
 30
0.0
 11
4371.250793947722741
 21
223.4850881032745917
 31
0.0
  0
LINE
  5
148DF
  8
0
 10
4371.250793947722741
 20
223.4850881032745917
 30
0.0
 11
4371.3203145493253032
 21
223.4851417698745877
 31
0.0
  0
ARC
  5
148E0
  8
0
 10
4371.3193919906871088
 20
223.5053656474308923
 30
0.0
 40
0.0202449089365648
 50
272.6118679047331739
 51
328.0731382868681862
  0
LINE
  5
148E1
  8
0
 10
4371.3365743277227011
 20
223.4946594047746089
 30
0.0
 11
4371.4223877339227329
 21
223.6388399432746041
 31
0.0
  0
LINE
  5
148E2
  8
0
 10
4371.4223877339227329
 20
223.6388399432746041
 30
0.0
 11
4371.4137121873391152
 21
223.6423796702071058
 31
0.0
  0
ARC
  5
148E3
  8
0
 10
4372.4737290394532465
 20
223.4238973894512128
 30
0.0
 40
0.0197506572534883
 50
217.7311072962417029
 51
269.4864113404771047
  0
ARC
  5
148E4
  8
0
 10
4372.4844949335292768
 20
224.531987419706013
 30
0.0
 40
1.127892980007124
 50
269.4441017729673717
 51
269.7824820292242975
  0
ARC
  5
148E5
  8
0
 10
4372.8205229949899149
 20
333.3733864961031941
 30
0.0
 40
109.9698104873344988
 50
269.8226935451029931
 51
270.3812171630063972
  0
ARC
  5
148E6
  8
0
 10
4373.5357252417634299
 20
227.8041894930863975
 30
0.0
 40
4.3982102268695691
 50
270.2146331762596105
 51
270.3842828248630781
  0
ARC
  5
148E7
  8
0
 10
4373.5656601080054315
 20
223.4259148490916118
 30
0.0
 40
0.0198414563233097
 50
268.7400354235090276
 51
301.6187138315286802
  0
ARC
  5
148E8
  8
0
 10
4376.1085568702410455
 20
632.9040724955601718
 30
0.0
 40
409.5028846989259819
 50
269.6456626252327169
 51
269.9672903890927955
  0
LINE
  5
148E9
  8
0
 10
4373.7174822254701212
 20
223.4081685607372947
 30
0.0
 11
4373.7174830282228868
 21
223.3257324244746087
 31
0.0
  0
LINE
  5
148EA
  8
0
 10
4373.7174830282228868
 20
223.3257324244746087
 30
0.0
 11
4374.0340525413239448
 21
223.3257324244746087
 31
0.0
  0
LINE
  5
148EB
  8
0
 10
4374.028436761022931
 20
223.3257324244746087
 30
0.0
 11
4374.028436761022931
 21
223.4064709414824108
 31
0.0
  0
LINE
  5
148EC
  8
0
 10
4374.028436761022931
 20
223.3548021352746105
 30
0.0
 11
4374.0395138619242061
 21
223.3427684659745864
 31
0.0
  0
LINE
  5
148ED
  8
0
 10
4374.0395138619242061
 20
223.3427684659745864
 30
0.0
 11
4374.06946000019434
 21
223.3427684659745864
 31
0.0
  0
LINE
  5
148EE
  8
0
 10
4374.0340525413239448
 20
223.3487014015535976
 30
0.0
 11
4374.0340525413239448
 21
223.3257324244746087
 31
0.0
  0
LINE
  5
148EF
  8
0
 10
4374.0694582081168846
 20
223.4062646199627125
 30
0.0
 11
4374.0694627131242669
 21
223.2466450689746011
 31
0.0
  0
ARC
  5
148F0
  8
0
 10
4374.5385884611423535
 20
223.239934206030199
 30
0.0
 40
0.4691737451469186
 50
179.1804374394641002
 51
248.8851881661132097
  0
ARC
  5
148F1
  8
0
 10
4374.5710684037831015
 20
223.308656752619612
 30
0.0
 40
0.5450109848964417
 50
248.3024778828456931
 51
266.7294871599304997
  0
ARC
  5
148F2
  8
0
 10
4374.59614221616539
 20
223.8358047310354948
 30
0.0
 40
1.07274271311898
 50
266.9987273057561197
 51
269.9655012875580837
  0
ARC
  5
148F3
  8
0
 10
4493.247695411125278
 20
-34317.5341149099476752
 30
0.0
 40
34540.5009724566407385
 50
90.1961153553939852
 51
90.1968206429606312
  0
ARC
  5
148F4
  8
0
 10
4303.0341702344976511
 20
21091.7739805428391264
 30
0.0
 40
20869.1336135582896532
 50
270.1981487126919887
 51
270.1996121278908731
  0
ARC
  5
148F5
  8
0
 10
4375.0939739657169412
 20
221.5534860350319946
 30
0.0
 40
1.2132504440145591
 50
90.9465637414935486
 51
93.4637386725845261
  0
ARC
  5
148F6
  8
0
 10
4375.125582431294788
 20
219.6403904574854096
 30
0.0
 40
3.1266071237595381
 50
89.5036154145300173
 51
90.9465637418062443
  0
ARC
  5
148F7
  8
0
 10
4375.142492620117082
 20
221.5922202223850945
 30
0.0
 40
1.174704107307508
 50
86.8647297822745799
 51
89.5036154153117138
  0
ARC
  5
148F8
  8
0
 10
4375.7392336722296022
 20
222.8304175474033002
 30
0.0
 40
0.0634035569276215
 50
270.4803729497259042
 51
357.697850001557299
  0
ARC
  5
148F9
  8
0
 10
4375.45144917376183
 20
222.8456140447420069
 30
0.0
 40
0.3515848929405274
 50
357.1072351468520765
 51
359.0295075871492827
  0
LINE
  5
148FA
  8
0
 10
4375.8057175870244464
 20
223.1564410858746044
 30
0.0
 11
4375.8029836320711183
 21
222.8396590833409903
 31
0.0
  0
LINE
  5
148FB
  8
0
 10
4375.8360060468075972
 20
223.401278496800586
 30
0.0
 11
4375.8397262115686317
 21
222.5860547101106874
 31
0.0
  0
LINE
  5
148FC
  8
0
 10
4375.837081158422734
 20
223.1564410858746044
 30
0.0
 11
4375.8004336139238148
 21
223.1564410858746044
 31
0.0
  0
LINE
  5
148FD
  8
0
 10
4375.8000204317331736
 20
223.4013040366849054
 30
0.0
 11
4375.7999112144243554
 21
223.2240886940745952
 31
0.0
  0
ARC
  5
148FE
  8
0
 10
4379.6543204993031395
 20
223.2200280270049007
 30
0.0
 40
3.8544114238598608
 50
179.9396382216231984
 51
180.9452619959791093
  0
ARC
  5
148FF
  8
0
 10
4375.7360878380231952
 20
223.3415090399745964
 30
0.0
 40
0.0629583220999794
 50
30.9885318241051912
 51
71.864641276297931
  0
LINE
  5
14900
  8
0
 10
4374.6601606890244511
 20
223.4037345571746016
 30
0.0
 11
4374.6601606890244511
 21
223.3847875425745997
 31
0.0
  0
LINE
  5
14901
  8
0
 10
4374.6601606890244511
 20
223.3847875425745997
 30
0.0
 11
4374.3188875408241074
 21
223.3847875425745997
 31
0.0
  0
LINE
  5
14902
  8
0
 10
4374.2851570446227925
 20
223.353291479574608
 30
0.0
 11
4374.2851570446227925
 21
223.1608691260746014
 31
0.0
  0
LINE
  5
14903
  8
0
 10
4374.3188874828238113
 20
222.9517166764746037
 30
0.0
 11
4375.7663563971227632
 21
222.9517166764746037
 31
0.0
  0
LINE
  5
14904
  8
0
 10
4375.7990748431238899
 20
223.3414813345746097
 30
0.0
 11
4375.7982525958232145
 21
223.3414804559745903
 31
0.0
  0
LINE
  5
14905
  8
0
 10
4375.7982525958232145
 20
223.3414804559745903
 30
0.0
 11
4375.7982517067239314
 21
223.1303678983746011
 31
0.0
  0
ARC
  5
14906
  8
0
 10
4370.4922039282646438
 20
222.9373143693167947
 30
0.0
 40
5.3095586155876386
 50
1.567564670175885
 51
2.083712012264852
  0
ARC
  5
14907
  8
0
 10
4374.4993939529704221
 20
223.0469751039094035
 30
0.0
 40
1.300868384252416
 50
357.1905048169703036
 51
1.567564670175885
  0
ARC
  5
14908
  8
0
 10
4375.7657115455167514
 20
222.9847325607047139
 30
0.0
 40
0.0330221811074434
 50
271.1189334827820971
 51
357.3619316396864178
  0
LINE
  5
14909
  8
0
 10
4374.3334359676227905
 20
222.9399055820746014
 30
0.0
 11
4375.7368240951227563
 21
222.939905931174593
 31
0.0
  0
ARC
  5
1490A
  8
0
 10
4375.7364304569628075
 20
223.0010764167778916
 30
0.0
 40
0.0611717521405629
 50
270.368698952484408
 51
307.8145828053865216
  0
ARC
  5
1490B
  8
0
 10
4374.3163248013543125
 20
222.9821431819482882
 30
0.0
 40
0.030534236058218
 50
177.992443237244089
 51
274.8143912502353032
  0
ARC
  5
1490C
  8
0
 10
4372.9985070929478752
 20
223.0493343834451139
 30
0.0
 40
1.2889992619008659
 50
357.0596146145462058
 51
0.0358927763777098
  0
ARC
  5
1490D
  8
0
 10
4373.0379000739003459
 20
223.0513259933109111
 30
0.0
 40
1.2496065890568779
 50
359.9457068398467072
 51
2.4849664621084901
  0
ARC
  5
1490E
  8
0
 10
4375.5347629823118041
 20
223.1596850018667908
 30
0.0
 40
1.249606498725468
 50
179.9457066446514091
 51
182.4849664504029931
  0
ARC
  5
1490F
  8
0
 10
4374.3167262283277523
 20
223.3532924304317078
 30
0.0
 40
0.0315691837176685
 50
86.0743037245935625
 51
180.0017257367613865
  0
LINE
  5
14910
  8
0
 10
4374.2820665182243829
 20
223.3414804559745903
 30
0.0
 11
4374.2820665426243067
 21
222.9918729410746039
 31
0.0
  0
ARC
  5
14911
  8
0
 10
4374.3319285607176425
 20
222.9897883842226918
 30
0.0
 40
0.0499055730928063
 50
177.6060575915169863
 51
271.7308926992316174
  0
ARC
  5
14912
  8
0
 10
4374.3468519501857372
 20
223.3401786926208104
 30
0.0
 40
0.0647985091065094
 50
89.9806847615528227
 51
178.8488845660172046
  0
ARC
  5
14913
  8
0
 10
4375.766242561890067
 20
223.3533164863517015
 30
0.0
 40
0.0314952978610505
 50
359.9545080365500098
 51
40.8673415287133182
  0
ARC
  5
14914
  8
0
 10
4375.750832221251585
 20
223.3420006741581005
 30
0.0
 40
0.0482454171778055
 50
359.3832255433810019
 51
13.5343665260119899
  0
LINE
  5
14915
  8
0
 10
4376.0346001217603771
 20
223.4012545283742099
 30
0.0
 11
4376.0362257904243961
 21
222.6329968417745988
 31
0.0
  0
LINE
  5
14916
  8
0
 10
4376.0362206096242517
 20
222.6354451815745961
 30
0.0
 11
4376.1543527853227715
 21
222.6354451815745961
 31
0.0
  0
LINE
  5
14917
  8
0
 10
4376.1543527853227715
 20
222.6354451815745961
 30
0.0
 11
4376.1543602837227809
 21
222.6678105368746117
 31
0.0
  0
LINE
  5
14918
  8
0
 10
4376.0731537977462722
 20
223.4012545283742099
 30
0.0
 11
4376.0763693116241484
 21
222.6678105368746117
 31
0.0
  0
LINE
  5
14919
  8
0
 10
4376.0763693116241484
 20
222.6678105368746117
 30
0.0
 11
4377.3080752469522849
 21
222.6678105368746117
 31
0.0
  0
LINE
  5
1491A
  8
0
 10
4377.3482187681520372
 20
222.6329968417745988
 30
0.0
 11
4376.0362257904243961
 21
222.6329968417745988
 31
0.0
  0
ARC
  5
1491B
  8
0
 10
4367.1067993246897458
 20
224.4521383963738117
 30
0.0
 40
0.0518768393758637
 50
181.2885431203592077
 51
215.1041870977670101
  0
ARC
  5
1491C
  8
0
 10
4367.206716475918256
 20
224.5415106927696058
 30
0.0
 40
0.1856760487660246
 50
219.9414506104785971
 51
245.5551972995984897
  0
ARC
  5
1491D
  8
0
 10
4367.4468802399860579
 20
225.0301986493404911
 30
0.0
 40
0.7301262988417698
 50
244.267454016621798
 51
260.7389507753655948
  0
ARC
  5
1491E
  8
0
 10
4367.5619445067168272
 20
225.7278673163741018
 30
0.0
 40
1.4372193008587359
 50
260.687659446157511
 51
267.3672182422267838
  0
ARC
  5
1491F
  8
0
 10
4367.6292437451529622
 20
226.9274011750302122
 30
0.0
 40
2.6386062266983581
 50
267.1038613951590719
 51
269.8286976042176093
  0
ARC
  5
14920
  8
0
 10
4367.6394588215443946
 20
230.3440435283168028
 30
0.0
 40
6.0552638504671803
 50
269.8286976042176093
 51
271.4112968718819161
  0
ARC
  5
14921
  8
0
 10
4367.4459554397853935
 20
237.6120008205556928
 30
0.0
 40
13.3257901044943807
 50
271.4733836872964048
 51
272.1159206757693028
  0
ARC
  5
14922
  8
0
 10
4367.8590598158225475
 20
226.4417147770232077
 30
0.0
 40
2.1478679126915741
 50
272.1052441344094746
 51
275.9259395342360222
  0
ARC
  5
14923
  8
0
 10
4368.1696219711857339
 20
229.1659880583862048
 30
0.0
 40
4.7771349952953059
 50
280.7180825422316275
 51
282.0206759747306933
  0
ARC
  5
14924
  8
0
 10
4368.9594376661589195
 20
225.4567796127433041
 30
0.0
 40
0.9847694900659604
 50
282.0206759747306933
 51
286.5715931672727947
  0
ARC
  5
14925
  8
0
 10
4369.198653744803778
 20
224.652889677366602
 30
0.0
 40
0.1460422635600814
 50
286.5715931672727947
 51
300.4858144239515241
  0
ARC
  5
14926
  8
0
 10
4369.2697642669181732
 20
224.5322758394000005
 30
0.0
 40
0.0060272267648951
 50
299.6357863113044004
 51
59.1226620684195723
  0
ARC
  5
14927
  8
0
 10
4369.2481003029142812
 20
224.4812774704149945
 30
0.0
 40
0.0613851473843517
 50
66.2148316234885499
 51
79.1754686346530576
  0
ARC
  5
14928
  8
0
 10
4368.8199446356329645
 20
222.4037326839265063
 30
0.0
 40
2.1825837878148131
 50
78.3781715485002763
 51
79.0108610366347932
  0
ARC
  5
14929
  8
0
 10
4369.6712125199182992
 20
226.6729531749898001
 30
0.0
 40
2.1707345477492419
 50
251.7942193877759962
 51
258.4342015420729126
  0
ARC
  5
1492A
  8
0
 10
4369.3056988287416971
 20
225.6083509134749931
 30
0.0
 40
1.0453299734964849
 50
245.4911876324048023
 51
252.5945862077421964
  0
ARC
  5
1492B
  8
0
 10
4369.0035116991857649
 20
224.964680804224912
 30
0.0
 40
0.3343932760269137
 50
237.8973495830873048
 51
246.8523884766898959
  0
ARC
  5
1492C
  8
0
 10
4368.7358484091282662
 20
224.5337252967404993
 30
0.0
 40
0.1729295205055223
 50
58.6558301575352985
 51
80.2787674846649253
  0
ARC
  5
1492D
  8
0
 10
4368.64817456747096
 20
224.06258154222499
 30
0.0
 40
0.6521483227358665
 50
79.6760472148058625
 51
85.4895844764382389
  0
ARC
  5
1492E
  8
0
 10
4368.5521440690481541
 20
222.8452276689187102
 30
0.0
 40
1.873283986567353
 50
85.4895844764382389
 51
90.1381221085363364
  0
ARC
  5
1492F
  8
0
 10
4368.5573050036673521
 20
220.7043741709248081
 30
0.0
 40
4.0141437052595661
 50
90.1381221085363364
 51
93.1426269712608246
  0
ARC
  5
14930
  8
0
 10
4365.493887994144643
 20
276.4999927878803874
 30
0.0
 40
51.8655089477678715
 50
272.3555868182406812
 51
273.1426269712608246
  0
ARC
  5
14931
  8
0
 10
4367.6842014971098251
 20
223.2542351356975132
 30
0.0
 40
1.4252799485908261
 50
92.3555868182407238
 51
103.9477830365837008
  0
ARC
  5
14932
  8
0
 10
4367.4759579150368154
 20
224.0988248544317969
 30
0.0
 40
0.5553997234933885
 50
104.0998548667788981
 51
110.5380675161462989
  0
ARC
  5
14933
  8
0
 10
4367.6588571683196278
 20
223.6835163743571115
 30
0.0
 40
1.0088015361111231
 50
111.9905807491975054
 51
120.2794762996792031
  0
ARC
  5
14934
  8
0
 10
4367.3247743447336688
 20
224.2524112726034957
 30
0.0
 40
0.3490706920576882
 50
120.007210747837604
 51
133.7985354298500908
  0
ARC
  5
14935
  8
0
 10
4367.1687571364818723
 20
224.4171356435313101
 30
0.0
 40
0.1222009311942171
 50
134.4549770685082137
 51
152.0965726387231882
  0
ARC
  5
14936
  8
0
 10
4367.1050642319205508
 20
224.450864178850594
 30
0.0
 40
0.0501287438662933
 50
152.0965726387231882
 51
179.8769691669629083
  0
ARC
  5
14937
  8
0
 10
4367.1120268152499193
 20
224.45071254629039
 30
0.0
 40
0.0529214433188061
 50
155.6845829020280974
 51
179.3902188875478885
  0
LINE
  5
14938
  8
0
 10
4367.0591083690242158
 20
224.4512757620746015
 30
0.0
 11
4367.0591085148016646
 21
224.4317228847260992
 31
0.0
  0
ARC
  5
14939
  8
0
 10
4367.1071284382969679
 20
224.4514230949540945
 30
0.0
 40
0.0480202952923263
 50
180.1757916183734949
 51
209.0592653049374974
  0
ARC
  5
1493A
  8
0
 10
4367.1594324615571168
 20
224.4871072389946107
 30
0.0
 40
0.1112231315418999
 50
212.0419208001976017
 51
234.4243825232975098
  0
ARC
  5
1493B
  8
0
 10
4367.2959388922763537
 20
224.6831526083803112
 30
0.0
 40
0.3501056986060171
 50
234.9198276159860939
 51
247.1148162821370988
  0
ARC
  5
1493C
  8
0
 10
4367.4387955645179318
 20
225.0064896028800092
 30
0.0
 40
0.7035709588265194
 50
246.6367254320155098
 51
256.4465461638491774
  0
ARC
  5
1493D
  8
0
 10
4367.5060123628809379
 20
225.2853214678063125
 30
0.0
 40
0.9903902519024246
 50
256.4465461638491774
 51
264.2170160178253013
  0
ARC
  5
1493E
  8
0
 10
4367.6165797197818392
 20
226.3770616470611969
 30
0.0
 40
2.0877150713662349
 50
264.2170160178253013
 51
270.1313473425046823
  0
ARC
  5
1493F
  8
0
 10
4367.6493038558546687
 20
229.7807591021062876
 30
0.0
 40
5.4914781095176641
 50
269.7085035809491274
 51
271.4530165921236744
  0
ARC
  5
14940
  8
0
 10
4367.4986522139006411
 20
236.0390851287434089
 30
0.0
 40
11.7516146883653594
 50
271.4135710217374822
 51
272.1134897772415115
  0
ARC
  5
14941
  8
0
 10
4367.856704911471752
 20
226.5067857141050922
 30
0.0
 40
2.2126039834663151
 50
271.9511902808405921
 51
275.8167839465436941
  0
ARC
  5
14942
  8
0
 10
4367.5930875897547594
 20
223.017679021767492
 30
0.0
 40
1.571343794481268
 50
90.7670572519768371
 51
104.0063695147511993
  0
LINE
  5
14943
  8
0
 10
4367.1596458798239837
 20
224.5083862946746081
 30
0.0
 11
4367.159056654523738
 21
224.5161381268746084
 31
0.0
  0
ARC
  5
14944
  8
0
 10
4367.1632436786521794
 20
224.5163978493496018
 30
0.0
 40
0.0041950717290174
 50
156.5386254810753996
 51
183.549528011016605
  0
ARC
  5
14945
  8
0
 10
4367.1745196364463482
 20
224.5090824189597072
 30
0.0
 40
0.0175921366777613
 50
118.680536830060305
 51
149.2845574680802088
  0
ARC
  5
14946
  8
0
 10
4367.2685804503216787
 20
224.3256153618978033
 30
0.0
 40
0.2237600124334206
 50
104.4417659037317065
 51
117.2643607075657002
  0
LINE
  5
14947
  8
0
 10
4367.6543348404229619
 20
224.5677246884746125
 30
0.0
 11
4367.6537456198238942
 21
224.5754761133746058
 31
0.0
  0
ARC
  5
14948
  8
0
 10
4367.5740033248321197
 20
224.0571558568476007
 30
0.0
 40
0.5317297276759378
 50
85.4999324673847525
 51
90.2103080920205969
  0
ARC
  5
14949
  8
0
 10
4367.6011907418751434
 20
224.4025995385023009
 30
0.0
 40
0.185217833449232
 50
78.4304699185879741
 51
85.4999324673847525
  0
ARC
  5
1494A
  8
0
 10
4367.6294935614423594
 20
224.5408533539504958
 30
0.0
 40
0.044096725596921
 50
60.3844585131419009
 51
78.4304699185876615
  0
ARC
  5
1494B
  8
0
 10
4367.647755767927265
 20
224.574178900771102
 30
0.0
 40
0.0061287100011882
 50
12.2197444124704795
 51
54.8385987476679304
  0
ARC
  5
1494C
  8
0
 10
4367.1639887800711222
 20
224.508842811961614
 30
0.0
 40
0.0043668284363152
 50
186.0007839419216964
 51
228.7341079873602041
  0
ARC
  5
1494D
  8
0
 10
4367.1715062695866436
 20
224.5174100711257097
 30
0.0
 40
0.0157646606073406
 50
228.7341079873633873
 51
253.3363964488382862
  0
ARC
  5
1494E
  8
0
 10
4367.1968981253658058
 20
224.6022412820946954
 30
0.0
 40
0.1043145374815815
 50
253.3363964488382862
 51
265.390527523475896
  0
ARC
  5
1494F
  8
0
 10
4367.2363941062658341
 20
225.418738849854293
 30
0.0
 40
0.921719100483366
 50
267.0224066175068174
 51
275.1331628389326056
  0
ARC
  5
14950
  8
0
 10
4367.1610695432409557
 20
226.5391539414987108
 30
0.0
 40
2.0445356341126768
 50
274.4263283868007761
 51
281.9719880250253823
  0
ARC
  5
14951
  8
0
 10
4367.5159540903014204
 20
224.8655304119461107
 30
0.0
 40
0.3336999434589424
 50
281.9719880250253823
 51
291.504870110278091
  0
ARC
  5
14952
  8
0
 10
4367.6185105791391834
 20
224.6052404809420864
 30
0.0
 40
0.0539345389058508
 50
291.5048701102774089
 51
307.4275451545425994
  0
ARC
  5
14953
  8
0
 10
4367.645798930348974
 20
224.5695843387416062
 30
0.0
 40
0.009034487809611
 50
307.4275451545415763
 51
330.2901993339320939
  0
ARC
  5
14954
  8
0
 10
4367.6498098834936172
 20
224.5675160293710917
 30
0.0
 40
0.0045297653181279
 50
327.8680803403723871
 51
2.6402069785588531
  0
ARC
  5
14955
  8
0
 10
4367.177474832675216
 20
226.4405654897830971
 30
0.0
 40
1.9369630192411811
 50
271.7921375837231039
 51
282.1327993239224838
  0
ARC
  5
14956
  8
0
 10
4367.5179923155255892
 20
224.8566178430444893
 30
0.0
 40
0.3168265114938111
 50
282.1327993239224838
 51
293.6641196924919086
  0
ARC
  5
14957
  8
0
 10
4367.6373386269397088
 20
224.5842760985061943
 30
0.0
 40
0.0194823205864331
 50
293.6641196924925907
 51
320.7130444254041777
  0
ARC
  5
14958
  8
0
 10
4367.6478591699551544
 20
224.5756691328757029
 30
0.0
 40
0.0058896136193179
 50
320.713044425402984
 51
358.1219169606209221
  0
ARC
  5
14959
  8
0
 10
4367.227582443096253
 20
224.9953102130905904
 30
0.0
 40
0.4908719326241237
 50
265.3947792945124888
 51
271.2219665794547154
  0
ARC
  5
1495A
  8
0
 10
4367.1970552025195502
 20
224.6163242802894047
 30
0.0
 40
0.1106585061405699
 50
254.7284308831656858
 51
265.3947792945124888
  0
ARC
  5
1495B
  8
0
 10
4367.1750121883569591
 20
224.5340912880054987
 30
0.0
 40
0.0255263569527026
 50
240.7034924009861072
 51
253.8416261984098981
  0
ARC
  5
1495C
  8
0
 10
4367.1651617518336934
 20
224.517500460948412
 30
0.0
 40
0.0062552511767848
 50
192.5792895465610002
 51
245.0325958713013961
  0
ARC
  5
1495D
  8
0
 10
4367.6357237138126948
 20
222.4070110776576996
 30
0.0
 40
2.0956919574802608
 50
92.4281616997323994
 51
102.3452650669592998
  0
LINE
  5
1495E
  8
0
 10
4367.1345303955977215
 20
224.4203256619227886
 30
0.0
 11
4367.1339411702983853
 21
224.4280774941227037
 31
0.0
  0
ARC
  5
1495F
  8
0
 10
4367.1381281944268267
 20
224.4283372165978108
 30
0.0
 40
0.0041950717290174
 50
156.5386254810753996
 51
183.5495280110150134
  0
ARC
  5
14960
  8
0
 10
4367.149404152220086
 20
224.4210217862078878
 30
0.0
 40
0.0175921366777613
 50
118.680536830060305
 51
149.2845574680802088
  0
ARC
  5
14961
  8
0
 10
4367.243464966096326
 20
224.2375547291458986
 30
0.0
 40
0.2237600124334206
 50
104.4417659037317065
 51
117.2643607075657002
  0
LINE
  5
14962
  8
0
 10
4367.6292193561976092
 20
224.4796640557227931
 30
0.0
 11
4367.628630135597632
 21
224.4874154806227864
 31
0.0
  0
ARC
  5
14963
  8
0
 10
4367.548887840606767
 20
223.9690952240958097
 30
0.0
 40
0.5317297276759378
 50
85.4999324673847525
 51
90.2103080920205969
  0
ARC
  5
14964
  8
0
 10
4367.5760752576497907
 20
224.3145389057505099
 30
0.0
 40
0.185217833449232
 50
78.4304699185879741
 51
85.4999324673847525
  0
ARC
  5
14965
  8
0
 10
4367.6043780772160972
 20
224.4527927211985912
 30
0.0
 40
0.044096725596921
 50
60.3844585131419009
 51
78.4304699185876615
  0
ARC
  5
14966
  8
0
 10
4367.6226402837010028
 20
224.486118268019311
 30
0.0
 40
0.0061287100011882
 50
12.2197444124704795
 51
54.8385987476679304
  0
ARC
  5
14967
  8
0
 10
4367.1388732958457695
 20
224.4207821792097945
 30
0.0
 40
0.0043668284363152
 50
186.0007839419216964
 51
228.7341079873602041
  0
ARC
  5
14968
  8
0
 10
4367.1463907853612909
 20
224.4293494383738903
 30
0.0
 40
0.0157646606073406
 50
228.7341079873633873
 51
253.3363964488382862
  0
ARC
  5
14969
  8
0
 10
4367.171782641142272
 20
224.5141806493429044
 30
0.0
 40
0.1043145374815815
 50
253.3363964488382862
 51
265.390527523475896
  0
ARC
  5
1496A
  8
0
 10
4367.2112786220423004
 20
225.330678217102502
 30
0.0
 40
0.921719100483366
 50
267.0224066175068174
 51
275.1331628389326056
  0
ARC
  5
1496B
  8
0
 10
4367.1359540590146935
 20
226.4510933087468914
 30
0.0
 40
2.0445356341126768
 50
274.4263283868007761
 51
281.9719880250253823
  0
ARC
  5
1496C
  8
0
 10
4367.4908386060760677
 20
224.7774697791942913
 30
0.0
 40
0.3336999434589424
 50
281.9719880250253823
 51
291.504870110278091
  0
ARC
  5
1496D
  8
0
 10
4367.5933950949129212
 20
224.5171798481902954
 30
0.0
 40
0.0539345389058508
 50
291.5048701102774089
 51
307.4275451545425994
  0
ARC
  5
1496E
  8
0
 10
4367.6206834461254402
 20
224.4815237059897868
 30
0.0
 40
0.009034487809611
 50
307.4275451545415763
 51
330.2901993339320939
  0
ARC
  5
1496F
  8
0
 10
4367.624694399269174
 20
224.479455396619187
 30
0.0
 40
0.0045297653181279
 50
327.8680803403723871
 51
2.6402069785588531
  0
ARC
  5
14970
  8
0
 10
4367.1523593484498633
 20
226.3525048570313913
 30
0.0
 40
1.9369630192411811
 50
271.7921375837231039
 51
282.1327993239224838
  0
ARC
  5
14971
  8
0
 10
4367.4928768313002365
 20
224.7685572102926983
 30
0.0
 40
0.3168265114938111
 50
282.1327993239224838
 51
293.6641196924919086
  0
ARC
  5
14972
  8
0
 10
4367.6122231427152656
 20
224.4962154657544033
 30
0.0
 40
0.0194823205864331
 50
293.6641196924925907
 51
320.7130444254041777
  0
ARC
  5
14973
  8
0
 10
4367.6227436857288922
 20
224.4876085001239119
 30
0.0
 40
0.0058896136193179
 50
320.713044425402984
 51
358.1219169606209221
  0
ARC
  5
14974
  8
0
 10
4367.2024669588709003
 20
224.9072495803387994
 30
0.0
 40
0.4908719326241237
 50
265.3947792945124888
 51
271.2219665794547154
  0
ARC
  5
14975
  8
0
 10
4367.171939718295107
 20
224.5282636475376137
 30
0.0
 40
0.1106585061405699
 50
254.7284308831656858
 51
265.3947792945124888
  0
ARC
  5
14976
  8
0
 10
4367.1498967041306969
 20
224.4460306552537077
 30
0.0
 40
0.0255263569527026
 50
240.7034924009861072
 51
253.8416261984098981
  0
ARC
  5
14977
  8
0
 10
4367.1400462676074312
 20
224.4294398281965925
 30
0.0
 40
0.0062552511767848
 50
192.5792895465610002
 51
245.0325958713013961
  0
ARC
  5
14978
  8
0
 10
4367.8305871691827633
 20
221.9133860997494025
 30
0.0
 40
2.513378568036615
 50
93.1481599927896866
 51
101.4022879203782992
  0
LINE
  5
14979
  8
0
 10
4367.2794224732242583
 20
224.3503408135746042
 30
0.0
 11
4367.2788268712229183
 21
224.358176188374614
 31
0.0
  0
ARC
  5
1497A
  8
0
 10
4367.2817537123637521
 20
224.357923641207492
 30
0.0
 40
0.0029377166520379
 50
133.0926229345085119
 51
175.068357169695787
  0
ARC
  5
1497B
  8
0
 10
4367.3002576002008936
 20
224.332668418833606
 30
0.0
 40
0.0342269329548223
 50
111.5522124378421012
 51
126.8170105538556953
  0
ARC
  5
1497C
  8
0
 10
4367.4056491591163649
 20
224.025586728560711
 30
0.0
 40
0.3588585584457152
 50
101.5657029791411929
 51
109.1912385708818931
  0
LINE
  5
1497D
  8
0
 10
4367.7730050041227514
 20
224.4097195365746131
 30
0.0
 11
4367.7724097535228793
 21
224.417550288074608
 31
0.0
  0
ARC
  5
1497E
  8
0
 10
4367.7200091733420777
 20
223.6051104674118051
 30
0.0
 40
0.818321756540454
 50
88.810465942009742
 51
91.9224464912843047
  0
ARC
  5
1497F
  8
0
 10
4367.7359465485305918
 20
224.1827213102390886
 30
0.0
 40
0.2405368543529474
 50
84.6823133372153762
 51
89.7496952017355767
  0
ARC
  5
14980
  8
0
 10
4367.7552828891730314
 20
224.3773527257158946
 30
0.0
 40
0.0449674728535328
 50
70.8548118160652649
 51
86.230706684942291
  0
ARC
  5
14981
  8
0
 10
4367.7685222534382774
 20
224.4158798351820963
 30
0.0
 40
0.0042312019311544
 50
23.2531234132876712
 51
69.1163015138485832
  0
ARC
  5
14982
  8
0
 10
4367.2818031866199817
 20
224.3508184826357024
 30
0.0
 40
0.0024281606229864
 50
191.3452501175214024
 51
238.1275513912102895
  0
ARC
  5
14983
  8
0
 10
4367.2901274601426849
 20
224.3674117016045955
 30
0.0
 40
0.0209833865961821
 50
242.7540852360154133
 51
259.4387429995567231
  0
ARC
  5
14984
  8
0
 10
4367.3095652754609546
 20
224.4941635486655116
 30
0.0
 40
0.1492076739308408
 50
261.0223283497297757
 51
269.5943509145837993
  0
ARC
  5
14985
  8
0
 10
4367.2974018958930174
 20
225.8235429920798083
 30
0.0
 40
1.478625094774805
 50
270.4303936476350145
 51
275.3836059781294239
  0
ARC
  5
14986
  8
0
 10
4367.2173674786290576
 20
226.9410371226310019
 30
0.0
 40
2.598820747121442
 50
274.8287714193484135
 51
280.7807076289424231
  0
ARC
  5
14987
  8
0
 10
4367.6054348308516637
 20
224.9149594518883077
 30
0.0
 40
0.53591922623994
 50
280.5413190740678147
 51
286.4377769473579178
  0
ARC
  5
14988
  8
0
 10
4367.7317599933458041
 20
224.480886048485786
 30
0.0
 40
0.083857336852882
 50
287.5785388724486893
 51
297.1065696586010745
  0
ARC
  5
14989
  8
0
 10
4367.7640866738856857
 20
224.4162682279707894
 30
0.0
 40
0.0116266936904006
 50
300.3952122616217935
 51
313.1156432618178087
  0
ARC
  5
1498A
  8
0
 10
4367.770403704367709
 20
224.4098107543103993
 30
0.0
 40
0.0026028985943169
 50
308.7580895355957864
 51
357.9916767941604121
  0
ARC
  5
1498B
  8
0
 10
4367.232650980929975
 20
226.8179604840136108
 30
0.0
 40
2.4672799175659201
 50
272.8503629422930885
 51
280.9872083661355191
  0
ARC
  5
1498C
  8
0
 10
4367.6228781801228251
 20
224.8375246068459887
 30
0.0
 40
0.448807800346036
 50
280.269308080476776
 51
288.3480468874412281
  0
ARC
  5
1498D
  8
0
 10
4367.754497842190176
 20
224.4376565654893056
 30
0.0
 40
0.027852011481593
 50
290.2934671250479255
 51
307.8891968546340081
  0
ARC
  5
1498E
  8
0
 10
4367.7707440258300267
 20
224.4171564138665076
 30
0.0
 40
0.0017116616612795
 50
300.1129205541139982
 51
13.3036767442013595
  0
ARC
  5
1498F
  8
0
 10
4367.3174376981251044
 20
225.0652489730341017
 30
0.0
 40
0.7125248944657417
 50
269.2463080821767107
 51
273.0495038953478115
  0
ARC
  5
14990
  8
0
 10
4367.3097144303583264
 20
224.516002384106713
 30
0.0
 40
0.1632249922361081
 50
262.15348936100429
 51
269.4210462113414906
  0
ARC
  5
14991
  8
0
 10
4367.2921556408127799
 20
224.3863057961237928
 30
0.0
 40
0.0323470889247113
 50
251.4892289575369944
 51
261.6012714067223897
  0
ARC
  5
14992
  8
0
 10
4367.2829656399208034
 20
224.3600417701630079
 30
0.0
 40
0.0045398019489616
 50
204.2638365682240931
 51
256.2421951600442753
  0
ARC
  5
14993
  8
0
 10
4368.275653410832092
 20
223.0470554200433924
 30
0.0
 40
1.571343794481268
 50
90.7670572519768371
 51
104.0063695147511993
  0
LINE
  5
14994
  8
0
 10
4367.8422117009013164
 20
224.5377626929505084
 30
0.0
 11
4367.8416224756010706
 21
224.545514525150395
 31
0.0
  0
ARC
  5
14995
  8
0
 10
4367.8458094997286025
 20
224.5457742476255021
 30
0.0
 40
0.0041950717290174
 50
156.5386254810753996
 51
183.5495280110150134
  0
ARC
  5
14996
  8
0
 10
4367.8570854575218618
 20
224.5384588172356075
 30
0.0
 40
0.0175921366777613
 50
118.680536830060305
 51
149.2845574680802088
  0
ARC
  5
14997
  8
0
 10
4367.9511462713999208
 20
224.3549917601735899
 30
0.0
 40
0.2237600124334206
 50
104.4417659037317065
 51
117.2643607075657002
  0
LINE
  5
14998
  8
0
 10
4368.336900661501204
 20
224.5971010867505129
 30
0.0
 11
4368.3363114409012269
 21
224.6048525116503924
 31
0.0
  0
ARC
  5
14999
  8
0
 10
4368.2565691459094523
 20
224.086532255123501
 30
0.0
 40
0.5317297276759378
 50
85.4999324673847525
 51
90.2103080920205969
  0
ARC
  5
1499A
  8
0
 10
4368.2837565629506571
 20
224.4319759367780875
 30
0.0
 40
0.185217833449232
 50
78.4304699185879741
 51
85.4999324673847525
  0
ARC
  5
1499B
  8
0
 10
4368.312059382519692
 20
224.5702297522263109
 30
0.0
 40
0.044096725596921
 50
60.3844585131419009
 51
78.4304699185876615
  0
ARC
  5
1499C
  8
0
 10
4368.3303215890045976
 20
224.6035552990470023
 30
0.0
 40
0.0061287100011882
 50
12.2197444124704795
 51
54.8385987476679304
  0
ARC
  5
1499D
  8
0
 10
4367.8465546011493643
 20
224.5382192102374859
 30
0.0
 40
0.0043668284363152
 50
186.0007839419216964
 51
228.7341079873602041
  0
ARC
  5
1499E
  8
0
 10
4367.8540720906639763
 20
224.54678646940161
 30
0.0
 40
0.0157646606073406
 50
228.7341079873633873
 51
253.3363964488382862
  0
ARC
  5
1499F
  8
0
 10
4367.8794639464440479
 20
224.6316176803705957
 30
0.0
 40
0.1043145374815815
 50
253.3363964488382862
 51
265.390527523475896
  0
ARC
  5
149A0
  8
0
 10
4367.9189599273440763
 20
225.4481152481301081
 30
0.0
 40
0.921719100483366
 50
267.0224066175068174
 51
275.1331628389326056
  0
ARC
  5
149A1
  8
0
 10
4367.8436353643173788
 20
226.5685303397744974
 30
0.0
 40
2.0445356341126768
 50
274.4263283868007761
 51
281.9719880250253823
  0
ARC
  5
149A2
  8
0
 10
4368.198519911378753
 20
224.8949068102218973
 30
0.0
 40
0.3336999434589424
 50
281.9719880250253823
 51
291.504870110278091
  0
ARC
  5
149A3
  8
0
 10
4368.3010764002146971
 20
224.6346168792179867
 30
0.0
 40
0.0539345389058508
 50
291.5048701102774089
 51
307.4275451545425994
  0
ARC
  5
149A4
  8
0
 10
4368.3283647514272161
 20
224.5989607370175065
 30
0.0
 40
0.009034487809611
 50
307.4275451545415763
 51
330.2901993339320939
  0
ARC
  5
149A5
  8
0
 10
4368.3323757045709499
 20
224.5968924276469068
 30
0.0
 40
0.0045297653181279
 50
327.8680803403723871
 51
2.6402069785588531
  0
ARC
  5
149A6
  8
0
 10
4367.8600406537516392
 20
226.4699418880589974
 30
0.0
 40
1.9369630192411811
 50
271.7921375837231039
 51
282.1327993239224838
  0
ARC
  5
149A7
  8
0
 10
4368.2005581366020124
 20
224.8859942413203896
 30
0.0
 40
0.3168265114938111
 50
282.1327993239224838
 51
293.6641196924919086
  0
ARC
  5
149A8
  8
0
 10
4368.3199044480170414
 20
224.6136524967820947
 30
0.0
 40
0.0194823205864331
 50
293.6641196924925907
 51
320.7130444254041777
  0
ARC
  5
149A9
  8
0
 10
4368.3304249910315775
 20
224.6050455311516032
 30
0.0
 40
0.0058896136193179
 50
320.713044425402984
 51
358.1219169606209221
  0
ARC
  5
149AA
  8
0
 10
4367.9101482641726761
 20
225.0246866113664055
 30
0.0
 40
0.4908719326241237
 50
265.3947792945124888
 51
271.2219665794547154
  0
ARC
  5
149AB
  8
0
 10
4367.8796210235977924
 20
224.645700678565305
 30
0.0
 40
0.1106585061405699
 50
254.7284308831656858
 51
265.3947792945124888
  0
ARC
  5
149AC
  8
0
 10
4367.8575780094333822
 20
224.563467686281399
 30
0.0
 40
0.0255263569527026
 50
240.7034924009861072
 51
253.8416261984098981
  0
ARC
  5
149AD
  8
0
 10
4367.8477275729101166
 20
224.5468768592243123
 30
0.0
 40
0.0062552511767848
 50
192.5792895465610002
 51
245.0325958713013961
  0
ARC
  5
149AE
  8
0
 10
4368.2188938436029275
 20
220.4147717020503876
 30
0.0
 40
3.9796351805280792
 50
95.1759064477569154
 51
99.5446444147698628
  0
ARC
  5
149AF
  8
0
 10
4367.9591993664153051
 20
223.302269311901199
 30
0.0
 40
1.0804851372953881
 50
89.7290356910530136
 51
95.2743554759782967
  0
ARC
  5
149B0
  8
0
 10
4367.9594288136531759
 20
224.2401350506420101
 30
0.0
 40
0.1426908009269925
 50
84.2791177274860956
 51
88.039957698914165
  0
ARC
  5
149B1
  8
0
 10
4367.6336644081939085
 20
223.8895422367808976
 30
0.0
 40
0.4559275028652396
 50
99.4246103227239644
 51
107.5556435582954009
  0
ARC
  5
149B2
  8
0
 10
4367.5019916217252103
 20
224.3057451240464957
 30
0.0
 40
0.0193927779406858
 50
107.5556435582954009
 51
128.4360715075821986
  0
ARC
  5
149B3
  8
0
 10
4367.4911007687833262
 20
224.3194682037419909
 30
0.0
 40
0.0018732575668967
 50
128.4360715076371946
 51
176.8830705116299953
  0
LINE
  5
149B4
  8
0
 10
4367.4892302824237049
 20
224.319570059974609
 30
0.0
 11
4367.4898222310239362
 21
224.311782747974604
 31
0.0
  0
ARC
  5
149B5
  8
0
 10
4367.4909790776937371
 20
224.3118897573108086
 30
0.0
 40
0.0011617853580185
 50
185.2848711387674996
 51
218.4176823204618927
  0
ARC
  5
149B6
  8
0
 10
4368.6044570217209184
 20
222.0284383566844895
 30
0.0
 40
2.513378568036615
 50
93.1481599927896866
 51
101.4022879203782992
  0
LINE
  5
149B7
  8
0
 10
4368.0532923257624134
 20
224.4653930705096059
 30
0.0
 11
4368.0526967237610734
 21
224.4732284453095872
 31
0.0
  0
ARC
  5
149B8
  8
0
 10
4368.0556235649009977
 20
224.4729758981424936
 30
0.0
 40
0.0029377166520379
 50
133.0926229345085119
 51
175.068357169695787
  0
ARC
  5
149B9
  8
0
 10
4368.0741274527390487
 20
224.4477206757686929
 30
0.0
 40
0.0342269329548223
 50
111.5522124378421012
 51
126.8170105538556953
  0
ARC
  5
149BA
  8
0
 10
4368.1795190116536105
 20
224.1406389854957126
 30
0.0
 40
0.3588585584457152
 50
101.5657029791411929
 51
109.1912385708818931
  0
LINE
  5
149BB
  8
0
 10
4368.546874856661816
 20
224.5247717935095864
 30
0.0
 11
4368.5462796060619439
 21
224.5326025450096097
 31
0.0
  0
ARC
  5
149BC
  8
0
 10
4368.4938790258793233
 20
223.7201627243468067
 30
0.0
 40
0.818321756540454
 50
88.810465942009742
 51
91.9224464912843047
  0
ARC
  5
149BD
  8
0
 10
4368.5098164010687469
 20
224.2977735671740902
 30
0.0
 40
0.2405368543529474
 50
84.6823133372153762
 51
89.7496952017355767
  0
ARC
  5
149BE
  8
0
 10
4368.5291527417111865
 20
224.4924049826508963
 30
0.0
 40
0.0449674728535328
 50
70.8548118160652649
 51
86.230706684942291
  0
ARC
  5
149BF
  8
0
 10
4368.5423921059764325
 20
224.5309320921170979
 30
0.0
 40
0.0042312019311544
 50
23.2531234132876712
 51
69.1163015138485832
  0
ARC
  5
149C0
  8
0
 10
4368.0556730391590463
 20
224.465870739570704
 30
0.0
 40
0.0024281606229864
 50
191.3452501175214024
 51
238.1275513912102895
  0
ARC
  5
149C1
  8
0
 10
4368.06399731268084
 20
224.4824639585395971
 30
0.0
 40
0.0209833865961821
 50
242.7540852360154133
 51
259.4387429995567231
  0
ARC
  5
149C2
  8
0
 10
4368.0834351279991097
 20
224.6092158056005132
 30
0.0
 40
0.1492076739308408
 50
261.0223283497297757
 51
269.5943509145837993
  0
ARC
  5
149C3
  8
0
 10
4368.0712717484311725
 20
225.93859524901481
 30
0.0
 40
1.478625094774805
 50
270.4303936476350145
 51
275.3836059781294239
  0
ARC
  5
149C4
  8
0
 10
4367.9912373311681222
 20
227.0560893795658899
 30
0.0
 40
2.598820747121442
 50
274.8287714193484135
 51
280.7807076289424231
  0
ARC
  5
149C5
  8
0
 10
4368.3793046833889093
 20
225.0300117088233094
 30
0.0
 40
0.53591922623994
 50
280.5413190740678147
 51
286.4377769473579178
  0
ARC
  5
149C6
  8
0
 10
4368.5056298458839592
 20
224.5959383054207876
 30
0.0
 40
0.083857336852882
 50
287.5785388724486893
 51
297.1065696586010745
  0
ARC
  5
149C7
  8
0
 10
4368.5379565264238408
 20
224.5313204849057911
 30
0.0
 40
0.0116266936904006
 50
300.3952122616217935
 51
313.1156432618178087
  0
ARC
  5
149C8
  8
0
 10
4368.5442735569058641
 20
224.5248630112454009
 30
0.0
 40
0.0026028985943169
 50
308.7580895355957864
 51
357.9916767941604121
  0
ARC
  5
149C9
  8
0
 10
4368.0065208334690396
 20
226.9330127409486124
 30
0.0
 40
2.4672799175659201
 50
272.8503629422930885
 51
280.9872083661355191
  0
ARC
  5
149CA
  8
0
 10
4368.3967480326600707
 20
224.9525768637809904
 30
0.0
 40
0.448807800346036
 50
280.269308080476776
 51
288.3480468874412281
  0
ARC
  5
149CB
  8
0
 10
4368.5283676947283311
 20
224.5527088224243073
 30
0.0
 40
0.027852011481593
 50
290.2934671250479255
 51
307.8891968546340081
  0
ARC
  5
149CC
  8
0
 10
4368.5446138783681818
 20
224.5322086708015092
 30
0.0
 40
0.0017116616612795
 50
300.1129205541139982
 51
13.3036767442013595
  0
ARC
  5
149CD
  8
0
 10
4368.09130755066235
 20
225.1803012299691034
 30
0.0
 40
0.7125248944657417
 50
269.2463080821767107
 51
273.0495038953478115
  0
ARC
  5
149CE
  8
0
 10
4368.0835842828946625
 20
224.6310546410416862
 30
0.0
 40
0.1632249922361081
 50
262.15348936100429
 51
269.4210462113414906
  0
ARC
  5
149CF
  8
0
 10
4368.066025493350935
 20
224.5013580530587944
 30
0.0
 40
0.0323470889247113
 50
251.4892289575369944
 51
261.6012714067223897
  0
ARC
  5
149D0
  8
0
 10
4368.0568354924589585
 20
224.4750940270980095
 30
0.0
 40
0.0045398019489616
 50
204.2638365682240931
 51
256.2421951600442753
  0
ARC
  5
149D1
  8
0
 10
4367.3000845862752612
 20
227.9531191491670938
 30
0.0
 40
3.6454340278848441
 50
274.6268193117969076
 51
279.687543278278099
  0
ARC
  5
149D2
  8
0
 10
4367.4842810059017211
 20
225.6936309191918042
 30
0.0
 40
1.378451301835965
 50
271.9227113654043251
 51
274.5713946992096908
  0
ARC
  5
149D3
  8
0
 10
4367.5194458531823329
 20
224.6461304894721991
 30
0.0
 40
0.3303607920292295
 50
266.6504912026823035
 51
271.9227113654043251
  0
ARC
  5
149D4
  8
0
 10
4367.5024132980261129
 20
224.3551082520918953
 30
0.0
 40
0.0388405515912535
 50
252.6082510249497943
 51
266.6504912026823035
  0
ARC
  5
149D5
  8
0
 10
4367.4925192159689686
 20
224.3221168368858116
 30
0.0
 40
0.0044199690181356
 50
231.6333018464387123
 51
247.1622691309489994
  0
ARC
  5
149D6
  8
0
 10
4367.490589260309207
 20
224.3197556548971932
 30
0.0
 40
0.0013715926380705
 50
187.7767451787534014
 51
233.6230640230805022
  0
ARC
  5
149D7
  8
0
 10
4367.9699244122630262
 20
224.3408348602960984
 30
0.0
 40
0.0414483016428815
 50
75.7629556933787001
 51
84.8394235211908949
  0
ARC
  5
149D8
  8
0
 10
4367.9781013215324492
 20
224.3730620599278041
 30
0.0
 40
0.0081999296333035
 50
54.9389172845774212
 51
75.7629556933787001
  0
ARC
  5
149D9
  8
0
 10
4367.9817942478903205
 20
224.3786426973123866
 30
0.0
 40
0.0015215977318689
 50
10.3638482574716804
 51
48.0318777033170008
  0
ARC
  5
149DA
  8
0
 10
4367.9815772653855674
 20
224.378984580387197
 30
0.0
 40
0.0017151101412588
 50
315.6261785742447046
 51
357.7227523146675026
  0
ARC
  5
149DB
  8
0
 10
4367.9769000047081136
 20
224.3836139884687952
 30
0.0
 40
0.0082959829384948
 50
296.2702733909347899
 51
315.3631486878178976
  0
ARC
  5
149DC
  8
0
 10
4367.9212206218053325
 20
224.5175598119363087
 30
0.0
 40
0.1533371370113096
 50
280.1453818887409284
 51
292.77191523423528
  0
ARC
  5
149DD
  8
0
 10
4367.7501293336326853
 20
225.2656395412246013
 30
0.0
 40
0.9205866110289667
 50
280.2233412114230191
 51
282.4266775579311002
  0
ARC
  5
149DE
  8
0
 10
4367.3174323519251629
 20
227.8479841920064928
 30
0.0
 40
3.5469564978413031
 50
274.0098382950782252
 51
278.9787474325613061
  0
ARC
  5
149DF
  8
0
 10
4367.518117044549399
 20
224.9920213272789908
 30
0.0
 40
0.6839516036626846
 50
269.0534923399736158
 51
273.969432879591011
  0
ARC
  5
149E0
  8
0
 10
4367.5080816067611522
 20
224.3845926191303874
 30
0.0
 40
0.0764400025433225
 50
259.195140570752983
 51
269.0534923399736158
  0
ARC
  5
149E1
  8
0
 10
4367.4953788685070322
 20
224.318033203262587
 30
0.0
 40
0.0086792808838287
 50
232.2796670529596099
 51
259.195140570753324
  0
ARC
  5
149E2
  8
0
 10
4367.6268599579861984
 20
225.9012256697866974
 30
0.0
 40
1.5757622353733121
 50
278.9129680109912215
 51
281.5055371889117737
  0
ARC
  5
149E3
  8
0
 10
4367.8704528349271641
 20
224.7045204180535904
 30
0.0
 40
0.3545165806331139
 50
281.5055371889117737
 51
286.9666886013775979
  0
ARC
  5
149E4
  8
0
 10
4367.9622980529184133
 20
224.4034823781913985
 30
0.0
 40
0.0397794752389262
 50
286.9666886013772
 51
300.5784737392551165
  0
ARC
  5
149E5
  8
0
 10
4367.9810806074392531
 20
224.3716955627137963
 30
0.0
 40
0.0028581265023869
 50
300.5784737393065029
 51
348.6374609245992815
  0
LINE
  5
149E6
  8
0
 10
4367.9838827152252634
 20
224.3711324649746075
 30
0.0
 11
4367.9832910210243426
 21
224.3789164304745896
 31
0.0
  0
LINE
  5
149E7
  8
0
 10
4367.8401142312231968
 20
224.3042183742745976
 30
0.0
 11
4367.8395211104252667
 21
224.3120211072746031
 31
0.0
  0
LINE
  5
149E8
  8
0
 10
4368.3334703995242307
 20
224.3712178197746141
 30
0.0
 11
4368.3340632459230619
 21
224.3634186965745982
 31
0.0
  0
ARC
  5
149E9
  8
0
 10
4368.5950572808205834
 20
220.1022038607952993
 30
0.0
 40
4.2831020799986108
 50
95.1581498836596893
 51
98.5028860328637137
  0
ARC
  5
149EA
  8
0
 10
4368.0708187456439191
 20
223.5313402248773968
 30
0.0
 40
0.8142243156518876
 50
97.6973601534741221
 51
106.5033345795017965
  0
ARC
  5
149EB
  8
0
 10
4367.8789767736843714
 20
224.7168183395565109
 30
0.0
 40
0.4067155623115125
 50
264.4329548139721169
 51
275.1235471445414191
  0
ARC
  5
149EC
  8
0
 10
4367.3559608553759972
 20
230.5500206078355916
 30
0.0
 40
6.2633181912644416
 50
275.1235471445414191
 51
277.9026656014489163
  0
ARC
  5
149ED
  8
0
 10
4367.6182232811715949
 20
228.2722317933013869
 30
0.0
 40
3.9792458590869062
 50
274.0404145597892125
 51
278.7152427841824078
  0
ARC
  5
149EE
  8
0
 10
4368.2922679923758551
 20
223.5908162168258002
 30
0.0
 40
0.7814885157441122
 50
86.9777942382927591
 51
96.0439248941898143
  0
ARC
  5
149EF
  8
0
 10
4368.1266180318807528
 20
225.0497743201478897
 30
0.0
 40
0.7093848223624664
 50
277.3287181878533829
 51
286.9534114229360853
  0
ARC
  5
149F0
  8
0
 10
4367.8754528678973656
 20
224.5691007909834127
 30
0.0
 40
0.2672293283369335
 50
262.4008976000059761
 51
274.9694224322685727
  0
ARC
  5
149F1
  8
0
 10
4368.2193408278899369
 20
224.6734763243094051
 30
0.0
 40
0.3306009160848824
 50
277.793918684747382
 51
290.3046518156060074
  0
ARC
  5
149F2
  8
0
 10
4368.3042638545248337
 20
223.9749064960766134
 30
0.0
 40
0.3723609784402404
 50
90.7304848191590736
 51
102.8743005292889023
  0
ARC
  5
149F3
  8
0
 10
4368.2166231084102037
 20
224.7096229075150973
 30
0.0
 40
0.3717455125521222
 50
270.7203942056337951
 51
282.8843911427917988
  0
ARC
  5
149F4
  8
0
 10
4368.2151481382416023
 20
224.719013043791989
 30
0.0
 40
0.3889841517432353
 50
270.9933479888898091
 51
282.6163116391015251
  0
LINE
  5
149F5
  8
0
 10
4368.2995166170239827
 20
224.3472372119746012
 30
0.0
 11
4368.3001104721242882
 21
224.339421062674603
 31
0.0
  0
LINE
  5
149F6
  8
0
 10
4368.2212970348236922
 20
224.3379067785745917
 30
0.0
 11
4368.2218916937235917
 21
224.3300873506746029
 31
0.0
  0
ARC
  5
149F7
  8
0
 10
4367.8794942468775844
 20
226.5741696175109894
 30
0.0
 40
2.261201605501113
 50
278.6909832654108072
 51
279.7948962377640214
  0
ARC
  5
149F8
  8
0
 10
4367.8741356618184
 20
224.6503302724007938
 30
0.0
 40
0.3079259393824163
 50
269.4720962378754052
 51
284.1700142296502918
  0
ARC
  5
149F9
  8
0
 10
4367.9503846165189316
 20
224.0128798476762029
 30
0.0
 40
0.3388946768506428
 50
90.1468661399889442
 51
103.495244327518094
  0
ARC
  5
149FA
  8
0
 10
4367.8708738662771793
 20
224.6747210488599933
 30
0.0
 40
0.3402267812222007
 50
270.1729292687015231
 51
283.4688059269078053
  0
LINE
  5
149FB
  8
0
 10
4367.8712985774236586
 20
224.3424174030745917
 30
0.0
 11
4367.8719007321242316
 21
224.3344958172745862
 31
0.0
  0
LINE
  5
149FC
  8
0
 10
4367.9495159295229314
 20
224.3517734111746051
 30
0.0
 11
4367.9501181044242912
 21
224.3438515679746104
 31
0.0
  0
LINE
  5
149FD
  8
0
 10
4368.3189120081242436
 20
224.3560259634745933
 30
0.0
 11
4368.3195052753253549
 21
224.3482213050745884
 31
0.0
  0
LINE
  5
149FE
  8
0
 10
4368.3847633299228619
 20
224.3638876546746133
 30
0.0
 11
4368.3853566111229156
 21
224.3560828121746056
 31
0.0
  0
ARC
  5
149FF
  8
0
 10
4368.3891097691493997
 20
224.0477571821656113
 30
0.0
 40
0.3161603504278272
 50
90.7877030380579839
 51
102.8284187878384017
  0
ARC
  5
14A00
  8
0
 10
4368.3146061823172204
 20
224.6718162487086943
 30
0.0
 40
0.3158196390095236
 50
270.7811841290823054
 51
282.8349376968278079
  0
ARC
  5
14A01
  8
0
 10
4368.3152750709768952
 20
224.663385488697088
 30
0.0
 40
0.3151925717196248
 50
270.7689906237637274
 51
282.8468124737522089
  0
ARC
  5
14A02
  8
0
 10
4368.4736130908531777
 20
224.1277946815461917
 30
0.0
 40
0.2527665441550317
 50
90.783544850648255
 51
102.8389384610158999
  0
ARC
  5
14A03
  8
0
 10
4368.4139790382560022
 20
224.6270676585353101
 30
0.0
 40
0.2528497230266105
 50
270.7855351001131794
 51
282.8369482115471101
  0
ARC
  5
14A04
  8
0
 10
4368.4145396556768901
 20
224.6195526392417889
 30
0.0
 40
0.2531360331596637
 50
270.7919725754829869
 51
282.8297011043387101
  0
LINE
  5
14A05
  8
0
 10
4368.4707495162228952
 20
224.3727363049746089
 30
0.0
 11
4368.4701565055238461
 21
224.3805375901746118
 31
0.0
  0
LINE
  5
14A06
  8
0
 10
4368.4174455433239928
 20
224.374241699074588
 30
0.0
 11
4368.4180385244244462
 21
224.3664407880746126
 31
0.0
  0
ARC
  5
14A07
  8
0
 10
4368.123545898060911
 20
224.1340819479324864
 30
0.0
 40
0.2527665441550317
 50
90.783544850648255
 51
102.8389384610158999
  0
ARC
  5
14A08
  8
0
 10
4368.063911845464645
 20
224.6333549249216901
 30
0.0
 40
0.2528497230266105
 50
270.7855351001131794
 51
282.8369482115471101
  0
ARC
  5
14A09
  8
0
 10
4368.0644724628864424
 20
224.6258399056281974
 30
0.0
 40
0.2531360331596637
 50
270.7919725754829869
 51
282.8297011043387101
  0
LINE
  5
14A0A
  8
0
 10
4368.1206823234324474
 20
224.3790235713609036
 30
0.0
 11
4368.1200893127315794
 21
224.3868248565609065
 31
0.0
  0
LINE
  5
14A0B
  8
0
 10
4368.0673783505326355
 20
224.3805289654609112
 30
0.0
 11
4368.0679713316321795
 21
224.3727280544609926
 31
0.0
  0
ARC
  5
14A0C
  8
0
 10
4367.9128860781920594
 20
224.1710456843439943
 30
0.0
 40
0.2527665441550317
 50
90.783544850648255
 51
102.8389384610158999
  0
ARC
  5
14A0D
  8
0
 10
4367.8532520255948839
 20
224.670318661333198
 30
0.0
 40
0.2528497230266105
 50
270.7855351001131794
 51
282.8369482115471101
  0
ARC
  5
14A0E
  8
0
 10
4367.8538126430157718
 20
224.6628036420395915
 30
0.0
 40
0.2531360331596637
 50
270.7919725754829869
 51
282.8297011043387101
  0
LINE
  5
14A0F
  8
0
 10
4367.9100225035617768
 20
224.4159873077724114
 30
0.0
 11
4367.9094294928618183
 21
224.4237885929723859
 31
0.0
  0
LINE
  5
14A10
  8
0
 10
4367.8567185306628744
 20
224.4174927018723906
 30
0.0
 11
4367.8573115117633279
 21
224.4096917908723867
 31
0.0
  0
ARC
  5
14A11
  8
0
 10
4367.7696460679717347
 20
224.2367075617574983
 30
0.0
 40
0.2527665441550317
 50
90.783544850648255
 51
102.8389384610158999
  0
ARC
  5
14A12
  8
0
 10
4367.7100120153745593
 20
224.735980538746503
 30
0.0
 40
0.2528497230266105
 50
270.7855351001131794
 51
282.8369482115471101
  0
ARC
  5
14A13
  8
0
 10
4367.7105726327963566
 20
224.7284655194530103
 30
0.0
 40
0.2531360331596637
 50
270.7919725754829869
 51
282.8297011043387101
  0
LINE
  5
14A14
  8
0
 10
4367.7667824933423617
 20
224.4816491851858018
 30
0.0
 11
4367.7661894826424032
 21
224.4894504703858047
 31
0.0
  0
LINE
  5
14A15
  8
0
 10
4367.7134785204416403
 20
224.4831545792858094
 30
0.0
 11
4367.7140715015411843
 21
224.4753536682858055
 31
0.0
  0
ARC
  5
14A16
  8
0
 10
4367.7940079031341156
 20
224.323561041170791
 30
0.0
 40
0.2527665441550317
 50
90.783544850648255
 51
102.8389384610158999
  0
ARC
  5
14A17
  8
0
 10
4367.7343738505369402
 20
224.8228340181599094
 30
0.0
 40
0.2528497230266105
 50
270.7855351001131794
 51
282.8369482115471101
  0
ARC
  5
14A18
  8
0
 10
4367.7349344679587375
 20
224.8153189988663883
 30
0.0
 40
0.2531360331596637
 50
270.7919725754829869
 51
282.8297011043387101
  0
LINE
  5
14A19
  8
0
 10
4367.7911443285056521
 20
224.5685026645990945
 30
0.0
 11
4367.790551317804784
 21
224.5763039497990974
 31
0.0
  0
LINE
  5
14A1A
  8
0
 10
4367.7378403556058402
 20
224.5700080586991021
 30
0.0
 11
4367.7384333367053841
 21
224.5622071476990982
 31
0.0
  0
ARC
  5
14A1B
  8
0
 10
4368.4766298848762744
 20
224.3539203286294139
 30
0.0
 40
0.2527665441550317
 50
90.783544850648255
 51
102.8389384610158999
  0
ARC
  5
14A1C
  8
0
 10
4368.4169958322781895
 20
224.8531933056185039
 30
0.0
 40
0.2528497230266105
 50
270.7855351001131794
 51
282.8369482115471101
  0
ARC
  5
14A1D
  8
0
 10
4368.4175564496999868
 20
224.8456782863250112
 30
0.0
 40
0.2531360331596637
 50
270.7919725754829869
 51
282.8297011043387101
  0
LINE
  5
14A1E
  8
0
 10
4368.4737663102469014
 20
224.5988619520578027
 30
0.0
 11
4368.4731732995469429
 21
224.6066632372578056
 31
0.0
  0
LINE
  5
14A1F
  8
0
 10
4368.42046233734618
 20
224.6003673461578103
 30
0.0
 11
4368.421055318445724
 21
224.5925664351578064
 31
0.0
  0
ARC
  5
14A20
  8
0
 10
4368.6866351483513427
 20
224.2856620741719951
 30
0.0
 40
0.2527665441550317
 50
90.783544850648255
 51
102.8389384610158999
  0
ARC
  5
14A21
  8
0
 10
4368.6270010957541672
 20
224.7849350511611135
 30
0.0
 40
0.2528497230266105
 50
270.7855351001131794
 51
282.8369482115471101
  0
ARC
  5
14A22
  8
0
 10
4368.6275617131741456
 20
224.7774200318675923
 30
0.0
 40
0.2531360331596637
 50
270.7919725754829869
 51
282.8297011043387101
  0
LINE
  5
14A23
  8
0
 10
4368.6837715737219696
 20
224.5306036976004123
 30
0.0
 11
4368.6831785630220111
 21
224.5384049828003867
 31
0.0
  0
LINE
  5
14A24
  8
0
 10
4368.6304676008221577
 20
224.5321090917003914
 30
0.0
 11
4368.6310605819226112
 21
224.5243081807003875
 31
0.0
  0
ARC
  5
14A25
  8
0
 10
4367.7441205812347107
 20
224.0126121202557101
 30
0.0
 40
0.3723609784402404
 50
90.7304848191590736
 51
102.8743005292889023
  0
ARC
  5
14A26
  8
0
 10
4367.6564798351209902
 20
224.747328531694194
 30
0.0
 40
0.3717455125521222
 50
270.7203942056337951
 51
282.8843911427917988
  0
ARC
  5
14A27
  8
0
 10
4367.6550048649523887
 20
224.7567186679710005
 30
0.0
 40
0.3889841517432353
 50
270.9933479888898091
 51
282.6163116391015251
  0
LINE
  5
14A28
  8
0
 10
4367.7393733437338597
 20
224.3849428361536127
 30
0.0
 11
4367.7399671988341652
 21
224.3771266868535861
 31
0.0
  0
LINE
  5
14A29
  8
0
 10
4367.6611537615335692
 20
224.3756124027536032
 30
0.0
 11
4367.6617484204343782
 21
224.367792974853586
 31
0.0
  0
ARC
  5
14A2A
  8
0
 10
4367.6010043337837487
 20
224.0749462503754899
 30
0.0
 40
0.3723609784402404
 50
90.7304848191590736
 51
102.8743005292889023
  0
ARC
  5
14A2B
  8
0
 10
4367.5133635876682092
 20
224.8096626618140021
 30
0.0
 40
0.3717455125521222
 50
270.7203942056337951
 51
282.8843911427917988
  0
ARC
  5
14A2C
  8
0
 10
4367.5118886174986983
 20
224.8190527980908939
 30
0.0
 40
0.3889841517432353
 50
270.9933479888898091
 51
282.6163116391015251
  0
LINE
  5
14A2D
  8
0
 10
4367.5962570962819882
 20
224.4472769662735061
 30
0.0
 11
4367.5968509513822937
 21
224.4394608169735079
 31
0.0
  0
LINE
  5
14A2E
  8
0
 10
4367.5180375140816977
 20
224.4379465328734966
 30
0.0
 11
4367.5186321729815973
 21
224.4301271049735078
 31
0.0
  0
ARC
  5
14A2F
  8
0
 10
4367.6260141558359464
 20
224.15622783873971
 30
0.0
 40
0.3723609784402404
 50
90.7304848191590736
 51
102.8743005292889023
  0
ARC
  5
14A30
  8
0
 10
4367.5383734097222259
 20
224.8909442501781086
 30
0.0
 40
0.3717455125521222
 50
270.7203942056337951
 51
282.8843911427917988
  0
ARC
  5
14A31
  8
0
 10
4367.5368984395518055
 20
224.9003343864550004
 30
0.0
 40
0.3889841517432353
 50
270.9933479888898091
 51
282.6163116391015251
  0
LINE
  5
14A32
  8
0
 10
4367.6212669183360049
 20
224.5285585546376126
 30
0.0
 11
4367.6218607734354009
 21
224.520742405337586
 31
0.0
  0
LINE
  5
14A33
  8
0
 10
4367.5430473361357144
 20
224.5192281212376031
 30
0.0
 11
4367.5436419950356139
 21
224.5114086933375859
 31
0.0
  0
ARC
  5
14A34
  8
0
 10
4368.3078652786989551
 20
224.1908597700694088
 30
0.0
 40
0.3723609784402404
 50
90.7304848191590736
 51
102.8743005292889023
  0
ARC
  5
14A35
  8
0
 10
4368.2202245325852346
 20
224.9255761815078927
 30
0.0
 40
0.3717455125521222
 50
270.7203942056337951
 51
282.8843911427917988
  0
ARC
  5
14A36
  8
0
 10
4368.2187495624148141
 20
224.9349663177848129
 30
0.0
 40
0.3889841517432353
 50
270.9933479888898091
 51
282.6163116391015251
  0
LINE
  5
14A37
  8
0
 10
4368.303118041198104
 20
224.5631904859673966
 30
0.0
 11
4368.3037118962984096
 21
224.5553743366673984
 31
0.0
  0
LINE
  5
14A38
  8
0
 10
4368.2248984589987231
 20
224.5538600525673019
 30
0.0
 11
4368.2254931178986226
 21
224.5460406246673983
 31
0.0
  0
ARC
  5
14A39
  8
0
 10
4368.5178559556507025
 20
224.1259427952919907
 30
0.0
 40
0.3723609784402404
 50
90.7304848191590736
 51
102.8743005292889023
  0
ARC
  5
14A3A
  8
0
 10
4368.430215209535163
 20
224.860659206730503
 30
0.0
 40
0.3717455125521222
 50
270.7203942056337951
 51
282.8843911427917988
  0
ARC
  5
14A3B
  8
0
 10
4368.4287402393656521
 20
224.8700493430073948
 30
0.0
 40
0.3889841517432353
 50
270.9933479888898091
 51
282.6163116391015251
  0
LINE
  5
14A3C
  8
0
 10
4368.513108718148942
 20
224.498273511190007
 30
0.0
 11
4368.5137025732492475
 21
224.4904573618898951
 31
0.0
  0
LINE
  5
14A3D
  8
0
 10
4368.434889135947742
 20
224.4889430777899122
 30
0.0
 11
4368.4354837948476415
 21
224.481123649889895
 31
0.0
  0
ARC
  5
14A3E
  8
0
 10
4368.8142372202300976
 20
224.0887494916115088
 30
0.0
 40
0.3723609784402404
 50
90.7304848191590736
 51
102.8743005292889023
  0
ARC
  5
14A3F
  8
0
 10
4368.7265964741145581
 20
224.8234659030499927
 30
0.0
 40
0.3717455125521222
 50
270.7203942056337951
 51
282.8843911427917988
  0
ARC
  5
14A40
  8
0
 10
4368.7251215039450472
 20
224.8328560393269129
 30
0.0
 40
0.3889841517432353
 50
270.9933479888898091
 51
282.6163116391015251
  0
LINE
  5
14A41
  8
0
 10
4368.8094899827283371
 20
224.4610802075094966
 30
0.0
 11
4368.8100838378277331
 21
224.4532640582094984
 31
0.0
  0
LINE
  5
14A42
  8
0
 10
4368.7312704005289561
 20
224.4517497741094871
 30
0.0
 11
4368.7318650594288556
 21
224.4439303462094983
 31
0.0
  0
LINE
  5
14A43
  8
0
 10
4367.9688453720700636
 20
224.3609913136342868
 30
0.0
 11
4367.9694386392702654
 21
224.3531866552343104
 31
0.0
  0
LINE
  5
14A44
  8
0
 10
4368.0346966938714104
 20
224.3688530048343068
 30
0.0
 11
4368.0352899750705546
 21
224.3610481623342991
 31
0.0
  0
ARC
  5
14A45
  8
0
 10
4368.0390431330952197
 20
224.0527225323253049
 30
0.0
 40
0.3161603504278272
 50
90.7877030380579839
 51
102.8284187878384017
  0
ARC
  5
14A46
  8
0
 10
4367.9645395462639499
 20
224.6767815988683026
 30
0.0
 40
0.3158196390095236
 50
270.7811841290823054
 51
282.8349376968278079
  0
ARC
  5
14A47
  8
0
 10
4367.9652084349227152
 20
224.6683508388566963
 30
0.0
 40
0.3151925717196248
 50
270.7689906237637274
 51
282.8468124737522089
  0
LINE
  5
14A48
  8
0
 10
4367.7587348851875504
 20
224.3964476618772039
 30
0.0
 11
4367.7593281523886617
 21
224.388643003477199
 31
0.0
  0
LINE
  5
14A49
  8
0
 10
4367.8245862069888972
 20
224.4043093530771955
 30
0.0
 11
4367.8251794881880414
 21
224.3965045105771878
 31
0.0
  0
ARC
  5
14A4A
  8
0
 10
4367.8289326462127065
 20
224.0881788805681936
 30
0.0
 40
0.3161603504278272
 50
90.7877030380579839
 51
102.8284187878384017
  0
ARC
  5
14A4B
  8
0
 10
4367.7544290593823462
 20
224.7122379471111913
 30
0.0
 40
0.3158196390095236
 50
270.7811841290823054
 51
282.8349376968278079
  0
ARC
  5
14A4C
  8
0
 10
4367.755097948042021
 20
224.7038071870996134
 30
0.0
 40
0.3151925717196248
 50
270.7689906237637274
 51
282.8468124737522089
  0
LINE
  5
14A4D
  8
0
 10
4367.6153021880845699
 20
224.4604937999739036
 30
0.0
 11
4367.6158954552856812
 21
224.4526891415738987
 31
0.0
  0
LINE
  5
14A4E
  8
0
 10
4367.6811535098840977
 20
224.4683554911738952
 30
0.0
 11
4367.681746791085061
 21
224.4605506486738875
 31
0.0
  0
ARC
  5
14A4F
  8
0
 10
4367.685499949109726
 20
224.1522250186650069
 30
0.0
 40
0.3161603504278272
 50
90.7877030380579839
 51
102.8284187878384017
  0
ARC
  5
14A50
  8
0
 10
4367.6109963622775467
 20
224.7762840852080046
 30
0.0
 40
0.3158196390095236
 50
270.7811841290823054
 51
282.8349376968278079
  0
ARC
  5
14A51
  8
0
 10
4367.6116652509381311
 20
224.7678533251963131
 30
0.0
 40
0.3151925717196248
 50
270.7689906237637274
 51
282.8468124737522089
  0
LINE
  5
14A52
  8
0
 10
4367.6400735037532286
 20
224.5442151303111018
 30
0.0
 11
4367.6406667709507019
 21
224.5364104719110969
 31
0.0
  0
LINE
  5
14A53
  8
0
 10
4367.7059248255518469
 20
224.5520768215110934
 30
0.0
 11
4367.7065181067519006
 21
224.5442719790111141
 31
0.0
  0
ARC
  5
14A54
  8
0
 10
4367.7102712647765657
 20
224.2359463490020914
 30
0.0
 40
0.3161603504278272
 50
90.7877030380579839
 51
102.8284187878384017
  0
ARC
  5
14A55
  8
0
 10
4367.6357676779452959
 20
224.8600054155450891
 30
0.0
 40
0.3158196390095236
 50
270.7811841290823054
 51
282.8349376968278079
  0
ARC
  5
14A56
  8
0
 10
4367.6364365666049707
 20
224.8515746555335113
 30
0.0
 40
0.3151925717196248
 50
270.7689906237637274
 51
282.8468124737522089
  0
LINE
  5
14A57
  8
0
 10
4368.3222898464791797
 20
224.5765771419112014
 30
0.0
 11
4368.3228831136793815
 21
224.5687724835111965
 31
0.0
  0
LINE
  5
14A58
  8
0
 10
4368.3881411682787075
 20
224.5844388331111929
 30
0.0
 11
4368.3887344494778517
 21
224.5766339906111
 31
0.0
  0
ARC
  5
14A59
  8
0
 10
4368.3924876075043358
 20
224.268308360602191
 30
0.0
 40
0.3161603504278272
 50
90.7877030380579839
 51
102.8284187878384017
  0
ARC
  5
14A5A
  8
0
 10
4368.3179840206721565
 20
224.8923674271451887
 30
0.0
 40
0.3158196390095236
 50
270.7811841290823054
 51
282.8349376968278079
  0
ARC
  5
14A5B
  8
0
 10
4368.3186529093318313
 20
224.8839366671336109
 30
0.0
 40
0.3151925717196248
 50
270.7689906237637274
 51
282.8468124737522089
  0
LINE
  5
14A5C
  8
0
 10
4368.532241885840449
 20
224.5102261484342137
 30
0.0
 11
4368.5328351530406508
 21
224.5024214900342088
 31
0.0
  0
LINE
  5
14A5D
  8
0
 10
4368.5980932076399768
 20
224.5180878396342052
 30
0.0
 11
4368.5986864888400305
 21
224.5102829971341976
 31
0.0
  0
ARC
  5
14A5E
  8
0
 10
4368.602439646865605
 20
224.2019573671252886
 30
0.0
 40
0.3161603504278272
 50
90.7877030380579839
 51
102.8284187878384017
  0
ARC
  5
14A5F
  8
0
 10
4368.5279360600334257
 20
224.8260164336682863
 30
0.0
 40
0.3158196390095236
 50
270.7811841290823054
 51
282.8349376968278079
  0
ARC
  5
14A60
  8
0
 10
4368.5286049486931006
 20
224.8175856736565947
 30
0.0
 40
0.3151925717196248
 50
270.7689906237637274
 51
282.8468124737522089
  0
ARC
  5
14A61
  8
0
 10
4368.9511499076479595
 20
224.1157477301387075
 30
0.0
 40
0.3723609784402404
 50
90.7304848191590736
 51
102.8743005292889023
  0
ARC
  5
14A62
  8
0
 10
4368.8635091615333295
 20
224.8504641415771914
 30
0.0
 40
0.3717455125521222
 50
270.7203942056337951
 51
282.8843911427917988
  0
ARC
  5
14A63
  8
0
 10
4368.862034191364728
 20
224.8598542778541116
 30
0.0
 40
0.3889841517432353
 50
270.9933479888898091
 51
282.6163116391015251
  0
LINE
  5
14A64
  8
0
 10
4368.9464026701471084
 20
224.4880784460366954
 30
0.0
 11
4368.9469965252483235
 21
224.4802622967366119
 31
0.0
  0
LINE
  5
14A65
  8
0
 10
4368.8681830879459085
 20
224.4787480126366859
 30
0.0
 11
4368.868777746847627
 21
224.4709285847366971
 31
0.0
  0
LINE
  5
14A66
  8
0
 10
4368.3067076054148856
 20
224.4132866467865028
 30
0.0
 11
4368.306114484616046
 21
224.4210893797865936
 31
0.0
  0
LINE
  5
14A67
  8
0
 10
4368.8000637737159195
 20
224.4802860922866046
 30
0.0
 11
4368.8006566201147507
 21
224.4724869690865887
 31
0.0
  0
ARC
  5
14A68
  8
0
 10
4369.0616506550131817
 20
220.2112721333072898
 30
0.0
 40
4.2831020799986108
 50
95.1581498836596893
 51
98.5028860328637137
  0
ARC
  5
14A69
  8
0
 10
4368.5374121198346984
 20
223.6404084973893873
 30
0.0
 40
0.8142243156518876
 50
97.6973601534741221
 51
106.5033345795017965
  0
ARC
  5
14A6A
  8
0
 10
4368.3455701478751507
 20
224.8258866120685013
 30
0.0
 40
0.4067155623115125
 50
264.4329548139721169
 51
275.1235471445414191
  0
ARC
  5
14A6B
  8
0
 10
4367.822554229567686
 20
230.6590888803476105
 30
0.0
 40
6.2633181912644416
 50
275.1235471445414191
 51
277.9026656014489163
  0
ARC
  5
14A6C
  8
0
 10
4368.0908878888139952
 20
228.3147059033917969
 30
0.0
 40
3.9123896679096388
 50
274.0204404705988281
 51
279.413128800849222
  0
ARC
  5
14A6D
  8
0
 10
4368.7588613665666344
 20
223.6998844893377054
 30
0.0
 40
0.7814885157441122
 50
86.9777942382927591
 51
96.0439248941898143
  0
ARC
  5
14A6E
  8
0
 10
4368.5932114060733511
 20
225.1588425926599086
 30
0.0
 40
0.7093848223624664
 50
277.3287181878533829
 51
286.9534114229360853
  0
ARC
  5
14A6F
  8
0
 10
4368.3420462420890544
 20
224.6781690634954032
 30
0.0
 40
0.2672293283369335
 50
262.4008976000059761
 51
274.9694224322685727
  0
ARC
  5
14A70
  8
0
 10
4368.6859342020816257
 20
224.7825445968213955
 30
0.0
 40
0.3306009160848824
 50
277.793918684747382
 51
290.3046518156060074
  0
ARC
  5
14A71
  8
0
 10
4367.2005112841197842
 20
224.3984330157522891
 30
0.0
 40
0.1554877258388539
 50
127.1483092432470983
 51
151.5510958598505908
  0
ARC
  5
14A72
  8
0
 10
4367.4467904084676775
 20
224.0792095833201927
 30
0.0
 40
0.5586670139215292
 50
116.0105412201183981
 51
127.5103635121831047
  0
ARC
  5
14A73
  8
0
 10
4367.7494066221452158
 20
223.4895354053755909
 30
0.0
 40
1.2213965391154931
 50
112.3726356116582963
 51
116.6378158241833063
  0
ARC
  5
14A74
  8
0
 10
4367.4670943172968691
 20
224.1348049723108034
 30
0.0
 40
0.5174723755772389
 50
104.1432951572778052
 51
110.6612872515025998
  0
ARC
  5
14A75
  8
0
 10
4367.6866614919254062
 20
223.2406899186393048
 30
0.0
 40
1.438146224496023
 50
92.4956901086324734
 51
103.921645215964503
  0
ARC
  5
14A76
  8
0
 10
4365.1776673552139982
 20
282.9024031124403109
 30
0.0
 40
58.2763015963513169
 50
272.4059169633965212
 51
273.107973006028999
  0
ARC
  5
14A77
  8
0
 10
4368.5713327619623669
 20
220.412875775292207
 30
0.0
 40
4.3053090980720219
 50
91.636866781980288
 51
93.1163749343095475
  0
ARC
  5
14A78
  8
0
 10
4368.5338011063249724
 20
222.0788322166665125
 30
0.0
 40
2.6389795965842242
 50
87.5504730815378167
 51
91.8555313206321671
  0
ARC
  5
14A79
  8
0
 10
4368.6055479061806182
 20
223.7560066854831859
 30
0.0
 40
0.9602712234174466
 50
80.6596887593094749
 51
87.5504730815378167
  0
ARC
  5
14A7A
  8
0
 10
4368.7342882884568098
 20
224.5387238917842865
 30
0.0
 40
0.1670371400168862
 50
57.741123878031317
 51
80.6596887593094749
  0
ARC
  5
14A7B
  8
0
 10
4369.1419882244190376
 20
225.2389086224193022
 30
0.0
 40
0.6433304486036024
 50
240.320405376264091
 51
249.1268220685824986
  0
ARC
  5
14A7C
  8
0
 10
4369.5734739033759979
 20
226.3603299820647976
 30
0.0
 40
1.8448966040299171
 50
249.0148721412869008
 51
254.5436881673797984
  0
ARC
  5
14A7D
  8
0
 10
4369.6736287641297167
 20
226.7000514651994081
 30
0.0
 40
2.1990314980132979
 50
254.387470478979111
 51
258.5207894545507088
  0
ARC
  5
14A7E
  8
0
 10
4369.1991430452389977
 20
224.3108617708591055
 30
0.0
 40
0.2370276697361366
 50
73.9417585773975361
 51
81.0558031916574606
  0
ARC
  5
14A7F
  8
0
 10
4369.2589700690341488
 20
224.5187057816945071
 30
0.0
 40
0.0207445090040274
 50
50.9354768956469073
 51
73.9417585773975361
  0
ARC
  5
14A80
  8
0
 10
4369.2694868889839199
 20
224.5322585070304058
 30
0.0
 40
0.0036135588866947
 50
2.866260216422972
 51
44.975387597828913
  0
ARC
  5
14A81
  8
0
 10
4369.266559416403652
 20
224.533418356661997
 30
0.0
 40
0.0066094414906479
 50
316.3850947725334208
 51
351.4805706001478143
  0
ARC
  5
14A82
  8
0
 10
4369.2275522459722197
 20
224.5839118164986132
 30
0.0
 40
0.07034607851819
 50
290.7268547112349779
 51
308.5009289275727724
  0
ARC
  5
14A83
  8
0
 10
4368.975594978664958
 20
225.3568036108009096
 30
0.0
 40
0.8831989620360671
 50
282.1276982221211824
 51
288.2682891847505857
  0
ARC
  5
14A84
  8
0
 10
4367.6237145804889224
 20
229.0452442452460105
 30
0.0
 40
4.7616733461844181
 50
275.5102335216533902
 51
277.2794185396941771
  0
ARC
  5
14A85
  8
0
 10
4367.8282327004453691
 20
227.5641834854247065
 30
0.0
 40
3.2666711567210531
 50
277.0126940349214237
 51
279.9372668652745801
  0
ARC
  5
14A86
  8
0
 10
4437.7015231089408189
 20
-143.8979507266712972
 30
0.0
 40
374.7102967210116731
 50
100.6142670184420069
 51
100.6592896731986002
  0
ARC
  5
14A87
  8
0
 10
4352.6229223909549546
 20
309.9429183593783819
 30
0.0
 40
87.0362852103653069
 50
280.6321367696201037
 51
280.8130308188835897
  0
ARC
  5
14A88
  8
0
 10
4365.450156152092859
 20
242.7831915264006
 30
0.0
 40
18.6625560869434608
 50
280.8130308188835897
 51
281.469536212484627
  0
ARC
  5
14A89
  8
0
 10
4363.24989751371686
 20
254.3504328367820051
 30
0.0
 40
30.4375404462247587
 50
280.7963351443985971
 51
281.0007744083576995
  0
ARC
  5
14A8A
  8
0
 10
4349.277189477009415
 20
327.6233963929520883
 30
0.0
 40
105.0308629233933999
 50
280.681325248983228
 51
280.7963351443988813
  0
ARC
  5
14A8B
  8
0
 10
4292.7700613812803567
 20
628.2937556145285498
 30
0.0
 40
410.9650228440851265
 50
280.6239260152394763
 51
280.6534269546651785
  0
ARC
  5
14A8C
  8
0
 10
4377.319467202791202
 20
177.410254645695403
 30
0.0
 40
47.777322166071329
 50
100.593232540689101
 51
100.7420234523934965
  0
ARC
  5
14A8D
  8
0
 10
4368.0043298052578393
 20
226.4960116968593979
 30
0.0
 40
2.1844825360243472
 50
278.2547762418815864
 51
280.819228296337883
  0
ARC
  5
14A8E
  8
0
 10
4367.5588580926760187
 20
229.5665741182043007
 30
0.0
 40
5.2871908094665994
 50
276.5061652306093833
 51
278.2547762418815864
  0
ARC
  5
14A8F
  8
0
 10
4367.6588558769790325
 20
228.6897436896547902
 30
0.0
 40
4.4046766977971146
 50
275.4972087734872161
 51
276.5061652306093833
  0
ARC
  5
14A90
  8
0
 10
4378.1789711679502943
 20
222.3508114883794065
 30
0.0
 40
7.2893139673966418
 50
67.3496211243678573
 51
76.1611689269403342
  0
ARC
  5
14A91
  8
0
 10
4377.5889061300504181
 20
221.3659945491071142
 30
0.0
 40
8.4270333082355542
 50
58.0913475579333181
 51
66.2257032864924469
  0
ARC
  5
14A92
  8
0
 10
4378.6768682500469367
 20
223.1905074747116942
 30
0.0
 40
6.3032908781184434
 50
40.1593005386014781
 51
57.7203506029789821
  0
ARC
  5
14A93
  8
0
 10
4379.9428807652402611
 20
224.1760295452843934
 30
0.0
 40
4.7005833688584566
 50
27.7076325422877083
 51
40.9306598642719592
  0
ARC
  5
14A94
  8
0
 10
4382.7225425179267404
 20
225.6756924677565905
 30
0.0
 40
1.542780622068108
 50
18.1658598892629897
 51
26.3977496217109788
  0
ARC
  5
14A95
  8
0
 10
4383.5030721201046617
 20
225.9261270166819031
 30
0.0
 40
0.723096608418752
 50
2.0649303490731139
 51
18.5931398982253313
  0
LINE
  5
14A96
  8
0
 10
4384.2256991752519752
 20
225.9521816568745862
 30
0.0
 11
4384.2479718754520945
 21
225.0765194582745892
 31
0.0
  0
ARC
  5
14A97
  8
0
 10
4380.6540055641580693
 20
248.2077971476909113
 30
0.0
 40
23.0610830916729412
 50
271.5729085357866097
 51
275.3014808450942041
  0
ARC
  5
14A98
  8
0
 10
4382.350915376505327
 20
229.9208035469816878
 30
0.0
 40
4.6955273455590518
 50
275.3014808450942041
 51
282.8617590803456778
  0
ARC
  5
14A99
  8
0
 10
4383.0472763872667201
 20
226.8709792837832993
 30
0.0
 40
1.5672136314786931
 50
282.8617590803456778
 51
302.2218898394793882
  0
ARC
  5
14A9A
  8
0
 10
4383.5533368082569723
 20
226.1142634100471867
 30
0.0
 40
0.6576705426232352
 50
300.0746579272961867
 51
332.6152695314543166
  0
ARC
  5
14A9B
  8
0
 10
4383.7165735251337537
 20
225.9988998245262053
 30
0.0
 40
0.4604765720513956
 50
336.0207090092940803
 51
11.2630275508707101
  0
ARC
  5
14A9C
  8
0
 10
4383.2123102697623835
 20
225.9102561601831951
 30
0.0
 40
0.9724100880004979
 50
10.5823003944331102
 51
24.3739597468984712
  0
ARC
  5
14A9D
  8
0
 10
4379.6419792376937039
 20
224.2783430930907116
 30
0.0
 40
4.8980145352205371
 50
24.5262779869007801
 51
31.3448178214855311
  0
ARC
  5
14A9E
  8
0
 10
4382.5149401626940744
 20
270.0873953566016894
 30
0.0
 40
46.3628748746469128
 50
270.7349242824557223
 51
271.9262691849646103
  0
ARC
  5
14A9F
  8
0
 10
4383.4223385078166757
 20
243.6836366500278928
 30
0.0
 40
20.0209530434079106
 50
271.0030677347277219
 51
271.5251511406929126
  0
ARC
  5
14AA0
  8
0
 10
4383.1403859622078016
 20
235.8125330508418926
 30
0.0
 40
12.1632346381376504
 50
269.6002368232204276
 51
272.9804888127691243
  0
ARC
  5
14AA1
  8
0
 10
4385.3597448010696098
 20
-203.1608555271807006
 30
0.0
 40
426.8951201293277222
 50
90.3020030494391648
 51
90.6018687629397164
  0
ARC
  5
14AA2
  8
0
 10
4379.5931769273429381
 20
662.6782064496393332
 30
0.0
 40
439.0422644413500848
 50
270.1968442047302119
 51
270.451846679043399
  0
ARC
  5
14AA3
  8
0
 10
4383.6710189578361678
 20
-700.7940000265862182
 30
0.0
 40
924.4361040420883455
 50
90.1592544594697927
 51
90.2672761602209448
  0
ARC
  5
14AA4
  8
0
 10
4383.8591552379530185
 20
225.060684823246504
 30
0.0
 40
0.3891389382503781
 50
340.6864571339444865
 51
2.3320933142859119
  0
ARC
  5
14AA5
  8
0
 10
4383.9424054304281526
 20
225.0414441420450089
 30
0.0
 40
0.3043546754380941
 50
297.0605606432304171
 51
338.9210980434750127
  0
ARC
  5
14AA6
  8
0
 10
4383.5221673311325503
 20
225.9317855944867119
 30
0.0
 40
1.288775179624887
 50
277.8204517637169033
 51
295.690612453902304
  0
ARC
  5
14AA7
  8
0
 10
4382.7064410686516567
 20
231.6170427870196988
 30
0.0
 40
7.032235800240672
 50
270.922786676817509
 51
278.1019603001379892
  0
ARC
  5
14AA8
  8
0
 10
4380.3236372925803153
 20
294.715580854671316
 30
0.0
 40
70.1742675406567855
 50
270.2157985367848028
 51
272.0384074010909785
  0
ARC
  5
14AA9
  8
0
 10
4377.6489258963865723
 20
551.1472397128525245
 30
0.0
 40
326.6186520085450979
 50
270.1897561073844827
 51
270.5155719502703846
  0
LINE
  5
14AAA
  8
0
 10
4382.6011582017526962
 20
224.4996459143746108
 30
0.0
 11
4382.3702979805520954
 21
224.49102135327459
 31
0.0
  0
LINE
  5
14AAB
  8
0
 10
4382.3562642741526361
 20
224.4917519412746003
 30
0.0
 11
4382.2472480538526725
 21
224.5072666305746054
 31
0.0
  0
LINE
  5
14AAC
  8
0
 10
4382.6778012799186399
 20
224.5808124670278971
 30
0.0
 11
4382.676413641952422
 21
224.5690815658745976
 31
0.0
  0
ARC
  5
14AAD
  8
0
 10
4382.5982186483170153
 20
224.5783311828101034
 30
0.0
 40
0.0787401577542783
 50
272.1394820261562018
 51
353.2538807579379068
  0
ARC
  5
14AAE
  8
0
 10
4382.3673585138540147
 20
224.5697082800411977
 30
0.0
 40
0.0787418116914369
 50
261.9004252340876064
 51
272.1393739087698123
  0
LINE
  5
14AAF
  8
0
 10
4382.4416826354308796
 20
224.5732847075298935
 30
0.0
 11
4382.4400359074516018
 21
224.5593634952745958
 31
0.0
  0
ARC
  5
14AB0
  8
0
 10
4382.3627127378467776
 20
224.5685136933900026
 30
0.0
 40
0.0778626912164645
 50
275.5905178386444163
 51
353.2511707445402749
  0
ARC
  5
14AB1
  8
0
 10
4382.2583421035142237
 20
224.5852206359288061
 30
0.0
 40
0.0787394747802319
 50
194.1856278005153911
 51
261.9003229103926174
  0
ARC
  5
14AB2
  8
0
 10
4379.8780935368786231
 20
286.8063814887191825
 30
0.0
 40
62.3432697279748496
 50
270.1180735216490234
 51
272.1739881889267281
  0
ARC
  5
14AB3
  8
0
 10
4382.3268265735796376
 20
232.276751338789694
 30
0.0
 40
7.7587050779477771
 50
272.4329453909068093
 51
275.3704311717028759
  0
LINE
  5
14AB4
  8
0
 10
4384.3343450788515838
 20
223.699747851874605
 30
0.0
 11
4384.3343450788515838
 21
223.585568787674589
 31
0.0
  0
LINE
  5
14AB5
  8
0
 10
4384.3343450788515838
 20
223.585568787674589
 30
0.0
 11
4384.168156552084838
 21
223.5187490741051022
 31
0.0
  0
LINE
  5
14AB6
  8
0
 10
4384.171930402219914
 20
223.699747851874605
 30
0.0
 11
4384.1670051887531372
 21
223.4635281859746101
 31
0.0
  0
LINE
  5
14AB7
  8
0
 10
4384.1670051887531372
 20
223.4635281859746101
 30
0.0
 11
4380.7612473225672147
 21
223.4635281859746101
 31
0.0
  0
LINE
  5
14AB8
  8
0
 10
4384.0291050021523915
 20
223.4635275092745985
 30
0.0
 11
4383.9794601872517887
 21
223.4438426606745907
 31
0.0
  0
LINE
  5
14AB9
  8
0
 10
4383.9794601872517887
 20
223.4438426606745907
 30
0.0
 11
4380.7021885214744543
 21
223.4438426606745907
 31
0.0
  0
LINE
  5
14ABA
  8
0
 10
4381.2828592645437311
 20
223.6373922822745897
 30
0.0
 11
4380.6502815272451699
 21
223.426540981174611
 31
0.0
  0
ARC
  5
14ABB
  8
0
 10
4380.1151571933478408
 20
239.6558787201464895
 30
0.0
 40
16.2381575770881987
 50
270.4813079806364158
 51
271.8885097043208248
  0
LINE
  5
14ABC
  8
0
 10
4383.2426762717577731
 20
223.6497285405750972
 30
0.0
 11
4383.1356567048451325
 21
223.4960161184746141
 31
0.0
  0
ARC
  5
14ABD
  8
0
 10
4383.119418801802567
 20
223.507481838786191
 30
0.0
 40
0.0198779334301274
 50
270.757564980078314
 51
324.7737622649700029
  0
LINE
  5
14ABE
  8
0
 10
4383.1196816202445916
 20
223.4876056428745983
 30
0.0
 11
4383.0423825597436007
 21
223.4862266563746118
 31
0.0
  0
ARC
  5
14ABF
  8
0
 10
4383.0155436930899668
 20
224.8114811557728956
 30
0.0
 40
1.3255262400038039
 50
270.6266274097750966
 51
271.1601874268325787
  0
LINE
  5
14AC0
  8
0
 10
4383.0300403021437887
 20
223.4860341891746032
 30
0.0
 11
4381.4535914076450354
 21
223.4850881032745917
 31
0.0
  0
LINE
  5
14AC1
  8
0
 10
4381.4535914076450354
 20
223.4850881032745917
 30
0.0
 11
4381.3840708060452016
 21
223.4851417698745877
 31
0.0
  0
ARC
  5
14AC2
  8
0
 10
4381.3849933646806676
 20
223.5053656474308923
 30
0.0
 40
0.0202449089365648
 50
211.9268617131318138
 51
267.3881320952668261
  0
LINE
  5
14AC3
  8
0
 10
4381.3678110276450752
 20
223.4946594047746089
 30
0.0
 11
4381.2819976214450435
 21
223.6388399432746041
 31
0.0
  0
LINE
  5
14AC4
  8
0
 10
4381.2819976214450435
 20
223.6388399432746041
 30
0.0
 11
4381.2828640690768225
 21
223.639193464288013
 31
0.0
  0
ARC
  5
14AC5
  8
0
 10
4380.2306563159154393
 20
223.4238973894512128
 30
0.0
 40
0.0197506572534883
 50
270.5135886595228953
 51
322.2688927037581834
  0
ARC
  5
14AC6
  8
0
 10
4380.2198904218375901
 20
224.531987419706013
 30
0.0
 40
1.127892980007124
 50
270.2175179707757025
 51
270.5558982270326283
  0
ARC
  5
14AC7
  8
0
 10
4379.883862360378771
 20
333.3733864961031941
 30
0.0
 40
109.9698104873344988
 50
269.6187828369936028
 51
270.1773064548970069
  0
ARC
  5
14AC8
  8
0
 10
4377.3261786917673817
 20
565.4846194706268534
 30
0.0
 40
342.0834828916223955
 50
270.0475794483526215
 51
270.3058402751119047
  0
LINE
  5
14AC9
  8
0
 10
4377.5484384023911844
 20
223.4012545283742099
 30
0.0
 11
4377.5447183470068921
 21
222.5860547101106874
 31
0.0
  0
LINE
  5
14ACA
  8
0
 10
4377.3498444368169658
 20
223.4012545283742099
 30
0.0
 11
4377.3482187681520372
 21
222.6329968417745988
 31
0.0
  0
LINE
  5
14ACB
  8
0
 10
4377.3482239489521817
 20
222.6354451815745961
 30
0.0
 11
4377.2300917732518428
 21
222.6354451815745961
 31
0.0
  0
LINE
  5
14ACC
  8
0
 10
4377.2300917732518428
 20
222.6354451815745961
 30
0.0
 11
4377.2300842748518335
 21
222.6678105368746117
 31
0.0
  0
LINE
  5
14ACD
  8
0
 10
4377.3112907608292517
 20
223.4012545283742099
 30
0.0
 11
4377.3080752469522849
 21
222.6678105368746117
 31
0.0
  0
ARC
  5
14ACE
  8
0
 10
4382.7737658008391008
 20
227.1901467193600865
 30
0.0
 40
2.6527798814810262
 50
276.0421773708994806
 51
284.6576617404647891
  0
LINE
  5
14ACF
  8
0
 10
4384.2482032623393025
 20
225.0577388295052117
 30
0.0
 11
4384.3880187500253669
 21
223.699747851874605
 31
0.0
  0
LINE
  5
14AD0
  8
0
 10
4384.3880187500253669
 20
223.699747851874605
 30
0.0
 11
4384.0327786315801859
 21
223.699747851874605
 31
0.0
  0
LINE
  5
14AD1
  8
0
 10
4384.0385391899253591
 20
223.7491691182746081
 30
0.0
 11
4384.031616456323718
 21
223.6897772605746013
 31
0.0
  0
ARC
  5
14AD2
  8
0
 10
4384.0112757797232916
 20
223.692836774577188
 30
0.0
 40
0.0205694859081447
 50
272.8123387093186238
 51
351.4460608026042792
  0
ARC
  5
14AD3
  8
0
 10
4383.9167907423252473
 20
225.1900415253550136
 30
0.0
 40
1.520750666050019
 50
271.447693944952789
 51
273.6002095907746252
  0
ARC
  5
14AD4
  8
0
 10
4384.0720361581134057
 20
223.7697149572794899
 30
0.0
 40
0.0190409503369956
 50
273.9696518337634075
 51
4.354607058192709
  0
LINE
  5
14AD5
  8
0
 10
4384.0910221414242187
 20
223.7711607191745884
 30
0.0
 11
4384.0098341528537276
 21
224.7388385987611059
 31
0.0
  0
ARC
  5
14AD6
  8
0
 10
4376.6922222792882167
 20
-2702.7891321834899827
 30
0.0
 40
2926.4998664190338786
 50
89.9929147328033565
 51
90.0070852671966861
  0
ARC
  5
14AD7
  8
0
 10
4376.6922222792891262
 20
468.5386334067154053
 30
0.0
 40
244.0978913017409013
 50
269.2220174629485996
 51
270.7779825370514004
  0
ARC
  5
14AD8
  8
0
 10
4376.6922222792873072
 20
906.877061598251089
 30
0.0
 40
682.3497273881993124
 50
269.8288370036066794
 51
270.1711629963933206
  0
LINE
  5
14ADA
  8
0
 10
4377.5447183470068921
 20
222.5860547101106874
 30
0.0
 11
4375.8397262115686317
 21
222.5860547101106874
 31
0.0
  0
ARC
  5
14ADB
  8
0
 10
4368.2113023480487755
 20
252.0465593000510012
 30
0.0
 40
28.2971829285575716
 50
268.3030558000659767
 51
270.3900634426775014
  0
LINE
  5
14ADC
  8
0
 10
4372.4581084144238048
 20
223.4118108458746121
 30
0.0
 11
4372.4531431562681973
 21
223.418291387985505
 31
0.0
  0
LINE
  5
14ADD
  8
0
 10
4380.2462769409448811
 20
223.4118108458746121
 30
0.0
 11
4380.25156275374502
 21
223.4182940776746022
 31
0.0
  0
LINE
  5
14ADE
  8
0
 10
4372.5089761693197943
 20
223.71071163945021
 30
0.0
 11
4380.8754683892511821
 21
223.71071163945021
 31
0.0
  0
LINE
  5
14ADF
  8
0
 10
4379.3586797552989083
 20
223.6320457916376938
 30
0.0
 11
4374.0257648033120859
 21
223.6320457916378075
 31
0.0
  0
LINE
  5
14AE0
  8
0
 10
4375.8747756144512095
 20
223.4012545283742099
 30
0.0
 11
4377.6102509509446463
 21
223.4012545283742099
 31
0.0
  0
ENDSEC
  0
EOF
