  0
SECTION
  2
HEADER
  9
$ACADVER
  1
AC1009
  9
$INSBASE
 10
3478.5383483080099722
 20
159.837042813233694
 30
0.0
  9
$EXTMIN
 10
3478.1844759827467897
 20
156.687436514033692
 30
0.0
  9
$EXTMAX
 10
3478.5494090105271425
 20
162.986649112433696
 30
0.0
  9
$LIMMIN
 10
0.0
 20
0.0
  9
$LIMMAX
 10
11.6929133858000007
 20
8.2677165353999982
  9
$ORTHOMODE
 70
     0
  9
$REGENMODE
 70
     1
  9
$FILLMODE
 70
     1
  9
$QTEXTMODE
 70
     0
  9
$MIRRTEXT
 70
     0
  9
$DRAGMODE
 70
     2
  9
$LTSCALE
 40
0.6431102362
  9
$OSMODE
 70
  4095
  9
$ATTMODE
 70
     1
  9
$TEXTSIZE
 40
0.2
  9
$TRACEWID
 40
0.05
  9
$TEXTSTYLE
  7
STANDARD
  9
$CLAYER
  8
0
  9
$CELTYPE
  6
BYLAYER
  9
$CECOLOR
 62
   256
  9
$DIMSCALE
 40
1.0
  9
$DIMASZ
 40
0.1875
  9
$DIMEXO
 40
0.0625
  9
$DIMDLI
 40
0.4443307087
  9
$DIMRND
 40
0.0
  9
$DIMDLE
 40
0.0
  9
$DIMEXE
 40
0.125
  9
$DIMTP
 40
0.01
  9
$DIMTM
 40
0.01
  9
$DIMTXT
 40
2.0
  9
$DIMCEN
 40
0.1052362205
  9
$DIMTSZ
 40
0.0
  9
$DIMTOL
 70
     1
  9
$DIMLIM
 70
     0
  9
$DIMTIH
 70
     1
  9
$DIMTOH
 70
     1
  9
$DIMSE1
 70
     0
  9
$DIMSE2
 70
     0
  9
$DIMTAD
 70
     0
  9
$DIMZIN
 70
     0
  9
$DIMBLK
  1

  9
$DIMASO
 70
     1
  9
$DIMSHO
 70
     1
  9
$DIMPOST
  1
\X
  9
$DIMAPOST
  1

  9
$DIMALT
 70
     1
  9
$DIMALTD
 70
     2
  9
$DIMALTF
 40
25.3999999999999986
  9
$DIMLFAC
 40
1.0
  9
$DIMTOFL
 70
     0
  9
$DIMTVP
 40
0.0
  9
$DIMTIX
 70
     0
  9
$DIMSOXD
 70
     0
  9
$DIMSAH
 70
     0
  9
$DIMBLK1
  1

  9
$DIMBLK2
  1

  9
$DIMSTYLE
  2
STANDARD
  9
$DIMCLRD
 70
     0
  9
$DIMCLRE
 70
     0
  9
$DIMCLRT
 70
     0
  9
$DIMTFAC
 40
1.0
  9
$DIMGAP
 40
0.09
  9
$LUNITS
 70
     2
  9
$LUPREC
 70
     4
  9
$SKETCHINC
 40
0.1
  9
$FILLETRAD
 40
0.0
  9
$AUNITS
 70
     0
  9
$AUPREC
 70
     0
  9
$MENU
  1
.
  9
$ELEVATION
 40
0.0
  9
$PELEVATION
 40
0.0
  9
$THICKNESS
 40
0.0
  9
$LIMCHECK
 70
     0
  9
$BLIPMODE
 70
     0
  9
$CHAMFERA
 40
0.0
  9
$CHAMFERB
 40
0.0
  9
$SKPOLY
 70
     0
  9
$TDCREATE
 40
2458060.468368056230247
  9
$TDUPDATE
 40
2460139.6091666668653488
  9
$TDINDWG
 40
0.5800996528
  9
$TDUSRTIMER
 40
0.5800996528
  9
$USRTIMER
 70
     1
  9
$ANGBASE
 50
0.0
  9
$ANGDIR
 70
     0
  9
$PDMODE
 70
     0
  9
$PDSIZE
 40
0.3125
  9
$PLINEWID
 40
0.0
  9
$COORDS
 70
     1
  9
$SPLFRAME
 70
     0
  9
$SPLINETYPE
 70
     6
  9
$SPLINESEGS
 70
     8
  9
$ATTDIA
 70
     1
  9
$ATTREQ
 70
     1
  9
$HANDLING
 70
     1
  9
$HANDSEED
  5
17C88
  9
$SURFTAB1
 70
     6
  9
$SURFTAB2
 70
     6
  9
$SURFTYPE
 70
     6
  9
$SURFU
 70
     6
  9
$SURFV
 70
     6
  9
$UCSNAME
  2

  9
$UCSORG
 10
0.0
 20
0.0
 30
0.0
  9
$UCSXDIR
 10
1.0
 20
0.0
 30
0.0
  9
$UCSYDIR
 10
0.0
 20
1.0
 30
0.0
  9
$PUCSNAME
  2

  9
$PUCSORG
 10
0.0
 20
0.0
 30
0.0
  9
$PUCSXDIR
 10
1.0
 20
0.0
 30
0.0
  9
$PUCSYDIR
 10
0.0
 20
1.0
 30
0.0
  9
$USERI1
 70
     0
  9
$USERI2
 70
     0
  9
$USERI3
 70
     0
  9
$USERI4
 70
     0
  9
$USERI5
 70
     0
  9
$USERR1
 40
0.0
  9
$USERR2
 40
0.0
  9
$USERR3
 40
0.0
  9
$USERR4
 40
0.0
  9
$USERR5
 40
0.0
  9
$WORLDVIEW
 70
     1
  9
$SHADEDGE
 70
     3
  9
$SHADEDIF
 70
    70
  9
$TILEMODE
 70
     1
  9
$MAXACTVP
 70
    64
  9
$PLIMCHECK
 70
     0
  9
$PEXTMIN
 10
1.0000000000000000E+20
 20
1.0000000000000000E+20
 30
1.0000000000000000E+20
  9
$PEXTMAX
 10
-1.0000000000000000E+20
 20
-1.0000000000000000E+20
 30
-1.0000000000000000E+20
  9
$PLIMMIN
 10
0.0
 20
0.0
  9
$PLIMMAX
 10
12.0
 20
9.0
  9
$UNITMODE
 70
     0
  9
$VISRETAIN
 70
     1
  9
$PLINEGEN
 70
     0
  9
$PSLTSCALE
 70
     1
  0
ENDSEC
  0
SECTION
  2
TABLES
  0
TABLE
  2
VPORT
 70
     1
  0
VPORT
  2
*ACTIVE
 70
     0
 10
0.0
 20
0.0
 11
1.0
 21
1.0
 12
174.6738272622619093
 22
-35.4244687626540582
 13
0.0
 23
0.0
 14
1.0
 24
1.0
 15
0.0
 25
0.0
 16
0.0
 26
0.0
 36
96.5995694866707311
 17
3303.693115234375
 27
195.2615115758877096
 37
0.0
 40
6.3557077786547458
 41
2.8398203592814371
 42
50.0
 43
0.0
 44
0.0
 50
0.0
 51
0.0
 71
     0
 72
   100
 73
     1
 74
     1
 75
     0
 76
     0
 77
     0
 78
     0
  0
ENDTAB
  0
TABLE
  2
LTYPE
 70
     2
  0
LTYPE
  2
CONTINUOUS
 70
     0
  3
Solid line
 72
    65
 73
     0
 40
0.0
  0
LTYPE
  2
PHANTOM2
 70
     0
  3
___ _ _ ___ _ _ ___ _ _ ___ _ _
 72
    65
 73
     6
 40
1.25
 49
0.625
 49
-0.125
 49
0.125
 49
-0.125
 49
0.125
 49
-0.125
  0
ENDTAB
  0
TABLE
  2
LAYER
 70
     2
  0
LAYER
  2
0
 70
     0
 62
   255
  6
CONTINUOUS
  0
LAYER
  2
DEFPOINTS
 70
     0
 62
     7
  6
CONTINUOUS
  0
ENDTAB
  0
TABLE
  2
STYLE
 70
     1
  0
STYLE
  2
STANDARD
 70
     0
 40
0.0
 41
0.8
 50
0.0
 71
     0
 42
0.2
  3
txt
  4

  0
ENDTAB
  0
TABLE
  2
VIEW
 70
     0
  0
ENDTAB
  0
TABLE
  2
UCS
 70
     0
  0
ENDTAB
  0
TABLE
  2
APPID
 70
     9
  0
APPID
  2
ACAD
 70
     0
  0
APPID
  2
ACAD_MLEADERVER
 70
     0
  0
APPID
  2
ACAD_EXEMPT_FROM_CAD_STANDARDS
 70
     0
  0
APPID
  2
ACAD_NAV_VCDISPLAY
 70
     0
  0
APPID
  2
ACAECLAYERSTANDARD
 70
     0
  0
APPID
  2
ACCMTRANSPARENCY
 70
     0
  0
APPID
  2
ACAD_DSTYLE_DIMJAG
 70
     0
  0
APPID
  2
ACAD_DSTYLE_DIMTALN
 70
     0
  0
APPID
  2
ACDBATTR
 70
     0
  0
ENDTAB
  0
TABLE
  2
DIMSTYLE
 70
     1
  0
DIMSTYLE
  2
STANDARD
 70
     0
  3

  4

  5

  6

  7

 40
1.0
 41
0.1875
 42
0.0625
 43
0.38
 44
0.125
 45
0.0
 46
0.0
 47
0.01
 48
0.01
140
0.15625
141
0.09
142
0.0
143
25.3999999999999986
144
1.0
145
0.0
146
1.0
147
0.09
 71
     1
 72
     0
 73
     1
 74
     1
 75
     0
 76
     0
 77
     0
 78
     4
170
     0
171
     2
172
     0
173
     0
174
     0
175
     0
176
     0
177
     0
178
     0
  0
ENDTAB
  0
ENDSEC
  0
SECTION
  2
BLOCKS
  0
BLOCK
  8
0
  2
$MODEL_SPACE
 70
     0
 10
0.0
 20
0.0
 30
0.0
  3
$MODEL_SPACE
  1

  0
ENDBLK
  5
21
  8
0
  0
BLOCK
 67
     1
  8
0
  2
$PAPER_SPACE
 70
     0
 10
0.0
 20
0.0
 30
0.0
  3
$PAPER_SPACE
  1

  0
ENDBLK
  5
1D
 67
     1
  8
0
  0
BLOCK
  8
0
  2
_FILLED
 70
     0
 10
0.0
 20
0.0
 30
0.0
  3
_FILLED
  1

  0
SOLID
  5
16A60
  8
0
  6
BYBLOCK
 62
     0
 10
0.0
 20
0.0
 30
0.0
 11
-1.0
 21
0.1666666667
 31
0.0
 12
-1.0
 22
-0.1666666667
 32
0.0
 13
-1.0
 23
-0.1666666667
 33
0.0
  0
ENDBLK
  5
16A61
  8
0
  6
BYBLOCK
 62
     0
  0
ENDSEC
  0
SECTION
  2
ENTITIES
  0
ATTDEF
  5
15121
  8
DEFPOINTS
 10
3478.538742343857848
 20
159.8409913278622128
 30
0.0
 40
0.001
  1
K-4177IN-A
  3

  2
MODELNUMBER
 70
     0
1001
ACDBATTR
1070
     0
1070
     1
  0
ATTDEF
  5
15122
  8
DEFPOINTS
 10
3478.538742343857848
 20
159.8393246611954908
 30
0.0
 40
0.001
  1
DROPLET
  3

  2
TRADENAME
 70
     0
1001
ACDBATTR
1070
     0
1070
     1
  0
ATTDEF
  5
15123
  8
DEFPOINTS
 10
3478.538742343857848
 20
159.8376579945289109
 30
0.0
 40
0.001
  1
FLUSH ACTUATOR PLATE
  3

  2
PRODUCT
 70
     0
1001
ACDBATTR
1070
     0
1070
     1
  0
ARC
  5
176B6
  8
0
 10
3478.2387899265108899
 20
159.7933422187336987
 30
0.0
 40
0.0197241267000013
 50
180.3942333255710082
 51
269.3347660675981956
  0
LINE
  5
176B7
  8
0
 10
3478.4597071449102259
 20
162.986649112433696
 30
0.0
 11
3478.5383483080099722
 21
162.986649112433696
 31
0.0
  0
LINE
  5
176B8
  8
0
 10
3478.5383483080099722
 20
156.687436514033692
 30
0.0
 11
3478.5383483080099722
 21
162.986649112433696
 31
0.0
  0
LINE
  5
176B9
  8
0
 10
3478.4201988806098598
 20
162.7892954040337088
 30
0.0
 11
3478.4201988806098598
 21
162.9479804096660018
 31
0.0
  0
ARC
  5
176BA
  8
0
 10
3478.4645684354381956
 20
162.9421648968076966
 30
0.0
 40
0.0447490512240667
 50
96.2366061085747759
 51
172.5328144740192045
  0
ARC
  5
176BB
  8
0
 10
2555.4095984074160697
 20
156.3063150825676928
 30
0.0
 40
923.03336755489795
 50
0.2191646564595011
 51
0.4024236589406745
  0
ARC
  5
176BC
  8
0
 10
3500.9774464075890137
 20
159.5026728069906881
 30
0.0
 40
22.7954228758492015
 50
171.7102568459914096
 51
179.1595384158312072
  0
LINE
  5
176BD
  8
0
 10
3478.4597071449102259
 20
156.687436514033692
 30
0.0
 11
3478.5383483080099722
 21
156.687436514033692
 31
0.0
  0
LINE
  5
176BE
  8
0
 10
3478.4201988806098598
 20
156.8847902224337076
 30
0.0
 11
3478.4201988806098598
 21
156.7261052168013862
 31
0.0
  0
ARC
  5
176BF
  8
0
 10
3478.4645684354381956
 20
156.7319207296596062
 30
0.0
 40
0.0447490512240667
 50
187.4671855259807103
 51
263.7633938914253235
  0
ARC
  5
176C0
  8
0
 10
2555.4095984074160697
 20
163.3677705438996952
 30
0.0
 40
923.03336755489795
 50
359.5975763410593231
 51
359.7808353435405024
  0
ARC
  5
176C1
  8
0
 10
3500.9774464075890137
 20
160.1714128194767
 30
0.0
 40
22.7954228758492015
 50
180.8404615841687928
 51
188.2897431540085051
  0
ARC
  5
176C2
  8
0
 10
3478.7846905528522257
 20
159.0552533625530032
 30
0.0
 40
0.5746983514167903
 50
183.8570786195712117
 51
206.653381007341892
  0
ARC
  5
176C3
  8
0
 10
3478.2793814329238558
 20
158.8094251109097002
 30
0.0
 40
0.0145830116949306
 50
235.213607176423011
 51
306.5597114499889813
  0
ARC
  5
176C4
  8
0
 10
3475.8759057922179636
 20
159.2335852524136897
 30
0.0
 40
2.4512266753478391
 50
349.7572735991569743
 51
11.3253244027012698
  0
ARC
  5
176C5
  8
0
 10
3477.991364653707933
 20
159.6473916538452045
 30
0.0
 40
0.2958555427292806
 50
13.2010984375509306
 51
26.1539314991086194
  0
ARC
  5
176C6
  8
0
 10
3478.2520585251500052
 20
159.7567573352827992
 30
0.0
 40
0.0215989624933382
 50
76.9694477994406157
 51
128.6762386674164986
  0
ARC
  5
176C7
  8
0
 10
3478.9024291948808241
 20
159.519582311693398
 30
0.0
 40
0.7108135718356067
 50
159.0600544520530946
 51
181.1616424700530956
  0
ARC
  5
176C8
  8
0
 10
3478.2652250326132162
 20
159.6867271774966923
 30
0.0
 40
0.0520523796799106
 50
115.8174605203957981
 51
165.4600979248789088
  0
ARC
  5
176C9
  8
0
 10
3478.2781790035128324
 20
159.1790097529004981
 30
0.0
 40
0.5557171987057289
 50
90.4266744433852381
 51
93.6753437798431747
  0
ARC
  5
176CA
  8
0
 10
3478.2988382915218608
 20
159.3070995360945972
 30
0.0
 40
0.4701459588932122
 50
266.4610556874213216
 51
269.5118826289879053
  0
ARC
  5
176CB
  8
0
 10
3478.2847653615781383
 20
158.8805706201918895
 30
0.0
 40
0.0452601059422456
 50
203.7315599530479915
 51
250.7152413960579054
  0
ARC
  5
176CC
  8
0
 10
3531.7942457955068676
 20
165.4153554347049067
 30
0.0
 40
53.869364393267162
 50
185.6805227442582975
 51
185.9906605017517904
  0
ARC
  5
176CD
  8
0
 10
3478.2713277863022086
 20
160.1415111987290061
 30
0.0
 40
0.0829405330625376
 50
150.9901765250141921
 51
163.9189144679129129
  0
ARC
  5
176CE
  8
0
 10
3744.1771705713172196
 20
185.4312514713834048
 30
0.0
 40
267.1741666614088899
 50
185.4114853719239022
 51
185.488267205221689
  0
ARC
  5
176CF
  8
0
 10
3479.1004906410280455
 20
159.9689209220809971
 30
0.0
 40
0.8774105953167797
 50
185.934647763018603
 51
190.5401339809577905
  0
ARC
  5
176D0
  8
0
 10
3478.3036662095819338
 20
159.8280996713882871
 30
0.0
 40
0.0686619405720532
 50
196.6544137339110989
 51
227.1021213416981084
  0
ARC
  5
176D1
  8
0
 10
3478.3385113483118403
 20
158.4350555494449964
 30
0.0
 40
0.091607339963049
 50
195.1628958195335883
 51
210.4783892362605968
  0
ARC
  5
176D2
  8
0
 10
3497.1552298805549981
 20
158.3078310621274056
 30
0.0
 40
18.8958402019514899
 50
178.6367886024750078
 51
180.0392935343921863
  0
ARC
  5
176D3
  8
0
 10
3478.3481909459751478
 20
158.7360252476765083
 30
0.0
 40
0.0861392387115254
 50
134.2647239624810993
 51
165.654083549012995
  0
ENDSEC
  0
EOF
