  0
SECTION
  2
HEADER
  9
$ACADVER
  1
AC1009
  9
$INSBASE
 10
3469.6501797829469069
 20
159.837042813233694
 30
0.0
  9
$EXTMIN
 10
3464.9960296600411311
 20
156.6778497813967874
 30
-0.0000000000112498
  9
$EXTMAX
 10
3474.2730524315888943
 20
162.9949031089194023
 30
0.0000000000002956
  9
$LIMMIN
 10
0.0
 20
0.0
  9
$LIMMAX
 10
11.6929133858000007
 20
8.2677165353999982
  9
$ORTHOMODE
 70
     0
  9
$REGENMODE
 70
     1
  9
$FILLMODE
 70
     1
  9
$QTEXTMODE
 70
     0
  9
$MIRRTEXT
 70
     0
  9
$DRAGMODE
 70
     2
  9
$LTSCALE
 40
0.6431102362
  9
$OSMODE
 70
  4095
  9
$ATTMODE
 70
     1
  9
$TEXTSIZE
 40
0.2
  9
$TRACEWID
 40
0.05
  9
$TEXTSTYLE
  7
STANDARD
  9
$CLAYER
  8
0
  9
$CELTYPE
  6
BYLAYER
  9
$CECOLOR
 62
   256
  9
$DIMSCALE
 40
1.0
  9
$DIMASZ
 40
0.1875
  9
$DIMEXO
 40
0.0625
  9
$DIMDLI
 40
0.4443307087
  9
$DIMRND
 40
0.0
  9
$DIMDLE
 40
0.0
  9
$DIMEXE
 40
0.125
  9
$DIMTP
 40
0.01
  9
$DIMTM
 40
0.01
  9
$DIMTXT
 40
2.0
  9
$DIMCEN
 40
0.1052362205
  9
$DIMTSZ
 40
0.0
  9
$DIMTOL
 70
     1
  9
$DIMLIM
 70
     0
  9
$DIMTIH
 70
     1
  9
$DIMTOH
 70
     1
  9
$DIMSE1
 70
     0
  9
$DIMSE2
 70
     0
  9
$DIMTAD
 70
     0
  9
$DIMZIN
 70
     0
  9
$DIMBLK
  1

  9
$DIMASO
 70
     1
  9
$DIMSHO
 70
     1
  9
$DIMPOST
  1
\X
  9
$DIMAPOST
  1

  9
$DIMALT
 70
     1
  9
$DIMALTD
 70
     2
  9
$DIMALTF
 40
25.3999999999999986
  9
$DIMLFAC
 40
1.0
  9
$DIMTOFL
 70
     0
  9
$DIMTVP
 40
0.0
  9
$DIMTIX
 70
     0
  9
$DIMSOXD
 70
     0
  9
$DIMSAH
 70
     0
  9
$DIMBLK1
  1

  9
$DIMBLK2
  1

  9
$DIMSTYLE
  2
STANDARD
  9
$DIMCLRD
 70
     0
  9
$DIMCLRE
 70
     0
  9
$DIMCLRT
 70
     0
  9
$DIMTFAC
 40
1.0
  9
$DIMGAP
 40
0.09
  9
$LUNITS
 70
     2
  9
$LUPREC
 70
     4
  9
$SKETCHINC
 40
0.1
  9
$FILLETRAD
 40
0.0
  9
$AUNITS
 70
     0
  9
$AUPREC
 70
     0
  9
$MENU
  1
.
  9
$ELEVATION
 40
0.0
  9
$PELEVATION
 40
0.0
  9
$THICKNESS
 40
0.0
  9
$LIMCHECK
 70
     0
  9
$BLIPMODE
 70
     0
  9
$CHAMFERA
 40
0.0
  9
$CHAMFERB
 40
0.0
  9
$SKPOLY
 70
     0
  9
$TDCREATE
 40
2458060.468368056230247
  9
$TDUPDATE
 40
2459108.7915046289563179
  9
$TDINDWG
 40
0.5807709491
  9
$TDUSRTIMER
 40
0.5807709491
  9
$USRTIMER
 70
     1
  9
$ANGBASE
 50
0.0
  9
$ANGDIR
 70
     0
  9
$PDMODE
 70
     0
  9
$PDSIZE
 40
0.3125
  9
$PLINEWID
 40
0.0
  9
$COORDS
 70
     1
  9
$SPLFRAME
 70
     0
  9
$SPLINETYPE
 70
     6
  9
$SPLINESEGS
 70
     8
  9
$ATTDIA
 70
     1
  9
$ATTREQ
 70
     1
  9
$HANDLING
 70
     1
  9
$HANDSEED
  5
17D92
  9
$SURFTAB1
 70
     6
  9
$SURFTAB2
 70
     6
  9
$SURFTYPE
 70
     6
  9
$SURFU
 70
     6
  9
$SURFV
 70
     6
  9
$UCSNAME
  2

  9
$UCSORG
 10
0.0
 20
0.0
 30
0.0
  9
$UCSXDIR
 10
1.0
 20
0.0
 30
0.0
  9
$UCSYDIR
 10
0.0
 20
1.0
 30
0.0
  9
$PUCSNAME
  2

  9
$PUCSORG
 10
0.0
 20
0.0
 30
0.0
  9
$PUCSXDIR
 10
1.0
 20
0.0
 30
0.0
  9
$PUCSYDIR
 10
0.0
 20
1.0
 30
0.0
  9
$USERI1
 70
     0
  9
$USERI2
 70
     0
  9
$USERI3
 70
     0
  9
$USERI4
 70
     0
  9
$USERI5
 70
     0
  9
$USERR1
 40
0.0
  9
$USERR2
 40
0.0
  9
$USERR3
 40
0.0
  9
$USERR4
 40
0.0
  9
$USERR5
 40
0.0
  9
$WORLDVIEW
 70
     1
  9
$SHADEDGE
 70
     3
  9
$SHADEDIF
 70
    70
  9
$TILEMODE
 70
     1
  9
$MAXACTVP
 70
    64
  9
$PLIMCHECK
 70
     0
  9
$PEXTMIN
 10
1.0000000000000000E+20
 20
1.0000000000000000E+20
 30
1.0000000000000000E+20
  9
$PEXTMAX
 10
-1.0000000000000000E+20
 20
-1.0000000000000000E+20
 30
-1.0000000000000000E+20
  9
$PLIMMIN
 10
0.0
 20
0.0
  9
$PLIMMAX
 10
12.0
 20
9.0
  9
$UNITMODE
 70
     0
  9
$VISRETAIN
 70
     1
  9
$PLINEGEN
 70
     0
  9
$PSLTSCALE
 70
     1
  0
ENDSEC
  0
SECTION
  2
TABLES
  0
TABLE
  2
VPORT
 70
     1
  0
VPORT
  2
*ACTIVE
 70
     0
 10
0.0
 20
0.0
 11
1.0
 21
1.0
 12
165.9414258114393022
 22
-35.4251351307296716
 13
0.0
 23
0.0
 14
1.0
 24
1.0
 15
0.0
 25
0.0
 16
0.0
 26
0.0
 36
96.5995694866707311
 17
3303.693115234375
 27
195.2615115758877096
 37
0.0
 40
6.3696224259486049
 41
2.6486111111111108
 42
50.0
 43
0.0
 44
0.0
 50
0.0
 51
0.0
 71
     0
 72
   100
 73
     1
 74
     1
 75
     0
 76
     0
 77
     0
 78
     0
  0
ENDTAB
  0
TABLE
  2
LTYPE
 70
     2
  0
LTYPE
  2
CONTINUOUS
 70
     0
  3
Solid line
 72
    65
 73
     0
 40
0.0
  0
LTYPE
  2
PHANTOM2
 70
     0
  3
___ _ _ ___ _ _ ___ _ _ ___ _ _
 72
    65
 73
     6
 40
1.25
 49
0.625
 49
-0.125
 49
0.125
 49
-0.125
 49
0.125
 49
-0.125
  0
ENDTAB
  0
TABLE
  2
LAYER
 70
     2
  0
LAYER
  2
0
 70
     0
 62
   255
  6
CONTINUOUS
  0
LAYER
  2
DEFPOINTS
 70
     0
 62
     7
  6
CONTINUOUS
  0
ENDTAB
  0
TABLE
  2
STYLE
 70
     1
  0
STYLE
  2
STANDARD
 70
     0
 40
0.0
 41
0.8
 50
0.0
 71
     0
 42
0.2
  3
txt
  4

  0
ENDTAB
  0
TABLE
  2
VIEW
 70
     0
  0
ENDTAB
  0
TABLE
  2
UCS
 70
     0
  0
ENDTAB
  0
TABLE
  2
APPID
 70
     9
  0
APPID
  2
ACAD
 70
     0
  0
APPID
  2
ACAD_MLEADERVER
 70
     0
  0
APPID
  2
ACAD_EXEMPT_FROM_CAD_STANDARDS
 70
     0
  0
APPID
  2
ACAD_NAV_VCDISPLAY
 70
     0
  0
APPID
  2
ACAECLAYERSTANDARD
 70
     0
  0
APPID
  2
ACCMTRANSPARENCY
 70
     0
  0
APPID
  2
ACAD_DSTYLE_DIMJAG
 70
     0
  0
APPID
  2
ACAD_DSTYLE_DIMTALN
 70
     0
  0
APPID
  2
ACDBATTR
 70
     0
  0
ENDTAB
  0
TABLE
  2
DIMSTYLE
 70
     1
  0
DIMSTYLE
  2
STANDARD
 70
     0
  3

  4

  5

  6

  7

 40
1.0
 41
0.1875
 42
0.0625
 43
0.38
 44
0.125
 45
0.0
 46
0.0
 47
0.01
 48
0.01
140
0.15625
141
0.09
142
0.0
143
25.3999999999999986
144
1.0
145
0.0
146
1.0
147
0.09
 71
     1
 72
     0
 73
     1
 74
     1
 75
     0
 76
     0
 77
     0
 78
     4
170
     0
171
     2
172
     0
173
     0
174
     0
175
     0
176
     0
177
     0
178
     0
  0
ENDTAB
  0
ENDSEC
  0
SECTION
  2
BLOCKS
  0
BLOCK
  8
0
  2
$MODEL_SPACE
 70
     0
 10
0.0
 20
0.0
 30
0.0
  3
$MODEL_SPACE
  1

  0
ENDBLK
  5
21
  8
0
  0
BLOCK
 67
     1
  8
0
  2
$PAPER_SPACE
 70
     0
 10
0.0
 20
0.0
 30
0.0
  3
$PAPER_SPACE
  1

  0
ENDBLK
  5
1D
 67
     1
  8
0
  0
BLOCK
  8
0
  2
_FILLED
 70
     0
 10
0.0
 20
0.0
 30
0.0
  3
_FILLED
  1

  0
SOLID
  5
16A60
  8
0
  6
BYBLOCK
 62
     0
 10
0.0
 20
0.0
 30
0.0
 11
-1.0
 21
0.1666666667
 31
0.0
 12
-1.0
 22
-0.1666666667
 32
0.0
 13
-1.0
 23
-0.1666666667
 33
0.0
  0
ENDBLK
  5
16A61
  8
0
  6
BYBLOCK
 62
     0
  0
ENDSEC
  0
SECTION
  2
ENTITIES
  0
LINE
  5
17662
  8
0
 10
3465.2210459246971368
 20
162.7897987187336923
 30
0.0
 11
3465.2210459246971368
 21
156.8842869077336957
 31
0.0
  0
LINE
  5
17663
  8
0
 10
3465.4178963183971973
 20
156.687436514033692
 30
0.0
 11
3473.8824632474970713
 21
156.687436514033692
 31
0.0
  0
LINE
  5
17664
  8
0
 10
3467.0812821450967931
 20
159.7987913058757101
 30
0.0
 11
3467.0812821450967931
 21
159.8468912555669874
 31
0.0
  0
LINE
  5
17665
  8
0
 10
3467.2584474994960146
 20
159.931606948233707
 30
0.0
 11
3467.2584474994960146
 21
159.8889344128336916
 31
0.0
  0
LINE
  5
17666
  8
0
 10
3468.7164534414969239
 20
160.2530483258337028
 30
0.0
 11
3468.7164534414969239
 21
160.2100193621722894
 31
0.0
  0
LINE
  5
17667
  8
0
 10
3468.9133038351969844
 20
160.2643416201337061
 30
0.0
 11
3468.9133038351969844
 21
160.2210900987496984
 31
0.0
  0
LINE
  5
17668
  8
0
 10
3469.0596286017971579
 20
158.3454241431992955
 30
0.0
 11
3469.0596286017971579
 21
158.3018722990611025
 31
0.0
  0
LINE
  5
17669
  8
0
 10
3469.1383687592970091
 20
158.3449125318506105
 30
0.0
 11
3469.1383687592970091
 21
158.3010663485964926
 31
0.0
  0
LINE
  5
1766A
  8
0
 10
3469.2171089167968603
 20
158.3013137670324113
 30
0.0
 11
3469.2171089167968603
 21
158.3454896038406048
 31
0.0
  0
LINE
  5
1766B
  8
0
 10
3469.2958490742971662
 20
158.3026146872336994
 30
0.0
 11
3469.2958490742971662
 21
158.3471556902337056
 31
0.0
  0
LINE
  5
1766C
  8
0
 10
3469.6501797828977942
 20
160.2539334897336971
 30
0.0
 11
3469.6501797828977942
 21
160.2108056795640891
 31
0.0
  0
LINE
  5
1766D
  8
0
 10
3469.8273451372970158
 20
160.238965432233698
 30
0.0
 11
3469.8273451372970158
 21
160.1960657820980032
 31
0.0
  0
LINE
  5
1766E
  8
0
 10
3470.4940774206970673
 20
160.1326386840337079
 30
0.0
 11
3470.4940774206970673
 21
160.0872539691710017
 31
0.0
  0
LINE
  5
1766F
  8
0
 10
3470.7499829324970051
 20
159.6765202094393032
 30
0.0
 11
3470.7499829324970051
 21
159.7223134681337058
 31
0.0
  0
LINE
  5
17670
  8
0
 10
3470.7499829324970051
 20
160.0216397332337124
 30
0.0
 11
3470.7499829324970051
 21
160.0658823051336981
 31
0.0
  0
LINE
  5
17671
  8
0
 10
3471.4225558036969232
 20
159.7775269961337017
 30
0.0
 11
3471.4225558036969232
 21
159.7331895526336893
 31
0.0
  0
LINE
  5
17672
  8
0
 10
3471.5491604724970784
 20
158.8429296137740891
 30
0.0
 11
3471.5491604724970784
 21
158.7985902248061052
 31
0.0
  0
LINE
  5
17673
  8
0
 10
3471.6082155905969557
 20
158.8453179257282954
 30
0.0
 11
3471.6082155905969557
 21
158.8022844922336958
 31
0.0
  0
LINE
  5
17674
  8
0
 10
3471.6194061973969838
 20
159.7243714582870098
 30
0.0
 11
3471.6194061973969838
 21
159.7686999123336875
 31
0.0
  0
LINE
  5
17675
  8
0
 10
3471.6869557480968069
 20
158.8088405317591878
 30
0.0
 11
3471.6869557480968069
 21
158.850805234269302
 31
0.0
  0
LINE
  5
17676
  8
0
 10
3471.746010866197139
 20
158.814986335533689
 30
0.0
 11
3471.746010866197139
 21
158.8566579564758001
 31
0.0
  0
LINE
  5
17677
  8
0
 10
3472.0489969758391453
 20
159.7055963782767947
 30
0.0
 11
3472.0490490097781731
 21
159.6630531937933881
 31
0.0
  0
LINE
  5
17678
  8
0
 10
3472.2263608852967991
 20
159.6170246479586865
 30
0.0
 11
3472.2263608852967991
 21
159.6565348463336989
 31
0.0
  0
LINE
  5
17679
  8
0
 10
3473.8824632474970713
 20
162.986649112433696
 30
0.0
 11
3465.4178963183971973
 21
162.986649112433696
 31
0.0
  0
ARC
  5
1767A
  8
0
 10
3465.429368455283111
 20
156.8957590446204904
 30
0.0
 40
0.2086381716629492
 50
183.1520440004717045
 51
266.8479559995369073
  0
ARC
  5
1767B
  8
0
 10
3465.4335568637488905
 20
162.7741381733810044
 30
0.0
 40
0.2130871931810455
 50
94.2146731602866936
 51
175.7853268397223019
  0
ARC
  5
1767C
  8
0
 10
3470.572817578196009
 20
159.6927448108336876
 30
0.0
 40
0.0787401574999873
 50
206.4897251224967079
 51
240.4379204459131927
  0
ARC
  5
1767D
  8
0
 10
3471.2537547412371168
 20
159.7984125912248885
 30
0.0
 40
0.0196821953224325
 50
271.8390691243459969
 51
61.4221854869398172
  0
LINE
  5
1767E
  8
0
 10
3474.0793136411971318
 20
162.7897987187336923
 30
0.0
 11
3474.0793136411971318
 21
156.8842869077336957
 31
0.0
  0
ARC
  5
1767F
  8
0
 10
3473.8709911106097934
 20
156.8957590446204904
 30
0.0
 40
0.2086381716629492
 50
273.1520440004630927
 51
356.8479559995266186
  0
ARC
  5
17680
  8
0
 10
3473.8668027021440139
 20
162.7741381733810044
 30
0.0
 40
0.2130871931810455
 50
4.2146731602776821
 51
85.7853268397133064
  0
ARC
  5
17681
  8
0
 10
3468.9627399089908977
 20
155.6685729632833954
 30
0.0
 40
4.5910860778143681
 50
93.0750789044353581
 51
111.7907355448137992
  0
ARC
  5
17682
  8
0
 10
3469.1496409882870466
 20
154.4235419493325878
 30
0.0
 40
5.8455791881010262
 50
92.3171036992711009
 51
94.2498083312547266
  0
ARC
  5
17683
  8
0
 10
3469.1889790747941333
 20
153.6917114094831049
 30
0.0
 40
6.5784089811809849
 50
85.9797955297030541
 51
92.4017440139536888
  0
ARC
  5
17684
  8
0
 10
3469.2613303109551453
 20
154.5954532709486102
 30
0.0
 40
5.671825305685255
 50
84.2726847676043036
 51
86.0688275060515053
  0
ARC
  5
17685
  8
0
 10
3469.3107934221529831
 20
154.8563089344476111
 30
0.0
 40
5.4073853799758034
 50
77.3598310258353052
 51
84.5183429754706879
  0
ARC
  5
17686
  8
0
 10
3469.5753836849639811
 20
156.0870206078703859
 30
0.0
 40
4.1486170946780874
 50
73.552879368844259
 51
77.2060353742705132
  0
ARC
  5
17687
  8
0
 10
3470.0804224380149208
 20
157.645718269530505
 30
0.0
 40
2.5110765052060651
 50
58.513454070607871
 51
74.5354083077318563
  0
ARC
  5
17688
  8
0
 10
3471.424225272197873
 20
159.8367143543025861
 30
0.0
 40
0.059210898423363
 50
236.973240097661602
 51
268.3843147134950868
  0
ARC
  5
17689
  8
0
 10
3471.3693806259639132
 20
156.3923147558109008
 30
0.0
 40
3.3856298544817842
 50
85.7649052817649675
 51
89.1000674421341046
  0
ARC
  5
1768A
  8
0
 10
3471.4170788659089339
 20
156.8974961832824135
 30
0.0
 40
2.8783236792940232
 50
77.3137092706132876
 51
85.9691572205473449
  0
ARC
  5
1768B
  8
0
 10
3471.6080770656108143
 20
157.7665035904356898
 30
0.0
 40
1.988590714540275
 50
71.8855842282815587
 51
77.1837731233072901
  0
ARC
  5
1768C
  8
0
 10
3471.9888851501928002
 20
158.7953706609503968
 30
0.0
 40
0.8933076060071435
 50
45.8059219541605032
 51
74.5832054020496997
  0
ARC
  5
1768D
  8
0
 10
3472.456658967435942
 20
159.2839114062427086
 30
0.0
 40
0.2170130753501259
 50
308.2323867706419946
 51
44.4403763629437023
  0
ARC
  5
1768E
  8
0
 10
3471.9368373396141578
 20
159.8753307924567935
 30
0.0
 40
1.004162455157634
 50
284.5951943624946807
 51
310.6479378673761857
  0
ARC
  5
1768F
  8
0
 10
3471.5006731008988936
 20
161.2005509649050907
 30
0.0
 40
2.3981470388592419
 50
275.8718060483778913
 51
286.7017096531217248
  0
ARC
  5
17690
  8
0
 10
3471.3692419534918372
 20
162.1485606651150135
 30
0.0
 40
3.3547984476604329
 50
271.0188146268029072
 51
276.4483480376189277
  0
ARC
  5
17691
  8
0
 10
3471.4301617479641209
 20
158.7154342192206968
 30
0.0
 40
0.0788685675199799
 50
90.9219469567201486
 51
122.7392115774106998
  0
ARC
  5
17692
  8
0
 10
3470.3624941201969705
 20
160.3918479303723075
 30
0.0
 40
1.9086625972828091
 50
294.263595737389096
 51
302.4818697237803917
  0
ARC
  5
17693
  8
0
 10
3469.3236706059719836
 20
163.2357836921414957
 30
0.0
 40
4.9332474566565407
 50
269.6768731330720925
 51
291.688849102873121
  0
ARC
  5
17694
  8
0
 10
3469.1592434430999674
 20
164.1872927096464139
 30
0.0
 40
5.8862633755160649
 50
256.0766022811367861
 51
271.3298128845918882
  0
ARC
  5
17695
  8
0
 10
3468.2792686502698416
 20
160.8135311144692139
 30
0.0
 40
2.4002581363784881
 50
233.7441547929512069
 51
257.0866269138397229
  0
ARC
  5
17696
  8
0
 10
3467.0906264521008779
 20
159.276101707036986
 30
0.0
 40
0.4601919476446362
 50
135.3879600767380964
 51
239.8913851506463004
  0
ARC
  5
17697
  8
0
 10
3467.7711274071261869
 20
158.6318327298500037
 30
0.0
 40
1.397230727711509
 50
111.5261436930106953
 51
136.1784465029614068
  0
ARC
  5
17698
  8
0
 10
3468.9515186623179943
 20
155.6717657706682871
 30
0.0
 40
4.5443372804885946
 50
92.9650656661847989
 51
111.8740325225377035
  0
ARC
  5
17699
  8
0
 10
3469.1816956772968297
 20
153.6931270646514065
 30
0.0
 40
6.533478059614156
 50
92.3543429699398217
 51
94.0834293370293864
  0
ARC
  5
1769A
  8
0
 10
3469.1894121359678138
 20
153.6005509354772869
 30
0.0
 40
6.6262941834918729
 50
84.4754086927047894
 51
92.3881254569482877
  0
ARC
  5
1769B
  8
0
 10
3469.313730296355061
 20
154.9518780921738994
 30
0.0
 40
5.2692793370617812
 50
74.1826873738918806
 51
84.4063009938136872
  0
ARC
  5
1769C
  8
0
 10
3470.0357903452731989
 20
157.4995770234305894
 30
0.0
 40
2.6212347021632199
 50
62.07957977648433
 51
74.1890467841961083
  0
ARC
  5
1769D
  8
0
 10
3471.3205249592870132
 20
156.9048722720177977
 30
0.0
 40
2.874629210507857
 50
91.3183597321456091
 51
101.4477952197106987
  0
ARC
  5
1769E
  8
0
 10
3471.1556261514010657
 20
157.6631303679986047
 30
0.0
 40
2.0987571229003841
 50
101.1441366474405044
 51
108.1358411597688018
  0
ARC
  5
1769F
  8
0
 10
3470.7042823784968277
 20
158.8700182481100001
 30
0.0
 40
0.8130815162699075
 50
104.3805918935562005
 51
137.1165589837927996
  0
ARC
  5
176A0
  8
0
 10
3470.2749349687760514
 20
159.2831086526200011
 30
0.0
 40
0.2176239479050501
 50
139.8854519740638978
 51
231.5724017179821885
  0
ARC
  5
176A1
  8
0
 10
3470.9438525351788485
 20
160.1339642502063043
 30
0.0
 40
1.2999372565597631
 50
231.7840573563526902
 51
262.079080448839818
  0
ARC
  5
176A2
  8
0
 10
3471.3401501781067964
 20
161.8488896483279973
 30
0.0
 40
3.0571056947867441
 50
259.1505304984303848
 51
268.3722280806052822
  0
ARC
  5
176A3
  8
0
 10
3471.2532369557939091
 20
158.7734099076828898
 30
0.0
 40
0.019607833438311
 50
298.5005140335309761
 51
89.7878697826585039
  0
ARC
  5
176A4
  8
0
 10
3469.4046456699229566
 20
162.7569751586165125
 30
0.0
 40
4.4111613485506931
 50
268.5867173229639207
 51
294.9098895160200868
  0
ARC
  5
176A5
  8
0
 10
3469.1360016174580778
 20
164.0401496692111039
 30
0.0
 40
5.695237629294378
 50
254.6224175856391128
 51
271.6083240260492744
  0
ARC
  5
176A6
  8
0
 10
3468.1151911003062196
 20
160.4837893430749034
 30
0.0
 40
1.9959254676504969
 50
231.5492168217024869
 51
255.8050046480468893
  0
ARC
  5
176A7
  8
0
 10
3467.0910843184860823
 20
159.2769425328708905
 30
0.0
 40
0.4171573628765
 50
135.7484769346388873
 51
238.6481333380478986
  0
ARC
  5
176A8
  8
0
 10
3467.8043647950839841
 20
158.5968300429908027
 30
0.0
 40
1.402697186205337
 50
112.9041781828941993
 51
136.1806657815309904
  0
ARC
  5
176A9
  8
0
 10
3471.3336364659658102
 20
156.791747960209193
 30
0.0
 40
2.9432231272975029
 50
89.165981722992754
 51
105.7653082876273061
  0
ARC
  5
176AA
  8
0
 10
3470.7130573055419518
 20
158.8585451748668049
 30
0.0
 40
0.7863737854901975
 50
103.1639553363530979
 51
136.8814833450614969
  0
ARC
  5
176AB
  8
0
 10
3470.2788009406149285
 20
159.2851086065114998
 30
0.0
 40
0.1784258966852265
 50
141.5582605855356917
 51
223.0256212792288864
  0
ARC
  5
176AC
  8
0
 10
3470.8552800756770012
 20
159.9504379830435141
 30
0.0
 40
1.0579306003622451
 50
228.0711319813900957
 51
261.5988428225383018
  0
ARC
  5
176AD
  8
0
 10
3471.3534153409541432
 20
162.0549453687494861
 30
0.0
 40
3.2179747305926711
 50
258.2974959292346284
 51
273.4873791007296973
  0
ARC
  5
176AE
  8
0
 10
3471.4830376274740047
 20
161.2092444142926979
 30
0.0
 40
2.3672384682976211
 50
271.6006214948782826
 51
291.6194298467988801
  0
ARC
  5
176AF
  8
0
 10
3472.1497200346761929
 20
159.5404458934634135
 30
0.0
 40
0.5702262221644587
 50
291.1240101533766165
 51
320.1623599801187083
  0
ARC
  5
176B0
  8
0
 10
3472.4444317946949923
 20
159.28726226028121
 30
0.0
 40
0.1818216444489314
 50
321.9316481283785265
 51
46.6260577982415327
  0
ARC
  5
176B1
  8
0
 10
3471.8670000328379501
 20
158.5969542502089098
 30
0.0
 40
1.0815192271269629
 50
49.506374652407807
 51
80.2953088023886181
  0
ARC
  5
176B2
  8
0
 10
3471.3992357718998392
 20
156.6458257709817019
 30
0.0
 40
3.0864086840678979
 50
77.8409954818299354
 51
85.9093039908582483
  0
ARC
  5
176B3
  8
0
 10
3471.3640023314828795
 20
156.2244731582308077
 30
0.0
 40
3.5092049306729791
 50
85.8262586565326444
 51
89.0439365634271667
  0
ARC
  5
176B4
  8
0
 10
3471.3836859776019992
 20
159.2376058788711077
 30
0.0
 40
0.4971056638992439
 50
85.5153344290961144
 51
90.830859701084492
  0
ATTDEF
  5
176E1
  8
DEFPOINTS
 10
3469.6506483006619419
 20
159.8360978076700007
 30
0.0
 40
0.001
  1
K-4177IN-M
  3

  2
MODELNUMBER
 70
     0
1001
ACDBATTR
1070
     0
1070
     1
  0
ATTDEF
  5
176E2
  8
DEFPOINTS
 10
3469.6506483006619419
 20
159.8344311410033924
 30
0.0
 40
0.001
  1
DROPLET
  3

  2
TRADENAME
 70
     0
1001
ACDBATTR
1070
     0
1070
     1
  0
ATTDEF
  5
176E3
  8
DEFPOINTS
 10
3469.6506483006619419
 20
159.8327644743366989
 30
0.0
 40
0.001
  1
FLUSH ACTUATOR PLATE
  3

  2
PRODUCT
 70
     0
1001
ACDBATTR
1070
     0
1070
     1
  0
ENDSEC
  0
EOF
