  0
SECTION
  2
HEADER
  9
$ACADVER
  1
AC1009
  9
$INSBASE
 10
3563.3726154224441416
 20
153.977441254317597
 30
0.0
  9
$EXTMIN
 10
3552.0642930407439053
 20
150.749094797617488
 30
0.0
  9
$EXTMAX
 10
3568.6480546001439507
 20
199.3908270810175054
 30
0.0
  9
$LIMMIN
 10
0.0
 20
0.0
  9
$LIMMAX
 10
11.6929133858000007
 20
8.2677165353999982
  9
$ORTHOMODE
 70
     0
  9
$REGENMODE
 70
     1
  9
$FILLMODE
 70
     1
  9
$QTEXTMODE
 70
     0
  9
$MIRRTEXT
 70
     0
  9
$DRAGMODE
 70
     2
  9
$LTSCALE
 40
0.6431102362
  9
$OSMODE
 70
  3839
  9
$ATTMODE
 70
     1
  9
$TEXTSIZE
 40
0.2
  9
$TRACEWID
 40
0.05
  9
$TEXTSTYLE
  7
STANDARD
  9
$CLAYER
  8
0
  9
$CELTYPE
  6
BYLAYER
  9
$CECOLOR
 62
   256
  9
$DIMSCALE
 40
1.0
  9
$DIMASZ
 40
0.1875
  9
$DIMEXO
 40
0.0625
  9
$DIMDLI
 40
0.4443307087
  9
$DIMRND
 40
0.0
  9
$DIMDLE
 40
0.0
  9
$DIMEXE
 40
0.125
  9
$DIMTP
 40
0.01
  9
$DIMTM
 40
0.01
  9
$DIMTXT
 40
2.0
  9
$DIMCEN
 40
0.1052362205
  9
$DIMTSZ
 40
0.0
  9
$DIMTOL
 70
     1
  9
$DIMLIM
 70
     0
  9
$DIMTIH
 70
     1
  9
$DIMTOH
 70
     1
  9
$DIMSE1
 70
     0
  9
$DIMSE2
 70
     0
  9
$DIMTAD
 70
     0
  9
$DIMZIN
 70
     0
  9
$DIMBLK
  1

  9
$DIMASO
 70
     1
  9
$DIMSHO
 70
     1
  9
$DIMPOST
  1
\X
  9
$DIMAPOST
  1

  9
$DIMALT
 70
     1
  9
$DIMALTD
 70
     2
  9
$DIMALTF
 40
25.3999999999999986
  9
$DIMLFAC
 40
1.0
  9
$DIMTOFL
 70
     0
  9
$DIMTVP
 40
0.0
  9
$DIMTIX
 70
     0
  9
$DIMSOXD
 70
     0
  9
$DIMSAH
 70
     0
  9
$DIMBLK1
  1

  9
$DIMBLK2
  1

  9
$DIMSTYLE
  2
STANDARD
  9
$DIMCLRD
 70
     0
  9
$DIMCLRE
 70
     0
  9
$DIMCLRT
 70
     0
  9
$DIMTFAC
 40
1.0
  9
$DIMGAP
 40
0.09
  9
$LUNITS
 70
     2
  9
$LUPREC
 70
     4
  9
$SKETCHINC
 40
0.1
  9
$FILLETRAD
 40
0.0
  9
$AUNITS
 70
     0
  9
$AUPREC
 70
     0
  9
$MENU
  1
.
  9
$ELEVATION
 40
0.0
  9
$PELEVATION
 40
0.0
  9
$THICKNESS
 40
0.0
  9
$LIMCHECK
 70
     0
  9
$BLIPMODE
 70
     0
  9
$CHAMFERA
 40
0.0
  9
$CHAMFERB
 40
0.0
  9
$SKPOLY
 70
     0
  9
$TDCREATE
 40
2458060.468368056230247
  9
$TDUPDATE
 40
2459143.5376041671261191
  9
$TDINDWG
 40
0.7690001157
  9
$TDUSRTIMER
 40
0.7690001157
  9
$USRTIMER
 70
     1
  9
$ANGBASE
 50
0.0
  9
$ANGDIR
 70
     0
  9
$PDMODE
 70
     0
  9
$PDSIZE
 40
0.3125
  9
$PLINEWID
 40
0.0
  9
$COORDS
 70
     1
  9
$SPLFRAME
 70
     0
  9
$SPLINETYPE
 70
     6
  9
$SPLINESEGS
 70
     8
  9
$ATTDIA
 70
     1
  9
$ATTREQ
 70
     1
  9
$HANDLING
 70
     1
  9
$HANDSEED
  5
10FDC
  9
$SURFTAB1
 70
     6
  9
$SURFTAB2
 70
     6
  9
$SURFTYPE
 70
     6
  9
$SURFU
 70
     6
  9
$SURFV
 70
     6
  9
$UCSNAME
  2

  9
$UCSORG
 10
0.0
 20
0.0
 30
0.0
  9
$UCSXDIR
 10
1.0
 20
0.0
 30
0.0
  9
$UCSYDIR
 10
0.0
 20
1.0
 30
0.0
  9
$PUCSNAME
  2

  9
$PUCSORG
 10
0.0
 20
0.0
 30
0.0
  9
$PUCSXDIR
 10
1.0
 20
0.0
 30
0.0
  9
$PUCSYDIR
 10
0.0
 20
1.0
 30
0.0
  9
$USERI1
 70
     0
  9
$USERI2
 70
     0
  9
$USERI3
 70
     0
  9
$USERI4
 70
     0
  9
$USERI5
 70
     0
  9
$USERR1
 40
0.0
  9
$USERR2
 40
0.0
  9
$USERR3
 40
0.0
  9
$USERR4
 40
0.0
  9
$USERR5
 40
0.0
  9
$WORLDVIEW
 70
     1
  9
$SHADEDGE
 70
     3
  9
$SHADEDIF
 70
    70
  9
$TILEMODE
 70
     1
  9
$MAXACTVP
 70
    64
  9
$PLIMCHECK
 70
     0
  9
$PEXTMIN
 10
1.0000000000000000E+20
 20
1.0000000000000000E+20
 30
1.0000000000000000E+20
  9
$PEXTMAX
 10
-1.0000000000000000E+20
 20
-1.0000000000000000E+20
 30
-1.0000000000000000E+20
  9
$PLIMMIN
 10
0.0
 20
0.0
  9
$PLIMMAX
 10
12.0
 20
9.0
  9
$UNITMODE
 70
     0
  9
$VISRETAIN
 70
     1
  9
$PLINEGEN
 70
     0
  9
$PSLTSCALE
 70
     1
  0
ENDSEC
  0
SECTION
  2
TABLES
  0
TABLE
  2
VPORT
 70
     1
  0
VPORT
  2
*ACTIVE
 70
     0
 10
0.0
 20
0.0
 11
1.0
 21
1.0
 12
0.0
 22
0.0
 13
0.0
 23
0.0
 14
1.0
 24
1.0
 15
0.0
 25
0.0
 16
0.0
 26
0.0
 36
201.987771801121113
 17
3560.3560791015629547
 27
175.0699615478515057
 37
0.0
 40
51.3910276033875206
 41
3.1182994454713491
 42
50.0
 43
0.0
 44
0.0
 50
0.0
 51
0.0
 71
     0
 72
   100
 73
     1
 74
     1
 75
     0
 76
     0
 77
     0
 78
     0
  0
ENDTAB
  0
TABLE
  2
LTYPE
 70
     2
  0
LTYPE
  2
CONTINUOUS
 70
     0
  3
Solid line
 72
    65
 73
     0
 40
0.0
  0
LTYPE
  2
PHANTOM2
 70
     0
  3
___ _ _ ___ _ _ ___ _ _ ___ _ _
 72
    65
 73
     6
 40
1.25
 49
0.625
 49
-0.125
 49
0.125
 49
-0.125
 49
0.125
 49
-0.125
  0
ENDTAB
  0
TABLE
  2
LAYER
 70
     2
  0
LAYER
  2
0
 70
     0
 62
   255
  6
CONTINUOUS
  0
LAYER
  2
DEFPOINTS
 70
     0
 62
     7
  6
CONTINUOUS
  0
ENDTAB
  0
TABLE
  2
STYLE
 70
     1
  0
STYLE
  2
STANDARD
 70
     0
 40
0.0
 41
0.8
 50
0.0
 71
     0
 42
0.2
  3
txt
  4

  0
ENDTAB
  0
TABLE
  2
VIEW
 70
     0
  0
ENDTAB
  0
TABLE
  2
UCS
 70
     0
  0
ENDTAB
  0
TABLE
  2
APPID
 70
    10
  0
APPID
  2
ACAD
 70
     0
  0
APPID
  2
ACAD_MLEADERVER
 70
     0
  0
APPID
  2
ACAD_EXEMPT_FROM_CAD_STANDARDS
 70
     0
  0
APPID
  2
ACAD_NAV_VCDISPLAY
 70
     0
  0
APPID
  2
ACAECLAYERSTANDARD
 70
     0
  0
APPID
  2
ACCMTRANSPARENCY
 70
     0
  0
APPID
  2
ACAD_DSTYLE_DIMJAG
 70
     0
  0
APPID
  2
ACAD_DSTYLE_DIMTALN
 70
     0
  0
APPID
  2
ACDBATTR
 70
     0
  0
APPID
  2
ACAD_PSEXT
 70
     0
  0
ENDTAB
  0
TABLE
  2
DIMSTYLE
 70
     1
  0
DIMSTYLE
  2
STANDARD
 70
     0
  3

  4

  5

  6

  7

 40
1.0
 41
0.1875
 42
0.0625
 43
0.38
 44
0.125
 45
0.0
 46
0.0
 47
0.01
 48
0.01
140
0.15625
141
0.09
142
0.0
143
25.3999999999999986
144
1.0
145
0.0
146
1.0
147
0.09
 71
     1
 72
     0
 73
     1
 74
     1
 75
     0
 76
     0
 77
     0
 78
     4
170
     0
171
     2
172
     0
173
     0
174
     0
175
     0
176
     0
177
     0
178
     0
  0
ENDTAB
  0
ENDSEC
  0
SECTION
  2
BLOCKS
  0
BLOCK
  8
0
  2
$MODEL_SPACE
 70
     0
 10
0.0
 20
0.0
 30
0.0
  3
$MODEL_SPACE
  1

  0
ENDBLK
  5
21
  8
0
  0
BLOCK
 67
     1
  8
0
  2
$PAPER_SPACE
 70
     0
 10
0.0
 20
0.0
 30
0.0
  3
$PAPER_SPACE
  1

  0
ENDBLK
  5
1D
 67
     1
  8
0
  0
BLOCK
  8
0
  2
_FILLED
 70
     0
 10
0.0
 20
0.0
 30
0.0
  3
_FILLED
  1

  0
SOLID
  5
B630
  8
0
  6
BYBLOCK
 62
     0
 10
0.0
 20
0.0
 30
0.0
 11
-1.0
 21
0.1666666667
 31
0.0
 12
-1.0
 22
-0.1666666667
 32
0.0
 13
-1.0
 23
-0.1666666667
 33
0.0
  0
ENDBLK
  5
B631
  8
0
  6
BYBLOCK
 62
     0
  0
BLOCK
  8
0
  2
_CLOSED
 70
     0
 10
0.0
 20
0.0
 30
0.0
  3
_CLOSED
  1

  0
LINE
  5
ECF3
  8
0
  6
BYBLOCK
 62
     0
 10
0.0
 20
0.0
 30
0.0
 11
-1.0
 21
0.1666666667
 31
0.0
  0
LINE
  5
ECF4
  8
0
  6
BYBLOCK
 62
     0
 10
-1.0
 20
0.1666666667
 30
0.0
 11
-1.0
 21
-0.1666666667
 31
0.0
  0
LINE
  5
ECF5
  8
0
  6
BYBLOCK
 62
     0
 10
-1.0
 20
-0.1666666667
 30
0.0
 11
0.0
 21
0.0
 31
0.0
  0
LINE
  5
ECF6
  8
0
  6
BYBLOCK
 62
     0
 10
-1.0
 20
0.0
 30
0.0
 11
0.0
 21
0.0
 31
0.0
  0
ENDBLK
  5
ECF7
  8
0
  6
BYBLOCK
 62
     0
  0
ENDSEC
  0
SECTION
  2
ENTITIES
  0
ATTDEF
  5
AA11
  8
DEFPOINTS
 10
3563.361518737518054
 20
153.9760405830238028
 30
0.0
 40
0.001
  1
K-4179W
  3

  2
MODELNUMBER
 70
     0
1001
ACDBATTR
1070
     0
1070
     1
  0
ATTDEF
  5
AA12
  8
DEFPOINTS
 10
3563.361518737518054
 20
153.9743739163571092
 30
0.0
 40
0.001
  1

  3

  2
TRADENAME
 70
     0
1001
ACDBATTR
1070
     0
1070
     1
  0
ATTDEF
  5
AA13
  8
DEFPOINTS
 10
3563.361518737518054
 20
153.9727072496905009
 30
0.0
 40
0.001
  1
IN-WALL TANK AND CARRIER SYSTEM
  3

  2
PRODUCT
 70
     0
1001
ACDBATTR
1070
     0
1070
     1
  0
LINE
  5
10CF3
  8
0
 10
3561.9159225090438667
 20
197.3632680259175061
 30
0.0
 11
3565.0261587295440222
 21
197.3632680259175061
 31
0.0
  0
LINE
  5
10CF4
  8
0
 10
3561.7978122728450217
 20
156.1034255062174907
 30
0.0
 11
3561.7978122728450217
 21
197.2451577897174957
 31
0.0
  0
LINE
  5
10CF5
  8
0
 10
3561.7978122728450217
 20
197.5207483409174927
 30
0.0
 11
3561.7978122728450217
 21
198.0719294433027073
 31
0.0
  0
LINE
  5
10CF6
  8
0
 10
3561.7978122728450217
 20
154.1349215692175108
 30
0.0
 11
3561.7978122728450217
 21
153.977441254317597
 31
0.0
  0
LINE
  5
10CF7
  8
0
 10
3563.3726154224441416
 20
156.1034255062174907
 30
0.0
 11
3563.3726154224441416
 21
197.3632680259175061
 31
0.0
  0
LINE
  5
10CF8
  8
0
 10
3565.8332453436560172
 20
199.3908270810175054
 30
0.0
 11
3566.0300957375120561
 21
199.3908270810175054
 31
0.0
  0
LINE
  5
10CF9
  8
0
 10
3561.8962374697439373
 20
197.5601184196175097
 30
0.0
 11
3561.9946626665441727
 21
197.5601184196175097
 31
0.0
  0
LINE
  5
10CFA
  8
0
 10
3563.3726154224441416
 20
191.0837404669175044
 30
0.0
 11
3565.2623792019439861
 21
191.0837404669175044
 31
0.0
  0
LINE
  5
10CFB
  8
0
 10
3563.3726154224441416
 20
190.7687798369175027
 30
0.0
 11
3565.2623792019439861
 21
190.7687798369175027
 31
0.0
  0
LINE
  5
10CFC
  8
0
 10
3563.3726154224441416
 20
190.2643912149989092
 30
0.0
 11
3565.3165123802527887
 21
190.2643912149989092
 31
0.0
  0
LINE
  5
10CFD
  8
0
 10
3563.3726154224441416
 20
190.9853152700175087
 30
0.0
 11
3565.2623792019439861
 21
190.9853152700175087
 31
0.0
  0
LINE
  5
10CFE
  8
0
 10
3563.3726154224441416
 20
154.1349215692175108
 30
0.0
 11
3561.7978122728709423
 21
154.1349215692175108
 31
0.0
  0
LINE
  5
10CFF
  8
0
 10
3563.3726154224441416
 20
154.1349215692175108
 30
0.0
 11
3563.3726154224441416
 21
153.977441254317597
 31
0.0
  0
LINE
  5
10D00
  8
0
 10
3563.2545051862439323
 20
154.292385059319713
 30
0.0
 11
3563.2545051862439323
 21
156.1034255062174907
 31
0.0
  0
LINE
  5
10D01
  8
0
 10
3563.3332453437437835
 20
154.1349215692175108
 30
0.0
 11
3563.2545051862439323
 21
154.2924018842174974
 31
0.0
  0
LINE
  5
10D02
  8
0
 10
3563.2545135986929381
 20
154.292385059319713
 30
0.0
 11
3561.9159140966949053
 21
154.292385059319713
 31
0.0
  0
LINE
  5
10D03
  8
0
 10
3561.7978122728450217
 20
156.1034255062174907
 30
0.0
 11
3563.3726154224441416
 21
156.1034255062174907
 31
0.0
  0
LINE
  5
10D04
  8
0
 10
3563.3726154224441416
 20
153.977441254317597
 30
0.0
 11
3561.7978122728450217
 21
153.977441254317597
 31
0.0
  0
LINE
  5
10D05
  8
0
 10
3561.9159225091439112
 20
154.292385059319713
 30
0.0
 11
3561.9159225091439112
 21
156.1034255062174907
 31
0.0
  0
LINE
  5
10D06
  8
0
 10
3561.83718235164406
 20
154.1349215692175108
 30
0.0
 11
3561.9159225091439112
 21
154.2924018842174974
 31
0.0
  0
LINE
  5
10D07
  8
0
 10
3562.0340243777950491
 20
154.292385059319713
 30
0.0
 11
3563.2545135986929381
 21
154.292385059319713
 31
0.0
  0
LINE
  5
10D08
  8
0
 10
3552.516803647443794
 20
166.377704585867491
 30
0.0
 11
3552.1036631194438087
 21
166.377704585867491
 31
0.0
  0
LINE
  5
10D09
  8
0
 10
3552.5960344025438644
 20
166.377704585867491
 30
0.0
 11
3552.8320095761441735
 21
166.377704585867491
 31
0.0
  0
LINE
  5
10D0A
  8
0
 10
3556.5695883580438021
 20
159.489252277917501
 30
0.0
 11
3556.5695883580438021
 21
164.6073625141175114
 31
0.0
  0
LINE
  5
10D0B
  8
0
 10
3557.4160450509439215
 20
159.4105121204175077
 30
0.0
 11
3557.4160450509439215
 21
164.6861026716175047
 31
0.0
  0
LINE
  5
10D0C
  8
0
 10
3552.0642930407439053
 20
166.4170746646674957
 30
0.0
 11
3552.0642930407439053
 21
168.0784919874676007
 31
0.0
  0
LINE
  5
10D0D
  8
0
 10
3552.8320095761441735
 20
166.1632533620459071
 30
0.0
 11
3552.8320095761441735
 21
168.3323132900891892
 31
0.0
  0
LINE
  5
10D0E
  8
0
 10
3555.1154741430450485
 20
166.0765234835174908
 30
0.0
 11
3555.1154741430450485
 21
168.4190431686174918
 31
0.0
  0
LINE
  5
10D0F
  8
0
 10
3557.9278910130437907
 20
159.7549115530829056
 30
0.0
 11
3557.9278910130437907
 21
164.3417032389521921
 31
0.0
  0
LINE
  5
10D10
  8
0
 10
3558.6938752649439266
 20
160.0422855676497988
 30
0.0
 11
3558.6938752649439266
 21
164.0543292243852989
 31
0.0
  0
LINE
  5
10D11
  8
0
 10
3558.6938752649439266
 20
160.2768073960174888
 30
0.0
 11
3558.0528910130437907
 21
160.2768073960174888
 31
0.0
  0
ARC
  5
10D12
  8
0
 10
3558.0528910130437907
 20
160.1518073960174888
 30
0.0
 40
0.1250000000000071
 50
90.0
 51
179.9999999999967031
  0
LINE
  5
10D13
  8
0
 10
3556.6483285155450176
 20
159.4105121204175077
 30
0.0
 11
3557.4160450509439215
 21
159.4105121204175077
 31
0.0
  0
LINE
  5
10D14
  8
0
 10
3557.4160450509439215
 20
159.5128073960175072
 30
0.0
 11
3557.6778910130437907
 21
159.5128073960175072
 31
0.0
  0
ARC
  5
10D15
  8
0
 10
3557.6778910130437907
 20
159.7629361512119885
 30
0.0
 40
0.2501287551944671
 50
270.0
 51
358.1615288027114161
  0
ARC
  5
10D16
  8
0
 10
3552.8517344075148685
 20
166.1646815136969906
 30
0.0
 40
0.0197764655523633
 50
184.1412025912968886
 51
268.1626602079709869
  0
LINE
  5
10D17
  8
0
 10
3552.8511003318449184
 20
166.1449152156675098
 30
0.0
 11
3555.1154741430450485
 21
166.0765234835174908
 31
0.0
  0
ARC
  5
10D18
  8
0
 10
3552.1071542755271366
 20
166.4205658206417979
 30
0.0
 40
0.0430031814773336
 50
184.6566061985089959
 51
265.3433936559741824
  0
ARC
  5
10D19
  8
0
 10
3552.5168100712307933
 20
166.3894962816829093
 30
0.0
 40
0.0117916975651581
 50
269.9687868626577938
 51
343.6054314721221772
  0
ARC
  5
10D1A
  8
0
 10
3552.5564149855608775
 20
166.3776991664655043
 30
0.0
 40
0.0295329787782599
 50
16.6093889385969398
 51
163.3358673376644106
  0
ARC
  5
10D1B
  8
0
 10
3552.5960344027980682
 20
166.3895156098292887
 30
0.0
 40
0.0118110239616969
 50
196.601544039461686
 51
269.9999987672288171
  0
LINE
  5
10D1C
  8
0
 10
3555.1154741430450485
 20
166.3633776262599895
 30
0.0
 11
3561.3753166627438986
 21
166.3633776262599895
 31
0.0
  0
ARC
  5
10D1D
  8
0
 10
3556.6483285155450176
 20
159.489252277917501
 30
0.0
 40
0.0787401575000075
 50
180.0000000000081002
 51
270.0
  0
LINE
  5
10D1E
  8
0
 10
3552.5960344025438644
 20
166.377704585867491
 30
0.0
 11
3552.5960344025438644
 21
168.1178620662674916
 31
0.0
  0
LINE
  5
10D1F
  8
0
 10
3552.516803647443794
 20
166.377704585867491
 30
0.0
 11
3552.516803647443794
 21
168.1178620662674916
 31
0.0
  0
LINE
  5
10D20
  8
0
 10
3552.516803647443794
 20
168.1178620662674916
 30
0.0
 11
3552.1036631194438087
 21
168.1178620662674916
 31
0.0
  0
LINE
  5
10D21
  8
0
 10
3552.5960344025438644
 20
168.1178620662674916
 30
0.0
 11
3552.8320095761441735
 21
168.1178620662674916
 31
0.0
  0
ARC
  5
10D22
  8
0
 10
3552.8517344075148685
 20
168.3308851384381057
 30
0.0
 40
0.0197764655523633
 50
91.8373397920290557
 51
175.8587974087014061
  0
LINE
  5
10D23
  8
0
 10
3552.8511003318449184
 20
168.3506514364675013
 30
0.0
 11
3555.1154741430450485
 21
168.4190431686174918
 31
0.0
  0
ARC
  5
10D24
  8
0
 10
3552.1071542755271366
 20
168.0750008314932984
 30
0.0
 40
0.0430031814773336
 50
94.656606344025775
 51
175.3433938014908904
  0
ARC
  5
10D25
  8
0
 10
3552.5168100712307933
 20
168.1060703704521018
 30
0.0
 40
0.0117916975651581
 50
16.3945685278778299
 51
90.0312131373422204
  0
ARC
  5
10D26
  8
0
 10
3552.5564149855608775
 20
168.117867485669592
 30
0.0
 40
0.0295329787782599
 50
196.6641326623355042
 51
343.3906110614015006
  0
ARC
  5
10D27
  8
0
 10
3552.5960344027980682
 20
168.1060510423058076
 30
0.0
 40
0.0118110239616969
 50
90.0000012327711829
 51
163.3984559605382003
  0
LINE
  5
10D28
  8
0
 10
3555.1154741430450485
 20
168.1321890258751068
 30
0.0
 11
3561.3753166627438986
 21
168.1321890258751068
 31
0.0
  0
ARC
  5
10D29
  8
0
 10
3558.9407207622261922
 20
173.8196019506021059
 30
0.0
 40
13.7795275468898097
 50
268.9735524898107997
 51
276.4937601230147948
  0
ARC
  5
10D2A
  8
0
 10
3560.4946641294850451
 20
160.1675974287934139
 30
0.0
 40
0.0393686157808518
 50
276.4937601230147948
 51
0.0019004531823506
  0
LINE
  5
10D2B
  8
0
 10
3560.5340327452440761
 20
160.1675974287934139
 30
0.0
 11
3560.5340327452440761
 21
163.9290173632415986
 31
0.0
  0
LINE
  5
10D2C
  8
0
 10
3560.5576547925438717
 20
160.197913695217494
 30
0.0
 11
3560.5576547925438717
 21
163.8987010968324967
 31
0.0
  0
LINE
  5
10D2D
  8
0
 10
3560.5576547925438717
 20
160.197913695202601
 30
0.0
 11
3560.6933718632571981
 21
159.926479553862805
 31
0.0
  0
ARC
  5
10D2E
  8
0
 10
3560.7637992011441384
 20
159.9616932228175017
 30
0.0
 40
0.0787401575000016
 50
206.5650511843344077
 51
270.0
  0
LINE
  5
10D2F
  8
0
 10
3560.7637992011441384
 20
159.8829530653175084
 30
0.0
 11
3561.3214343201439078
 21
159.8829530653175084
 31
0.0
  0
LINE
  5
10D30
  8
0
 10
3561.3214343201439078
 20
159.5286223566174897
 30
0.0
 11
3561.3214343201439078
 21
164.5679924354174943
 31
0.0
  0
LINE
  5
10D31
  8
0
 10
3561.3214343201439078
 20
159.5286223566174897
 30
0.0
 11
3561.4631666035447779
 21
159.5286223566174897
 31
0.0
  0
LINE
  5
10D32
  8
0
 10
3561.4631666035447779
 20
159.5286223566174897
 30
0.0
 11
3561.4631666035447779
 21
164.5679924354174943
 31
0.0
  0
LINE
  5
10D33
  8
0
 10
3561.4631666035447779
 20
159.8829530653175084
 30
0.0
 11
3561.5628972189438173
 21
159.8829530653175084
 31
0.0
  0
LINE
  5
10D34
  8
0
 10
3561.5628972189438173
 20
159.5208063130214953
 30
0.0
 11
3561.5628972189438173
 21
164.5758084790136024
 31
0.0
  0
ARC
  5
10D35
  8
0
 10
3561.7322523495440691
 20
159.5208121330175004
 30
0.0
 40
0.1693551307
 50
180.0019690056508068
 51
270.0
  0
LINE
  5
10D36
  8
0
 10
3561.7322523495440691
 20
159.351457002317602
 30
0.0
 11
3561.7978122728450217
 21
159.351457002317602
 31
0.0
  0
LINE
  5
10D37
  8
0
 10
3558.6938752649439266
 20
163.8198073960174952
 30
0.0
 11
3558.0528910130437907
 21
163.8198073960174952
 31
0.0
  0
ARC
  5
10D38
  8
0
 10
3558.0528910130437907
 20
163.9448073960174952
 30
0.0
 40
0.1250000000000071
 50
180.0000000000032117
 51
270.0
  0
LINE
  5
10D39
  8
0
 10
3556.6483285155450176
 20
164.6861026716175047
 30
0.0
 11
3557.4160450509439215
 21
164.6861026716175047
 31
0.0
  0
LINE
  5
10D3A
  8
0
 10
3557.4160450509439215
 20
164.5838073960175052
 30
0.0
 11
3557.6778910130437907
 21
164.5838073960175052
 31
0.0
  0
ARC
  5
10D3B
  8
0
 10
3557.6778910130437907
 20
164.3336786408231092
 30
0.0
 40
0.2501287551944671
 50
1.838471197287
 51
90.0
  0
ARC
  5
10D3C
  8
0
 10
3556.6483285155450176
 20
164.6073625141175114
 30
0.0
 40
0.0787401575000075
 50
90.0
 51
179.9999999999901945
  0
ARC
  5
10D3D
  8
0
 10
3558.9407207622261922
 20
150.2770128414325086
 30
0.0
 40
13.7795275468902698
 50
83.5062398769852621
 51
91.0264475101891861
  0
ARC
  5
10D3E
  8
0
 10
3560.4946641294850451
 20
163.9290173632415986
 30
0.0
 40
0.0393686157808518
 50
359.998099546815979
 51
83.5062398769852621
  0
LINE
  5
10D3F
  8
0
 10
3560.5576547925438717
 20
163.8987010968324967
 30
0.0
 11
3560.6933718632571981
 21
164.1701352381722927
 31
0.0
  0
ARC
  5
10D40
  8
0
 10
3560.7637992011441384
 20
164.1349215692175108
 30
0.0
 40
0.0787401575000016
 50
90.0
 51
153.4349488156655923
  0
LINE
  5
10D41
  8
0
 10
3560.7637992011441384
 20
164.2136617267175041
 30
0.0
 11
3561.3214343201439078
 21
164.2136617267175041
 31
0.0
  0
LINE
  5
10D42
  8
0
 10
3561.3214343201439078
 20
164.5679924354174943
 30
0.0
 11
3561.4631666035447779
 21
164.5679924354174943
 31
0.0
  0
LINE
  5
10D43
  8
0
 10
3561.4631666035447779
 20
164.2136617267175041
 30
0.0
 11
3561.5628972189438173
 21
164.2136617267175041
 31
0.0
  0
ARC
  5
10D44
  8
0
 10
3561.7322523495440691
 20
164.575802659017512
 30
0.0
 40
0.1693551307
 50
90.0
 51
179.9980309943491079
  0
LINE
  5
10D45
  8
0
 10
3561.7322523495440691
 20
164.7451577897174957
 30
0.0
 11
3561.7978122728450217
 21
164.7451577897174957
 31
0.0
  0
ARC
  5
10D46
  8
0
 10
3568.2149837337728968
 20
151.8908270809467922
 30
0.0
 40
0.039370078870725
 50
0.0000001029176606
 51
90.0000000010682584
  0
LINE
  5
10D47
  8
0
 10
3568.2543538126437852
 20
151.8908270810175054
 30
0.0
 11
3568.25435381271609
 21
151.8514570023174883
 31
0.0
  0
LINE
  5
10D48
  8
0
 10
3568.6480546001439507
 20
151.8514570023174883
 30
0.0
 11
3568.6436654657441068
 21
151.8202267625175068
 31
0.0
  0
ARC
  5
10D49
  8
0
 10
3568.6046784862019194
 20
151.8257060381860981
 30
0.0
 40
0.0393701287224741
 50
278.530803304686799
 51
351.9999812344980796
  0
LINE
  5
10D4A
  8
0
 10
3568.6105186945442256
 20
151.7867714905175092
 30
0.0
 11
3568.2878837498569737
 21
151.7383760317779888
 31
0.0
  0
ARC
  5
10D4B
  8
0
 10
3568.2937239611142104
 20
151.6994414646790972
 30
0.0
 40
0.0393701483702684
 50
98.5308033046868559
 51
179.9995864904111045
  0
LINE
  5
10D4C
  8
0
 10
3568.2543538127438296
 20
151.6994417488174918
 30
0.0
 11
3568.2543520684748728
 21
151.4577562149237906
 31
0.0
  0
LINE
  5
10D4D
  8
0
 10
3568.5927235764438592
 20
151.4577562149175094
 30
0.0
 11
3568.5883344434569153
 21
151.4265259619581911
 31
0.0
  0
ARC
  5
10D4E
  8
0
 10
3568.5489248178819253
 20
151.4322107670797948
 30
0.0
 40
0.039817528768443
 50
280.5842854994190816
 51
351.7917517258098883
  0
LINE
  5
10D4F
  8
0
 10
3568.5562385714151787
 20
151.3930707031238114
 30
0.0
 11
3568.2866658949301382
 21
151.3527924394122977
 31
0.0
  0
ARC
  5
10D50
  8
0
 10
3568.2937674189452082
 20
151.3140221086239876
 30
0.0
 40
0.0394153547842964
 50
100.379749973708698
 51
179.9731047409181883
  0
LINE
  5
10D51
  8
0
 10
3568.2543520685039766
 20
151.3140406106174964
 30
0.0
 11
3568.2543503242341103
 21
151.0640554275300929
 31
0.0
  0
LINE
  5
10D52
  8
0
 10
3568.5381026709460457
 20
151.0640554275300929
 30
0.0
 11
3568.5337135365462018
 21
151.0328251877301966
 31
0.0
  0
ARC
  5
10D53
  8
0
 10
3568.4947265570040145
 20
151.0383044633987026
 30
0.0
 40
0.0393701287224741
 50
278.530803304686799
 51
351.9999812344980796
  0
LINE
  5
10D54
  8
0
 10
3568.5005667653458659
 20
150.9993699157301137
 30
0.0
 11
3568.2543538127438296
 21
150.9624379865175001
 31
0.0
  0
LINE
  5
10D55
  8
0
 10
3568.2543538127438296
 20
150.9624379865175001
 30
0.0
 11
3568.2543526450808713
 21
150.8972609974101999
 31
0.0
  0
LINE
  5
10D56
  8
0
 10
3568.2543526450808713
 20
150.8972609974101999
 30
0.0
 11
3568.2294874203062136
 21
150.7802793726444008
 31
0.0
  0
ARC
  5
10D57
  8
0
 10
3568.1908943157000067
 20
150.7884825944985039
 30
0.0
 40
0.03945529840135
 50
273.3519974393274197
 51
347.9999939847123755
  0
LINE
  5
10D58
  8
0
 10
3568.1756132221439657
 20
151.9301971598175101
 30
0.0
 11
3568.1756132221439657
 21
160.2766538527174873
 31
0.0
  0
ARC
  5
10D59
  8
0
 10
3564.5929356239148547
 20
151.8908270809467922
 30
0.0
 40
0.0393700788707179
 50
89.9999999989317558
 51
179.9999998970822901
  0
LINE
  5
10D5A
  8
0
 10
3564.5535655450439663
 20
151.8908270810175054
 30
0.0
 11
3564.5535655449739352
 21
151.8514570023174883
 31
0.0
  0
LINE
  5
10D5B
  8
0
 10
3564.1598647575438008
 20
151.8514570023174883
 30
0.0
 11
3564.1642538919440995
 21
151.8202267625175068
 31
0.0
  0
ARC
  5
10D5C
  8
0
 10
3564.2032408714849225
 20
151.8257060381860981
 30
0.0
 40
0.0393701287224741
 50
188.0000187655003003
 51
261.4691966953130873
  0
LINE
  5
10D5D
  8
0
 10
3564.1974006631439806
 20
151.7867714905175092
 30
0.0
 11
3564.5200356078307777
 21
151.7383760317779888
 31
0.0
  0
ARC
  5
10D5E
  8
0
 10
3564.5141953965749053
 20
151.6994414646790972
 30
0.0
 40
0.0393701483702684
 50
0.0004135095888608
 51
81.4691966953131441
  0
LINE
  5
10D5F
  8
0
 10
3564.5535655449439219
 20
151.6994417488174918
 30
0.0
 11
3564.5535672892137882
 21
151.4577562149237906
 31
0.0
  0
LINE
  5
10D60
  8
0
 10
3564.2151957812438923
 20
151.4577562149175094
 30
0.0
 11
3564.2195849142308361
 21
151.4265259619581911
 31
0.0
  0
ARC
  5
10D61
  8
0
 10
3564.2589945398071904
 20
151.4322107670797948
 30
0.0
 40
0.039817528768443
 50
188.2082482741901117
 51
259.4157145005809184
  0
LINE
  5
10D62
  8
0
 10
3564.2516807862730275
 20
151.3930707031238114
 30
0.0
 11
3564.5212534627580681
 21
151.3527924394122977
 31
0.0
  0
ARC
  5
10D63
  8
0
 10
3564.514151938742998
 20
151.3140221086239876
 30
0.0
 40
0.0394153547842964
 50
0.0268952590817517
 51
79.6202500262913162
  0
LINE
  5
10D64
  8
0
 10
3564.5535672891851391
 20
151.3140406106174964
 30
0.0
 11
3564.5535690334540959
 21
151.0640554275300929
 31
0.0
  0
LINE
  5
10D65
  8
0
 10
3564.26981668674307
 20
151.0640554275300929
 30
0.0
 11
3564.2742058211420044
 21
151.0328251877301966
 31
0.0
  0
ARC
  5
10D66
  8
0
 10
3564.3131928006841918
 20
151.0383044633987026
 30
0.0
 40
0.0393701287224741
 50
188.0000187655003003
 51
261.4691966953130873
  0
LINE
  5
10D67
  8
0
 10
3564.3073525923427951
 20
150.9993699157301137
 30
0.0
 11
3564.5535655449439219
 21
150.9624379865175001
 31
0.0
  0
LINE
  5
10D68
  8
0
 10
3564.5535655449439219
 20
150.9624379865175001
 30
0.0
 11
3564.5535667126068802
 21
150.8972609974101999
 31
0.0
  0
LINE
  5
10D69
  8
0
 10
3564.5535667126068802
 20
150.8972609974101999
 30
0.0
 11
3564.5784319373829021
 21
150.7802793726444008
 31
0.0
  0
ARC
  5
10D6A
  8
0
 10
3564.617025041989109
 20
150.7884825944985039
 30
0.0
 40
0.03945529840135
 50
192.000006015287596
 51
266.6480025606725235
  0
LINE
  5
10D6B
  8
0
 10
3564.6323061355437858
 20
151.9301971598175101
 30
0.0
 11
3564.6323061355437858
 21
159.3436777954507875
 31
0.0
  0
LINE
  5
10D6C
  8
0
 10
3568.1932012679758373
 20
150.749094797617488
 30
0.0
 11
3564.6147180897128237
 21
150.749094797617488
 31
0.0
  0
LINE
  5
10D6D
  8
0
 10
3568.2543526450808713
 20
150.8972609974101999
 30
0.0
 11
3564.5535667126068802
 21
150.8972609974101999
 31
0.0
  0
LINE
  5
10D6E
  8
0
 10
3568.2543538127438296
 20
150.9624379865175001
 30
0.0
 11
3564.5535655449439219
 21
150.9624379865175001
 31
0.0
  0
LINE
  5
10D6F
  8
0
 10
3568.5381026709460457
 20
151.0640554275300929
 30
0.0
 11
3564.26981668674307
 21
151.0640554275300929
 31
0.0
  0
LINE
  5
10D70
  8
0
 10
3568.5005667653458659
 20
150.9993699157301137
 30
0.0
 11
3564.3073525923427951
 21
150.9993699157301137
 31
0.0
  0
LINE
  5
10D71
  8
0
 10
3568.2543520685039766
 20
151.3140406106165869
 30
0.0
 11
3564.5535672891851391
 21
151.3140406106165869
 31
0.0
  0
LINE
  5
10D72
  8
0
 10
3568.2866658949301382
 20
151.3527924394122977
 30
0.0
 11
3564.5212534627580681
 21
151.3527924394122977
 31
0.0
  0
LINE
  5
10D73
  8
0
 10
3568.5562385714151787
 20
151.3930707031238114
 30
0.0
 11
3564.2516807862730275
 21
151.3930707031238114
 31
0.0
  0
LINE
  5
10D74
  8
0
 10
3568.5927235764438592
 20
151.4577562149175094
 30
0.0
 11
3564.2151957812438923
 21
151.4577562149175094
 31
0.0
  0
LINE
  5
10D75
  8
0
 10
3568.2878837498569737
 20
151.7383760317779888
 30
0.0
 11
3564.5200356078307777
 21
151.7383760317779888
 31
0.0
  0
LINE
  5
10D76
  8
0
 10
3568.6105186945442256
 20
151.7867714905175092
 30
0.0
 11
3564.1974006631439806
 21
151.7867714905175092
 31
0.0
  0
LINE
  5
10D77
  8
0
 10
3568.6480546001439507
 20
151.8514570023174883
 30
0.0
 11
3564.1598647575438008
 21
151.8514570023174883
 31
0.0
  0
LINE
  5
10D78
  8
0
 10
3568.2149837337728968
 20
151.9301971598175101
 30
0.0
 11
3564.5929356239148547
 21
151.9301971598175101
 31
0.0
  0
ARC
  5
10D79
  8
0
 10
3561.7485625465437806
 20
168.2219831852173968
 30
0.0
 40
0.196850393700115
 50
75.5113265926500645
 51
90.0
  0
LINE
  5
10D7A
  8
0
 10
3561.7485625465437806
 20
168.4188335789175142
 30
0.0
 11
3561.657212272344168
 21
168.4188335789175142
 31
0.0
  0
ARC
  5
10D7B
  8
0
 10
3561.657212272344168
 20
168.2219831852175105
 30
0.0
 40
0.1968503936999935
 50
90.0
 51
165.4594744836041968
  0
LINE
  5
10D7C
  8
0
 10
3561.4666669370071759
 20
168.2714053733606931
 30
0.0
 11
3561.3753166627438986
 21
168.2714053733174921
 31
0.0
  0
LINE
  5
10D7D
  8
0
 10
3561.3753166627438986
 20
168.2714053733174921
 30
0.0
 11
3561.3753166627438986
 21
166.2241612788176042
 31
0.0
  0
LINE
  5
10D7E
  8
0
 10
3561.4666669370071759
 20
168.2714053733606931
 30
0.0
 11
3561.4666669370071759
 21
166.2241612787744032
 31
0.0
  0
LINE
  5
10D7F
  8
0
 10
3561.657212272344168
 20
168.4188335789175142
 30
0.0
 11
3561.657212272344168
 21
166.0767330732174969
 31
0.0
  0
ARC
  5
10D80
  8
0
 10
3561.7485625465437806
 20
166.2735834669175858
 30
0.0
 40
0.196850393700115
 50
270.0
 51
284.4886734073498928
  0
LINE
  5
10D81
  8
0
 10
3561.7485625465437806
 20
166.0767330732174969
 30
0.0
 11
3561.657212272344168
 21
166.0767330732174969
 31
0.0
  0
ARC
  5
10D82
  8
0
 10
3561.657212272344168
 20
166.2735834669175006
 30
0.0
 40
0.1968503936999935
 50
194.5405255163958032
 51
270.0
  0
LINE
  5
10D83
  8
0
 10
3561.4666669370071759
 20
166.2241612787744032
 30
0.0
 11
3561.3753166627438986
 21
166.2241612788176042
 31
0.0
  0
LINE
  5
10D84
  8
0
 10
3564.1618336945439296
 20
164.4518507031176
 30
0.0
 11
3564.1618336945439296
 21
159.6447640889174977
 31
0.0
  0
LINE
  5
10D85
  8
0
 10
3564.201203773243833
 20
164.4912207818175034
 30
0.0
 11
3564.201203773243833
 21
159.605394010217509
 31
0.0
  0
LINE
  5
10D86
  8
0
 10
3564.2208888126438069
 20
164.4912207818175034
 30
0.0
 11
3564.2208888126438069
 21
159.605394010217509
 31
0.0
  0
LINE
  5
10D87
  8
0
 10
3564.1618336945439296
 20
164.4518507031176
 30
0.0
 11
3564.201203773243833
 21
164.4912207818175034
 31
0.0
  0
LINE
  5
10D88
  8
0
 10
3564.201203773243833
 20
164.4912207818175034
 30
0.0
 11
3564.2208888126438069
 21
164.4912207818175034
 31
0.0
  0
LINE
  5
10D89
  8
0
 10
3564.1618336945439296
 20
159.6447640889174977
 30
0.0
 11
3564.201203773243833
 21
159.605394010217509
 31
0.0
  0
LINE
  5
10D8A
  8
0
 10
3564.201203773243833
 20
159.605394010217509
 30
0.0
 11
3564.2208888126438069
 21
159.605394010217509
 31
0.0
  0
LINE
  5
10D8B
  8
0
 10
3563.3726154224441416
 20
164.440039679517497
 30
0.0
 11
3563.4531722772439934
 21
164.440039679517497
 31
0.0
  0
LINE
  5
10D8C
  8
0
 10
3563.5122273953447802
 20
164.440039679517497
 30
0.0
 11
3563.8075029858441667
 21
164.440039679517497
 31
0.0
  0
LINE
  5
10D8D
  8
0
 10
3563.866558103944044
 20
164.440039679517497
 30
0.0
 11
3564.1618336945439296
 21
164.440039679517497
 31
0.0
  0
LINE
  5
10D8E
  8
0
 10
3564.2208888126438069
 20
164.440039679517497
 30
0.0
 11
3564.8277503812910254
 21
164.440039679517497
 31
0.0
  0
LINE
  5
10D8F
  8
0
 10
3563.8075029858441667
 20
164.4518507031176
 30
0.0
 11
3563.8075029858441667
 21
159.6447640889174977
 31
0.0
  0
LINE
  5
10D90
  8
0
 10
3563.8468730645440701
 20
164.4912207818175034
 30
0.0
 11
3563.8468730645440701
 21
159.605394010217509
 31
0.0
  0
LINE
  5
10D91
  8
0
 10
3563.866558103944044
 20
164.4912207818175034
 30
0.0
 11
3563.866558103944044
 21
159.605394010217509
 31
0.0
  0
LINE
  5
10D92
  8
0
 10
3563.8075029858441667
 20
164.4518507031176
 30
0.0
 11
3563.8468730645440701
 21
164.4912207818175034
 31
0.0
  0
LINE
  5
10D93
  8
0
 10
3563.8468730645440701
 20
164.4912207818175034
 30
0.0
 11
3563.866558103944044
 21
164.4912207818175034
 31
0.0
  0
LINE
  5
10D94
  8
0
 10
3563.8075029858441667
 20
159.6447640889174977
 30
0.0
 11
3563.8468730645440701
 21
159.605394010217509
 31
0.0
  0
LINE
  5
10D95
  8
0
 10
3563.8468730645440701
 20
159.605394010217509
 30
0.0
 11
3563.866558103944044
 21
159.605394010217509
 31
0.0
  0
LINE
  5
10D96
  8
0
 10
3563.4531722772439934
 20
164.4518507031176
 30
0.0
 11
3563.4531722772439934
 21
159.6447640889174977
 31
0.0
  0
LINE
  5
10D97
  8
0
 10
3563.4925423559438968
 20
164.4912207818175034
 30
0.0
 11
3563.4925423559438968
 21
159.605394010217509
 31
0.0
  0
LINE
  5
10D98
  8
0
 10
3563.5122273953447802
 20
164.4912207818175034
 30
0.0
 11
3563.5122273953447802
 21
159.605394010217509
 31
0.0
  0
LINE
  5
10D99
  8
0
 10
3563.4531722772439934
 20
164.4518507031176
 30
0.0
 11
3563.4925423559438968
 21
164.4912207818175034
 31
0.0
  0
LINE
  5
10D9A
  8
0
 10
3563.4925423559438968
 20
164.4912207818175034
 30
0.0
 11
3563.5122273953447802
 21
164.4912207818175034
 31
0.0
  0
LINE
  5
10D9B
  8
0
 10
3563.4531722772439934
 20
159.6447640889174977
 30
0.0
 11
3563.4925423559438968
 21
159.605394010217509
 31
0.0
  0
LINE
  5
10D9C
  8
0
 10
3563.4925423559438968
 20
159.605394010217509
 30
0.0
 11
3563.5122273953447802
 21
159.605394010217509
 31
0.0
  0
LINE
  5
10D9D
  8
0
 10
3563.3726154224441416
 20
159.6565751125176007
 30
0.0
 11
3563.4531722772439934
 21
159.6565751125176007
 31
0.0
  0
LINE
  5
10D9E
  8
0
 10
3563.5122273953447802
 20
159.6565751125176007
 30
0.0
 11
3563.8075029858441667
 21
159.6565751125176007
 31
0.0
  0
LINE
  5
10D9F
  8
0
 10
3563.866558103944044
 20
159.6565751125176007
 30
0.0
 11
3564.1618336945439296
 21
159.6565751125176007
 31
0.0
  0
LINE
  5
10DA0
  8
0
 10
3564.2208888126438069
 20
159.6565751125176007
 30
0.0
 11
3564.3173455058440595
 21
159.6565751125176007
 31
0.0
  0
ARC
  5
10DA1
  8
0
 10
3564.6323061353878074
 20
160.2766538525283124
 30
0.0
 40
3.5433070867559522
 50
0.0000000030598463
 51
71.4702045261103933
  0
ARC
  5
10DA2
  8
0
 10
3565.8584521992647751
 20
163.934894873570812
 30
0.0
 40
0.3149517871400977
 50
224.9988488681705974
 51
251.4702045261103933
  0
ARC
  5
10DA3
  8
0
 10
-12168.2641841752501932
 20
-15569.5555244108199986
 30
0.0
 40
22250.6476321144182293
 50
44.9988488681706187
 51
45.0012894463676503
  0
ARC
  5
10DA4
  8
0
 10
3564.8263422331178845
 20
164.2431670050862067
 30
0.0
 40
0.1968777103153758
 50
45.0012894463664921
 51
89.5901941615038311
  0
ARC
  5
10DA5
  8
0
 10
3564.3173389863441116
 20
159.3416011173611082
 30
0.0
 40
0.3149739952238537
 50
0.3777637321702762
 51
89.9988141522299685
  0
ARC
  5
10DA6
  8
0
 10
3563.4204458437670837
 20
161.3259725324147951
 30
0.0
 40
2.0863206629382911
 50
302.4316779935837189
 51
317.0460512918975837
  0
ARC
  5
10DA7
  8
0
 10
3563.6176086044788462
 20
161.0607990564263901
 30
0.0
 40
1.7623375399464991
 50
318.9883898269982865
 51
337.2607806967786814
  0
ARC
  5
10DA8
  8
0
 10
3551.1004066722971402
 20
164.0098431650754947
 30
0.0
 40
14.6010523858738708
 50
345.6035673211154062
 51
358.6440362088815164
  0
LINE
  5
10DA9
  8
0
 10
3564.8277503812910254
 20
164.440039679517497
 30
0.0
 11
3564.8277503812910254
 21
159.7857686993887114
 31
0.0
  0
LINE
  5
10DAA
  8
0
 10
3565.2230098970758263
 20
177.8752051291019995
 30
0.0
 11
3563.3726154224441416
 21
177.8750789730175086
 31
0.0
  0
LINE
  5
10DAB
  8
0
 10
3565.197418572044171
 20
177.8750789730175086
 30
0.0
 11
3565.197418572044171
 21
177.5266538527174873
 31
0.0
  0
ARC
  5
10DAC
  8
0
 10
3565.2190721153438062
 20
177.5266538527174873
 30
0.0
 40
0.0216535432999994
 50
180.0
 51
270.0000002645895734
  0
LINE
  5
10DAD
  8
0
 10
3565.2844752396149488
 20
177.5050003094175111
 30
0.0
 11
3563.3726154224441416
 21
177.5050003094175111
 31
0.0
  0
LINE
  5
10DAE
  8
0
 10
3561.7978122728450217
 20
177.5050003094175111
 30
0.0
 11
3561.7757162352731939
 21
177.5050003094175111
 31
0.0
  0
LINE
  5
10DAF
  8
0
 10
3565.279479026205081
 20
177.1585436165175054
 30
0.0
 11
3563.3726154224441416
 21
177.1585436165175054
 31
0.0
  0
LINE
  5
10DB0
  8
0
 10
3561.7978122728450217
 20
177.1585436165175054
 30
0.0
 11
3561.7807124486830617
 21
177.1585436165175054
 31
0.0
  0
ARC
  5
10DB1
  8
0
 10
3565.2747528316999706
 20
177.3748228599436061
 30
0.0
 40
0.1305400075348521
 50
0.112445150266066
 51
85.7287483075210446
  0
LINE
  5
10DB2
  8
0
 10
3565.4052925878440874
 20
177.3750790495174954
 30
0.0
 11
3565.4054625713501991
 21
177.2884650431172133
 31
0.0
  0
ARC
  5
10DB3
  8
0
 10
3565.275742140454895
 20
177.2882104615023025
 30
0.0
 40
0.1297206807082687
 50
271.6507576502565939
 51
0.112445150266066
  0
ARC
  5
10DB4
  8
0
 10
3565.2326601686099821
 20
177.1152365300040969
 30
0.0
 40
0.043307086513428
 50
89.9999999542993407
 51
177.0000000758668932
  0
LINE
  5
10DB5
  8
0
 10
3565.189412432950121
 20
177.1175030477315886
 30
0.0
 11
3565.1849390729012157
 21
177.0321462510216008
 31
0.0
  0
ARC
  5
10DB6
  8
0
 10
3564.9687003951739825
 20
177.0434788396291879
 30
0.0
 40
0.2165354319958337
 50
300.2440059893688158
 51
357.0000000758669216
  0
ARC
  5
10DB7
  8
0
 10
3565.1541114846240816
 20
176.7254727508706083
 30
0.0
 40
0.1515748022798597
 50
120.2440059893687021
 51
180.0000002090611986
  0
LINE
  5
10DB8
  8
0
 10
3565.0025366823451805
 20
176.7254727503176071
 30
0.0
 11
3565.0025366836080138
 21
176.3790160574174877
 31
0.0
  0
LINE
  5
10DB9
  8
0
 10
3565.0025366836080138
 20
176.3790160574174877
 30
0.0
 11
3563.3726154224441416
 21
176.3790160574174877
 31
0.0
  0
LINE
  5
10DBA
  8
0
 10
3564.8686784144160811
 20
176.3002751003174922
 30
0.0
 11
3563.3726154224441416
 21
176.3002751003174922
 31
0.0
  0
ARC
  5
10DBB
  8
0
 10
3564.8568673908739584
 20
176.2215349430881872
 30
0.0
 40
0.0787401573292832
 50
90.0028875848276186
 51
180.0000001242208896
  0
LINE
  5
10DBC
  8
0
 10
3564.7781272335441827
 20
176.2215349429174864
 30
0.0
 11
3564.7781272342472221
 21
175.8973896253174871
 31
0.0
  0
LINE
  5
10DBD
  8
0
 10
3564.8293437883039587
 20
175.8973896253174871
 30
0.0
 11
3563.3726154224441416
 21
175.8973896253174871
 31
0.0
  0
LINE
  5
10DBE
  8
0
 10
3564.8310968586802119
 20
175.7399093103175005
 30
0.0
 11
3563.3726154224441416
 21
175.7399093103175005
 31
0.0
  0
LINE
  5
10DBF
  8
0
 10
3564.8293083358439617
 20
175.7005392316175119
 30
0.0
 11
3563.3726154224441416
 21
175.7005392316175119
 31
0.0
  0
LINE
  5
10DC0
  8
0
 10
3564.7899382571440583
 20
175.7399093103175005
 30
0.0
 11
3564.8293083358439617
 21
175.7005392316175119
 31
0.0
  0
LINE
  5
10DC1
  8
0
 10
3564.8293083358439617
 20
175.7005392316175119
 30
0.0
 11
3564.8293083358439617
 21
175.4052636410175978
 31
0.0
  0
LINE
  5
10DC2
  8
0
 10
3564.8293083358439617
 20
175.4052636410175978
 30
0.0
 11
3564.7899382571440583
 21
175.3658935623174955
 31
0.0
  0
LINE
  5
10DC3
  8
0
 10
3564.7899382571440583
 20
175.3658935623174955
 30
0.0
 11
3564.7899382571440583
 21
175.3462085229174932
 31
0.0
  0
LINE
  5
10DC4
  8
0
 10
3564.7899382571440583
 20
175.3462085229174932
 30
0.0
 11
3564.8293083358439617
 21
175.3068384442175045
 31
0.0
  0
LINE
  5
10DC5
  8
0
 10
3564.8293083358439617
 20
175.3068384442175045
 30
0.0
 11
3564.8293083358439617
 21
175.0115628536175052
 31
0.0
  0
LINE
  5
10DC6
  8
0
 10
3564.8293083358439617
 20
175.4052636410175978
 30
0.0
 11
3563.3726154224441416
 21
175.4052636410175978
 31
0.0
  0
LINE
  5
10DC7
  8
0
 10
3564.7899382571440583
 20
175.3658935623174955
 30
0.0
 11
3563.3726154224441416
 21
175.3658935623174955
 31
0.0
  0
LINE
  5
10DC8
  8
0
 10
3564.7899382571440583
 20
175.3462085229174932
 30
0.0
 11
3563.3726154224441416
 21
175.3462085229174932
 31
0.0
  0
LINE
  5
10DC9
  8
0
 10
3564.8293083358439617
 20
175.3068384442175045
 30
0.0
 11
3563.3726154224441416
 21
175.3068384442175045
 31
0.0
  0
ARC
  5
10DCA
  8
0
 10
3564.8293260620739602
 20
175.8580372728474117
 30
0.0
 40
0.0393523564625588
 50
359.9741910266359923
 51
89.9741911730478563
  0
LINE
  5
10DCB
  8
0
 10
3564.8686784145438651
 20
175.8580195465175109
 30
0.0
 11
3564.8686784145438651
 21
175.7792793890176029
 31
0.0
  0
ARC
  5
10DCC
  8
0
 10
3564.8292657775491534
 20
175.7792793890176029
 30
0.0
 40
0.0394126369957038
 50
272.6628768675449237
 51
359.9999999999984084
  0
ARC
  5
10DCD
  8
0
 10
3564.8686784144160811
 20
176.4183853367900099
 30
0.0
 40
0.1181102364724769
 50
270.0000001106038781
 51
340.5291907074786764
  0
LINE
  5
10DCE
  8
0
 10
3565.0777657419439493
 20
176.8564164344174969
 30
0.0
 11
3563.3726154224441416
 21
176.8564164344174969
 31
0.0
  0
LINE
  5
10DCF
  8
0
 10
3564.8293083358439617
 20
175.0115628536175052
 30
0.0
 11
3564.7899382571440583
 21
174.9721927749176018
 31
0.0
  0
LINE
  5
10DD0
  8
0
 10
3564.7899382571440583
 20
174.9721927749176018
 30
0.0
 11
3564.7899382571440583
 21
174.9525077355174858
 31
0.0
  0
LINE
  5
10DD1
  8
0
 10
3564.7899382571440583
 20
174.9525077355174858
 30
0.0
 11
3564.8293083358439617
 21
174.9131376568174971
 31
0.0
  0
LINE
  5
10DD2
  8
0
 10
3564.8293083358439617
 20
174.9131376568174971
 30
0.0
 11
3564.8293083358439617
 21
174.6178620662174978
 31
0.0
  0
LINE
  5
10DD3
  8
0
 10
3564.8293083358439617
 20
175.0115628536175052
 30
0.0
 11
3563.3726154224441416
 21
175.0115628536175052
 31
0.0
  0
LINE
  5
10DD4
  8
0
 10
3564.7899382571440583
 20
174.9721927749176018
 30
0.0
 11
3563.3726154224441416
 21
174.9721927749176018
 31
0.0
  0
LINE
  5
10DD5
  8
0
 10
3564.7899382571440583
 20
174.9525077355174858
 30
0.0
 11
3563.3726154224441416
 21
174.9525077355174858
 31
0.0
  0
LINE
  5
10DD6
  8
0
 10
3564.8293083358439617
 20
174.9131376568174971
 30
0.0
 11
3563.3726154224441416
 21
174.9131376568174971
 31
0.0
  0
LINE
  5
10DD7
  8
0
 10
3564.8293083358439617
 20
174.6178620662174978
 30
0.0
 11
3564.7899382571440583
 21
174.5784919875175092
 31
0.0
  0
LINE
  5
10DD8
  8
0
 10
3564.7899382571440583
 20
174.5784919875175092
 30
0.0
 11
3564.7899382571440583
 21
174.5588069481175069
 31
0.0
  0
LINE
  5
10DD9
  8
0
 10
3564.7899382571440583
 20
174.5588069481175069
 30
0.0
 11
3564.8293083358439617
 21
174.5194368694176035
 31
0.0
  0
LINE
  5
10DDA
  8
0
 10
3564.8293083358439617
 20
174.5194368694176035
 30
0.0
 11
3564.8293083358439617
 21
174.2241612788174905
 31
0.0
  0
LINE
  5
10DDB
  8
0
 10
3564.8293083358439617
 20
174.6178620662174978
 30
0.0
 11
3563.3726154224441416
 21
174.6178620662174978
 31
0.0
  0
LINE
  5
10DDC
  8
0
 10
3564.7899382571440583
 20
174.5784919875175092
 30
0.0
 11
3563.3726154224441416
 21
174.5784919875175092
 31
0.0
  0
LINE
  5
10DDD
  8
0
 10
3564.7899382571440583
 20
174.5588069481175069
 30
0.0
 11
3563.3726154224441416
 21
174.5588069481175069
 31
0.0
  0
LINE
  5
10DDE
  8
0
 10
3564.8293083358439617
 20
174.5194368694176035
 30
0.0
 11
3563.3726154224441416
 21
174.5194368694176035
 31
0.0
  0
LINE
  5
10DDF
  8
0
 10
3564.8293083358439617
 20
174.2241612788174905
 30
0.0
 11
3564.7899382571440583
 21
174.1847912001175018
 31
0.0
  0
LINE
  5
10DE0
  8
0
 10
3564.7899382571440583
 20
174.1847912001175018
 30
0.0
 11
3564.7899382571440583
 21
174.1651061607174995
 31
0.0
  0
LINE
  5
10DE1
  8
0
 10
3564.7899382571440583
 20
174.1651061607174995
 30
0.0
 11
3564.8293083358439617
 21
174.1257360820175961
 31
0.0
  0
LINE
  5
10DE2
  8
0
 10
3564.8293083358439617
 20
174.1257360820175961
 30
0.0
 11
3564.8293083358439617
 21
173.8304604914175115
 31
0.0
  0
LINE
  5
10DE3
  8
0
 10
3564.8293083358439617
 20
174.2241612788174905
 30
0.0
 11
3563.3726154224441416
 21
174.2241612788174905
 31
0.0
  0
LINE
  5
10DE4
  8
0
 10
3564.7899382571440583
 20
174.1847912001175018
 30
0.0
 11
3563.3726154224441416
 21
174.1847912001175018
 31
0.0
  0
LINE
  5
10DE5
  8
0
 10
3564.7899382571440583
 20
174.1651061607174995
 30
0.0
 11
3563.3726154224441416
 21
174.1651061607174995
 31
0.0
  0
LINE
  5
10DE6
  8
0
 10
3564.8293083358439617
 20
174.1257360820175961
 30
0.0
 11
3563.3726154224441416
 21
174.1257360820175961
 31
0.0
  0
LINE
  5
10DE7
  8
0
 10
3564.8293083358439617
 20
173.8304604914175115
 30
0.0
 11
3564.7899382571440583
 21
173.7910904127174945
 31
0.0
  0
LINE
  5
10DE8
  8
0
 10
3564.7899382571440583
 20
173.7910904127174945
 30
0.0
 11
3564.7899382571440583
 21
173.7714053733174921
 31
0.0
  0
LINE
  5
10DE9
  8
0
 10
3564.7899382571440583
 20
173.7714053733174921
 30
0.0
 11
3564.8293083358439617
 21
173.7320352946175035
 31
0.0
  0
LINE
  5
10DEA
  8
0
 10
3564.8293083358439617
 20
173.7320352946175035
 30
0.0
 11
3564.8293083358439617
 21
173.4367597040175895
 31
0.0
  0
LINE
  5
10DEB
  8
0
 10
3564.8293083358439617
 20
173.8304604914175115
 30
0.0
 11
3563.3726154224441416
 21
173.8304604914175115
 31
0.0
  0
LINE
  5
10DEC
  8
0
 10
3564.7899382571440583
 20
173.7910904127174945
 30
0.0
 11
3563.3726154224441416
 21
173.7910904127174945
 31
0.0
  0
LINE
  5
10DED
  8
0
 10
3564.7899382571440583
 20
173.7714053733174921
 30
0.0
 11
3563.3726154224441416
 21
173.7714053733174921
 31
0.0
  0
LINE
  5
10DEE
  8
0
 10
3564.8293083358439617
 20
173.7320352946175035
 30
0.0
 11
3563.3726154224441416
 21
173.7320352946175035
 31
0.0
  0
LINE
  5
10DEF
  8
0
 10
3564.8293083358439617
 20
173.4367597040175895
 30
0.0
 11
3564.7899382571440583
 21
173.3973896253174871
 31
0.0
  0
LINE
  5
10DF0
  8
0
 10
3564.7899382571440583
 20
173.3973896253174871
 30
0.0
 11
3564.7899382571440583
 21
173.3777045859175132
 31
0.0
  0
LINE
  5
10DF1
  8
0
 10
3564.7899382571440583
 20
173.3777045859175132
 30
0.0
 11
3564.8293083358439617
 21
173.3383345072174961
 31
0.0
  0
LINE
  5
10DF2
  8
0
 10
3564.8293083358439617
 20
173.3383345072174961
 30
0.0
 11
3564.8293083358439617
 21
173.0430589166174968
 31
0.0
  0
LINE
  5
10DF3
  8
0
 10
3564.8293083358439617
 20
173.4367597040175895
 30
0.0
 11
3563.3726154224441416
 21
173.4367597040175895
 31
0.0
  0
LINE
  5
10DF4
  8
0
 10
3564.7899382571440583
 20
173.3973896253174871
 30
0.0
 11
3563.3726154224441416
 21
173.3973896253174871
 31
0.0
  0
LINE
  5
10DF5
  8
0
 10
3564.7899382571440583
 20
173.3777045859175132
 30
0.0
 11
3563.3726154224441416
 21
173.3777045859175132
 31
0.0
  0
LINE
  5
10DF6
  8
0
 10
3564.8293083358439617
 20
173.3383345072174961
 30
0.0
 11
3563.3726154224441416
 21
173.3383345072174961
 31
0.0
  0
LINE
  5
10DF7
  8
0
 10
3564.8293083358439617
 20
173.0430589166174968
 30
0.0
 11
3564.7899382571440583
 21
173.0036888379175082
 31
0.0
  0
LINE
  5
10DF8
  8
0
 10
3564.7899382571440583
 20
173.0036888379175082
 30
0.0
 11
3564.7899382571440583
 21
172.9840037985175059
 31
0.0
  0
LINE
  5
10DF9
  8
0
 10
3564.7899382571440583
 20
172.9840037985175059
 30
0.0
 11
3564.8293083358439617
 21
172.9446337198174888
 31
0.0
  0
LINE
  5
10DFA
  8
0
 10
3564.8293083358439617
 20
172.9446337198174888
 30
0.0
 11
3564.8293083358439617
 21
172.6493581292174895
 31
0.0
  0
LINE
  5
10DFB
  8
0
 10
3564.8293083358439617
 20
173.0430589166174968
 30
0.0
 11
3563.3726154224441416
 21
173.0430589166174968
 31
0.0
  0
LINE
  5
10DFC
  8
0
 10
3564.7899382571440583
 20
173.0036888379175082
 30
0.0
 11
3563.3726154224441416
 21
173.0036888379175082
 31
0.0
  0
LINE
  5
10DFD
  8
0
 10
3564.7899382571440583
 20
172.9840037985175059
 30
0.0
 11
3563.3726154224441416
 21
172.9840037985175059
 31
0.0
  0
LINE
  5
10DFE
  8
0
 10
3564.8293083358439617
 20
172.9446337198174888
 30
0.0
 11
3563.3726154224441416
 21
172.9446337198174888
 31
0.0
  0
LINE
  5
10DFF
  8
0
 10
3564.8293083358439617
 20
172.6493581292174895
 30
0.0
 11
3564.7899382571440583
 21
172.6099880505175008
 31
0.0
  0
LINE
  5
10E00
  8
0
 10
3564.7899382571440583
 20
172.6099880505175008
 30
0.0
 11
3564.7899382571440583
 21
172.5903030111174985
 31
0.0
  0
LINE
  5
10E01
  8
0
 10
3564.7899382571440583
 20
172.5903030111174985
 30
0.0
 11
3564.8293083358439617
 21
172.5509329324175098
 31
0.0
  0
LINE
  5
10E02
  8
0
 10
3564.8293083358439617
 20
172.5509329324175098
 30
0.0
 11
3564.8293083358439617
 21
172.2556573418175958
 31
0.0
  0
LINE
  5
10E03
  8
0
 10
3564.8293083358439617
 20
172.6493581292174895
 30
0.0
 11
3563.3726154224441416
 21
172.6493581292174895
 31
0.0
  0
LINE
  5
10E04
  8
0
 10
3564.7899382571440583
 20
172.6099880505175008
 30
0.0
 11
3563.3726154224441416
 21
172.6099880505175008
 31
0.0
  0
LINE
  5
10E05
  8
0
 10
3564.7899382571440583
 20
172.5903030111174985
 30
0.0
 11
3563.3726154224441416
 21
172.5903030111174985
 31
0.0
  0
LINE
  5
10E06
  8
0
 10
3564.8293083358439617
 20
172.5509329324175098
 30
0.0
 11
3563.3726154224441416
 21
172.5509329324175098
 31
0.0
  0
LINE
  5
10E07
  8
0
 10
3564.8293083358439617
 20
172.2556573418175958
 30
0.0
 11
3564.7899382571440583
 21
172.2162872631174935
 31
0.0
  0
LINE
  5
10E08
  8
0
 10
3564.7899382571440583
 20
172.2162872631174935
 30
0.0
 11
3564.7899382571440583
 21
172.1966022237174911
 31
0.0
  0
LINE
  5
10E09
  8
0
 10
3564.7899382571440583
 20
172.1966022237174911
 30
0.0
 11
3564.8293083358439617
 21
172.1572321450175025
 31
0.0
  0
LINE
  5
10E0A
  8
0
 10
3564.8293083358439617
 20
172.1572321450175025
 30
0.0
 11
3564.8293083358439617
 21
171.8619565544175032
 31
0.0
  0
LINE
  5
10E0B
  8
0
 10
3564.8293083358439617
 20
172.2556573418175958
 30
0.0
 11
3563.3726154224441416
 21
172.2556573418175958
 31
0.0
  0
LINE
  5
10E0C
  8
0
 10
3564.7899382571440583
 20
172.2162872631174935
 30
0.0
 11
3563.3726154224441416
 21
172.2162872631174935
 31
0.0
  0
LINE
  5
10E0D
  8
0
 10
3564.7899382571440583
 20
172.1966022237174911
 30
0.0
 11
3563.3726154224441416
 21
172.1966022237174911
 31
0.0
  0
LINE
  5
10E0E
  8
0
 10
3564.8293083358439617
 20
172.1572321450175025
 30
0.0
 11
3563.3726154224441416
 21
172.1572321450175025
 31
0.0
  0
LINE
  5
10E0F
  8
0
 10
3564.8293083358439617
 20
171.8619565544175032
 30
0.0
 11
3564.7899382571440583
 21
171.8225864757174861
 31
0.0
  0
LINE
  5
10E10
  8
0
 10
3564.7899382571440583
 20
171.8225864757174861
 30
0.0
 11
3564.7899382571440583
 21
171.8029014363175975
 31
0.0
  0
LINE
  5
10E11
  8
0
 10
3564.7899382571440583
 20
171.8029014363175975
 30
0.0
 11
3564.8293083358439617
 21
171.7635313576174951
 31
0.0
  0
LINE
  5
10E12
  8
0
 10
3564.8293083358439617
 20
171.7635313576174951
 30
0.0
 11
3564.8293083358439617
 21
170.277471507817495
 31
0.0
  0
LINE
  5
10E13
  8
0
 10
3564.8293083358439617
 20
171.8619565544175032
 30
0.0
 11
3563.3726154224441416
 21
171.8619565544175032
 31
0.0
  0
LINE
  5
10E14
  8
0
 10
3564.7899382571440583
 20
171.8225864757174861
 30
0.0
 11
3563.3726154224441416
 21
171.8225864757174861
 31
0.0
  0
LINE
  5
10E15
  8
0
 10
3564.7899382571440583
 20
171.8029014363175975
 30
0.0
 11
3563.3726154224441416
 21
171.8029014363175975
 31
0.0
  0
LINE
  5
10E16
  8
0
 10
3564.8293083358439617
 20
171.7635313576174951
 30
0.0
 11
3563.3726154224441416
 21
171.7635313576174951
 31
0.0
  0
ARC
  5
10E17
  8
0
 10
3564.0419067610441743
 20
170.277471507817495
 30
0.0
 40
0.7874015747998984
 50
349.9755132039992986
 51
0.0
  0
LINE
  5
10E18
  8
0
 10
3564.8172874304509605
 20
170.1404092682751923
 30
0.0
 11
3564.5573240563521722
 21
168.6697593229175141
 31
0.0
  0
LINE
  5
10E19
  8
0
 10
3564.8293083358439617
 20
170.277471507817495
 30
0.0
 11
3563.3726154224441416
 21
170.277471507817495
 31
0.0
  0
ARC
  5
10E1A
  8
0
 10
3561.7854386431881721
 20
177.3748228599436061
 30
0.0
 40
0.1305400075348521
 50
94.2712516924789696
 51
179.8875548497339025
  0
LINE
  5
10E1B
  8
0
 10
3561.6548988870440553
 20
177.3750790495174954
 30
0.0
 11
3561.6547289035379436
 21
177.2884650431172133
 31
0.0
  0
ARC
  5
10E1C
  8
0
 10
3561.7844493344341572
 20
177.2882104615023025
 30
0.0
 40
0.1297206807082687
 50
179.8875548497339025
 51
268.3492423497434061
  0
ARC
  5
10E1D
  8
0
 10
3562.154381293536062
 20
168.630940703733387
 30
0.0
 40
2.403256292317776
 50
300.458210363938008
 51
0.9255108490577381
  0
LINE
  5
10E1E
  8
0
 10
3564.5573240563521722
 20
168.6697593229175141
 30
0.0
 11
3563.3726154224441416
 21
168.6697593229175141
 31
0.0
  0
LINE
  5
10E1F
  8
0
 10
3562.9789146350831288
 20
199.1349215692175108
 30
0.0
 11
3562.3883634539079139
 21
199.1349215692175108
 31
0.0
  0
LINE
  5
10E20
  8
0
 10
3563.3726154224441416
 20
198.7412207818312879
 30
0.0
 11
3563.3726154224441416
 21
198.2735062091174996
 31
0.0
  0
ARC
  5
10E21
  8
0
 10
3562.9789146350440205
 20
198.7412207818175034
 30
0.0
 40
0.3937007874000002
 50
0.0000000019997292
 51
89.9999999947108194
  0
LINE
  5
10E22
  8
0
 10
3561.9946626665441727
 20
198.7412207818175034
 30
0.0
 11
3561.9946626665441727
 21
197.3632680259175061
 31
0.0
  0
ARC
  5
10E23
  8
0
 10
3562.3899172476440071
 20
198.7396669881183868
 30
0.0
 40
0.395257635163216
 50
90.2252355034346465
 51
179.7747645015060982
  0
ARC
  5
10E24
  8
0
 10
3563.2544380526560417
 20
197.2451108777808884
 30
0.0
 40
0.1181879645487975
 50
0.7684484995936975
 51
88.6915670349586378
  0
LINE
  5
10E25
  8
0
 10
3561.7978122728450217
 20
198.0719294433027073
 30
0.0
 11
3561.8962374697439373
 21
198.0719294433027073
 31
0.0
  0
LINE
  5
10E26
  8
0
 10
3561.8962374697439373
 20
198.0719294433027073
 30
0.0
 11
3561.8962374697439373
 21
197.5207483409174927
 31
0.0
  0
ARC
  5
10E27
  8
0
 10
3561.9552925878438145
 20
197.5207483409174927
 30
0.0
 40
0.0590551180999981
 50
180.0000000000032117
 51
270.0
  0
LINE
  5
10E28
  8
0
 10
3561.9552925878438145
 20
197.4616932228175017
 30
0.0
 11
3561.9946626665441727
 21
197.4616932228175017
 31
0.0
  0
ARC
  5
10E29
  8
0
 10
3561.9159225090438667
 20
197.2451577897174957
 30
0.0
 40
0.1181102361999926
 50
90.0
 51
180.0
  0
ARC
  5
10E2A
  8
0
 10
3561.9552925878438145
 20
197.5207483409174927
 30
0.0
 40
0.1574803150000363
 50
180.0000000000113971
 51
270.0
  0
LINE
  5
10E2B
  8
0
 10
3561.9159225090438667
 20
197.5601184196175097
 30
0.0
 11
3561.9159225090438667
 21
197.9931892858174933
 31
0.0
  0
ARC
  5
10E2C
  8
0
 10
3562.0734028240440239
 20
197.9931892858174933
 30
0.0
 40
0.1574803150000008
 50
120.0001451475062026
 51
180.0000000000015916
  0
CIRCLE
  5
10E2D
  8
0
 10
3562.6836390445441793
 20
198.7412207818175034
 30
0.0
 40
0.1574803150000008
  0
LINE
  5
10E2E
  8
0
 10
3565.0261587295440222
 20
197.3632680259175061
 30
0.0
 11
3565.0261587295440222
 21
197.9538192070174887
 31
0.0
  0
ARC
  5
10E2F
  8
0
 10
3564.9080484933438129
 20
197.9538192070176024
 30
0.0
 40
0.1181102362000033
 50
359.9999999999984084
 51
89.9999999957009038
  0
LINE
  5
10E30
  8
0
 10
3564.9080484933529078
 20
198.0719294432174991
 30
0.0
 11
3563.5694658161442021
 21
198.0719294433179982
 31
0.0
  0
ARC
  5
10E31
  8
0
 10
3563.5695054774569144
 20
198.2688739780348044
 30
0.0
 40
0.1969445387103407
 50
178.6522511883860886
 51
269.9884615949483191
  0
LINE
  5
10E32
  8
0
 10
3566.0300957375120561
 20
199.3908270810175054
 30
0.0
 11
3566.0300957373437996
 21
197.697913695217494
 31
0.0
  0
ARC
  5
10E33
  8
0
 10
3565.7938752649210983
 20
197.6979136952409135
 30
0.0
 40
0.2362204724233621
 50
270.0000000056538738
 51
359.999999994334587
  0
LINE
  5
10E34
  8
0
 10
3565.7938752649438356
 20
197.4616932228175017
 30
0.0
 11
3565.0261587295440222
 21
197.4616932227415873
 31
0.0
  0
LINE
  5
10E35
  8
0
 10
3565.0261587295440222
 20
197.6585436165175054
 30
0.0
 11
3565.7938752649438356
 21
197.6585436165175054
 31
0.0
  0
ARC
  5
10E36
  8
0
 10
3565.7938752649438356
 20
197.6979136952178067
 30
0.0
 40
0.0393700787002764
 50
270.0
 51
359.9999999995961275
  0
LINE
  5
10E37
  8
0
 10
3565.8332453436441938
 20
197.697913695217494
 30
0.0
 11
3565.8332453436560172
 21
199.3908270810175054
 31
0.0
  0
LINE
  5
10E38
  8
0
 10
3565.1434100220430992
 20
190.7687798369175027
 30
0.0
 11
3565.1415203459469012
 21
190.9853152700175087
 31
0.0
  0
LINE
  5
10E39
  8
0
 10
3565.1406614022657777
 20
191.0837404669175044
 30
0.0
 11
3565.0862690610438221
 21
197.3164854268175077
 31
0.0
  0
ARC
  5
10E3A
  8
0
 10
3564.6532168971211831
 20
197.3127062378376024
 30
0.0
 40
0.4330686538509234
 50
0.4999999998514206
 51
20.1223657739070205
  0
LINE
  5
10E3B
  8
0
 10
3565.2623792019439861
 20
190.2643912149989092
 30
0.0
 11
3565.2623792019439861
 21
191.0837404669175044
 31
0.0
  0
LINE
  5
10E3C
  8
0
 10
3563.3830640217438486
 20
190.9853152700175087
 30
0.0
 11
3563.3830640217438486
 21
190.7687798369175027
 31
0.0
  0
LINE
  5
10E3D
  8
0
 10
3563.4618041601438563
 20
190.7687798369175027
 30
0.0
 11
3563.4618041601438563
 21
190.9853152700175087
 31
0.0
  0
ARC
  5
10E3E
  8
0
 10
7948.9493160855363385
 20
150.9857100812131137
 30
0.0
 40
4383.8087746288229027
 50
179.4866261548924911
 51
179.648555783402287
  0
LINE
  5
10E3F
  8
0
 10
3561.7977910279441858
 20
190.2633769634174996
 30
0.0
 11
3561.7303150760440076
 21
190.2643912270175122
 31
0.0
  0
LINE
  5
10E40
  8
0
 10
3561.7303150760440076
 20
190.2643912270175122
 30
0.0
 11
3561.7170795861438819
 21
177.9023466337442017
 31
0.0
  0
LINE
  5
10E41
  8
0
 10
3561.7170795861438819
 20
177.9023466337442017
 30
0.0
 11
3561.7978122728450217
 21
177.9023466337442017
 31
0.0
  0
LINE
  5
10E42
  8
0
 10
3563.3726154224441416
 20
178.8845678744175132
 30
0.0
 11
3563.4907256586438962
 21
178.8845678744175132
 31
0.0
  0
LINE
  5
10E43
  8
0
 10
3563.4907256586438962
 20
178.8845678744175132
 30
0.0
 11
3563.4907256586438962
 21
179.7134493058175053
 31
0.0
  0
LINE
  5
10E44
  8
0
 10
3563.4907256586438962
 20
179.7134493058175053
 30
0.0
 11
3564.3568673909439894
 21
180.7098313908174987
 31
0.0
  0
LINE
  5
10E45
  8
0
 10
3564.3568673909439894
 20
180.7098313908174987
 30
0.0
 11
3564.3568673909439894
 21
180.8073358541174969
 31
0.0
  0
LINE
  5
10E46
  8
0
 10
3564.3568673909439894
 20
180.8073358541174969
 30
0.0
 11
3563.3726154224441416
 21
180.8107614788046078
 31
0.0
  0
LINE
  5
10E47
  8
0
 10
3563.3726154224441416
 20
180.9455264060264881
 30
0.0
 11
3564.2795205368438474
 21
180.9447356424174984
 31
0.0
  0
ARC
  5
10E48
  8
0
 10
3564.2793494458851455
 20
180.7485161098178992
 30
0.0
 40
0.1962196071898283
 50
4.6067369427772791
 51
89.9500417351412267
  0
LINE
  5
10E49
  8
0
 10
3564.4749351541800024
 20
180.7642757086817085
 30
0.0
 11
3564.4754929876439746
 21
180.3689893212174979
 31
0.0
  0
ARC
  5
10E4A
  8
0
 10
3564.5100144059429113
 20
181.1116224992053958
 30
0.0
 40
0.7434351117412596
 50
267.3385127541623092
 51
350.4811969606391244
  0
LINE
  5
10E4B
  8
0
 10
3560.5576547925438717
 20
163.8198073960174952
 30
0.0
 11
3560.5340327452440761
 21
163.8198073960174952
 31
0.0
  0
LINE
  5
10E4C
  8
0
 10
3560.5340327452440761
 20
160.2768073960174888
 30
0.0
 11
3560.5576547925438717
 21
160.2768073960174888
 31
0.0
  0
ENDSEC
  0
EOF
