  0
SECTION
  2
HEADER
  9
$ACADVER
  1
AC1009
  9
$INSBASE
 10
3328.6084921632232181
 20
354.7794688067831999
 30
0.0
  9
$EXTMIN
 10
3327.4884921632228725
 20
353.6594688067831953
 30
0.0
  9
$EXTMAX
 10
3329.7284921632231089
 20
355.8994688067832044
 30
0.0
  9
$LIMMIN
 10
0.0
 20
0.0
  9
$LIMMAX
 10
11.6929133858000007
 20
8.2677165353999982
  9
$ORTHOMODE
 70
     0
  9
$REGENMODE
 70
     1
  9
$FILLMODE
 70
     1
  9
$QTEXTMODE
 70
     0
  9
$MIRRTEXT
 70
     0
  9
$DRAGMODE
 70
     2
  9
$LTSCALE
 40
0.6431102362
  9
$OSMODE
 70
  4095
  9
$ATTMODE
 70
     1
  9
$TEXTSIZE
 40
0.2
  9
$TRACEWID
 40
0.05
  9
$TEXTSTYLE
  7
STANDARD
  9
$CLAYER
  8
0
  9
$CELTYPE
  6
BYLAYER
  9
$CECOLOR
 62
   256
  9
$DIMSCALE
 40
1.0
  9
$DIMASZ
 40
0.1875
  9
$DIMEXO
 40
0.0625
  9
$DIMDLI
 40
0.4443307087
  9
$DIMRND
 40
0.0
  9
$DIMDLE
 40
0.0
  9
$DIMEXE
 40
0.125
  9
$DIMTP
 40
0.01
  9
$DIMTM
 40
0.01
  9
$DIMTXT
 40
2.0
  9
$DIMCEN
 40
0.1052362205
  9
$DIMTSZ
 40
0.0
  9
$DIMTOL
 70
     1
  9
$DIMLIM
 70
     0
  9
$DIMTIH
 70
     1
  9
$DIMTOH
 70
     1
  9
$DIMSE1
 70
     0
  9
$DIMSE2
 70
     0
  9
$DIMTAD
 70
     0
  9
$DIMZIN
 70
     0
  9
$DIMBLK
  1

  9
$DIMASO
 70
     1
  9
$DIMSHO
 70
     1
  9
$DIMPOST
  1
\X
  9
$DIMAPOST
  1

  9
$DIMALT
 70
     1
  9
$DIMALTD
 70
     2
  9
$DIMALTF
 40
25.3999999999999986
  9
$DIMLFAC
 40
1.0
  9
$DIMTOFL
 70
     0
  9
$DIMTVP
 40
0.0
  9
$DIMTIX
 70
     0
  9
$DIMSOXD
 70
     0
  9
$DIMSAH
 70
     0
  9
$DIMBLK1
  1

  9
$DIMBLK2
  1

  9
$DIMSTYLE
  2
STANDARD
  9
$DIMCLRD
 70
     0
  9
$DIMCLRE
 70
     0
  9
$DIMCLRT
 70
     0
  9
$DIMTFAC
 40
1.0
  9
$DIMGAP
 40
0.09
  9
$LUNITS
 70
     2
  9
$LUPREC
 70
     4
  9
$SKETCHINC
 40
0.1
  9
$FILLETRAD
 40
0.0
  9
$AUNITS
 70
     0
  9
$AUPREC
 70
     0
  9
$MENU
  1
.
  9
$ELEVATION
 40
0.0
  9
$PELEVATION
 40
0.0
  9
$THICKNESS
 40
0.0
  9
$LIMCHECK
 70
     0
  9
$BLIPMODE
 70
     0
  9
$CHAMFERA
 40
0.0
  9
$CHAMFERB
 40
0.0
  9
$SKPOLY
 70
     0
  9
$TDCREATE
 40
2458060.468368056230247
  9
$TDUPDATE
 40
2459038.5765509260818362
  9
$TDINDWG
 40
2.8163496528
  9
$TDUSRTIMER
 40
2.8163496528
  9
$USRTIMER
 70
     1
  9
$ANGBASE
 50
0.0
  9
$ANGDIR
 70
     0
  9
$PDMODE
 70
     0
  9
$PDSIZE
 40
0.3125
  9
$PLINEWID
 40
0.0
  9
$COORDS
 70
     1
  9
$SPLFRAME
 70
     0
  9
$SPLINETYPE
 70
     6
  9
$SPLINESEGS
 70
     8
  9
$ATTDIA
 70
     1
  9
$ATTREQ
 70
     1
  9
$HANDLING
 70
     1
  9
$HANDSEED
  5
824A
  9
$SURFTAB1
 70
     6
  9
$SURFTAB2
 70
     6
  9
$SURFTYPE
 70
     6
  9
$SURFU
 70
     6
  9
$SURFV
 70
     6
  9
$UCSNAME
  2

  9
$UCSORG
 10
0.0
 20
0.0
 30
0.0
  9
$UCSXDIR
 10
1.0
 20
0.0
 30
0.0
  9
$UCSYDIR
 10
0.0
 20
1.0
 30
0.0
  9
$PUCSNAME
  2

  9
$PUCSORG
 10
0.0
 20
0.0
 30
0.0
  9
$PUCSXDIR
 10
1.0
 20
0.0
 30
0.0
  9
$PUCSYDIR
 10
0.0
 20
1.0
 30
0.0
  9
$USERI1
 70
     0
  9
$USERI2
 70
     0
  9
$USERI3
 70
     0
  9
$USERI4
 70
     0
  9
$USERI5
 70
     0
  9
$USERR1
 40
0.0
  9
$USERR2
 40
0.0
  9
$USERR3
 40
0.0
  9
$USERR4
 40
0.0
  9
$USERR5
 40
0.0
  9
$WORLDVIEW
 70
     1
  9
$SHADEDGE
 70
     3
  9
$SHADEDIF
 70
    70
  9
$TILEMODE
 70
     1
  9
$MAXACTVP
 70
    64
  9
$PLIMCHECK
 70
     0
  9
$PEXTMIN
 10
1.0000000000000000E+20
 20
1.0000000000000000E+20
 30
1.0000000000000000E+20
  9
$PEXTMAX
 10
-1.0000000000000000E+20
 20
-1.0000000000000000E+20
 30
-1.0000000000000000E+20
  9
$PLIMMIN
 10
0.0
 20
0.0
  9
$PLIMMAX
 10
12.0
 20
9.0
  9
$UNITMODE
 70
     0
  9
$VISRETAIN
 70
     1
  9
$PLINEGEN
 70
     0
  9
$PSLTSCALE
 70
     1
  0
ENDSEC
  0
SECTION
  2
TABLES
  0
TABLE
  2
VPORT
 70
     1
  0
VPORT
  2
*ACTIVE
 70
     0
 10
0.0
 20
0.0
 11
1.0
 21
1.0
 12
-0.0000283445895095
 22
0.0000040851035408
 13
0.0
 23
0.0
 14
1.0
 24
1.0
 15
0.0
 25
0.0
 16
0.0
 26
0.0
 36
9.0786470449054288
 17
3328.6085205078120453
 27
354.7794647216796875
 37
0.0
 40
2.2540292275573628
 41
2.005224660397074
 42
50.0
 43
0.0
 44
0.0
 50
0.0
 51
0.0
 71
     0
 72
   100
 73
     1
 74
     1
 75
     0
 76
     0
 77
     0
 78
     0
  0
ENDTAB
  0
TABLE
  2
LTYPE
 70
     2
  0
LTYPE
  2
CONTINUOUS
 70
     0
  3
Solid line
 72
    65
 73
     0
 40
0.0
  0
LTYPE
  2
PHANTOM2
 70
     0
  3
___ _ _ ___ _ _ ___ _ _ ___ _ _
 72
    65
 73
     6
 40
1.25
 49
0.625
 49
-0.125
 49
0.125
 49
-0.125
 49
0.125
 49
-0.125
  0
ENDTAB
  0
TABLE
  2
LAYER
 70
     2
  0
LAYER
  2
0
 70
     0
 62
   255
  6
CONTINUOUS
  0
LAYER
  2
DEFPOINTS
 70
     0
 62
     7
  6
CONTINUOUS
  0
ENDTAB
  0
TABLE
  2
STYLE
 70
     1
  0
STYLE
  2
STANDARD
 70
     0
 40
0.0
 41
0.8
 50
0.0
 71
     0
 42
0.2
  3
txt
  4

  0
ENDTAB
  0
TABLE
  2
VIEW
 70
     0
  0
ENDTAB
  0
TABLE
  2
UCS
 70
     0
  0
ENDTAB
  0
TABLE
  2
APPID
 70
     9
  0
APPID
  2
ACAD
 70
     0
  0
APPID
  2
ACAD_MLEADERVER
 70
     0
  0
APPID
  2
ACAD_EXEMPT_FROM_CAD_STANDARDS
 70
     0
  0
APPID
  2
ACAD_NAV_VCDISPLAY
 70
     0
  0
APPID
  2
ACAECLAYERSTANDARD
 70
     0
  0
APPID
  2
ACCMTRANSPARENCY
 70
     0
  0
APPID
  2
ACAD_DSTYLE_DIMJAG
 70
     0
  0
APPID
  2
ACAD_DSTYLE_DIMTALN
 70
     0
  0
APPID
  2
ACDBATTR
 70
     0
  0
ENDTAB
  0
TABLE
  2
DIMSTYLE
 70
     1
  0
DIMSTYLE
  2
STANDARD
 70
     0
  3

  4

  5

  6

  7

 40
1.0
 41
0.1875
 42
0.0625
 43
0.38
 44
0.125
 45
0.0
 46
0.0
 47
0.01
 48
0.01
140
0.15625
141
0.09
142
0.0
143
25.3999999999999986
144
1.0
145
0.0
146
1.0
147
0.09
 71
     1
 72
     0
 73
     1
 74
     1
 75
     0
 76
     0
 77
     0
 78
     4
170
     0
171
     2
172
     0
173
     0
174
     0
175
     0
176
     0
177
     0
178
     0
  0
ENDTAB
  0
ENDSEC
  0
SECTION
  2
BLOCKS
  0
BLOCK
  8
0
  2
$MODEL_SPACE
 70
     0
 10
0.0
 20
0.0
 30
0.0
  3
$MODEL_SPACE
  1

  0
ENDBLK
  5
21
  8
0
  0
BLOCK
 67
     1
  8
0
  2
$PAPER_SPACE
 70
     0
 10
0.0
 20
0.0
 30
0.0
  3
$PAPER_SPACE
  1

  0
ENDBLK
  5
1D
 67
     1
  8
0
  0
BLOCK
  8
0
  2
_CLOSED
 70
     0
 10
0.0
 20
0.0
 30
0.0
  3
_CLOSED
  1

  0
LINE
  5
57DF
  8
0
  6
BYBLOCK
 62
     0
 10
0.0
 20
0.0
 30
0.0
 11
-1.0
 21
0.1666666667
 31
0.0
  0
LINE
  5
57E0
  8
0
  6
BYBLOCK
 62
     0
 10
-1.0
 20
0.1666666667
 30
0.0
 11
-1.0
 21
-0.1666666667
 31
0.0
  0
LINE
  5
57E1
  8
0
  6
BYBLOCK
 62
     0
 10
-1.0
 20
-0.1666666667
 30
0.0
 11
0.0
 21
0.0
 31
0.0
  0
LINE
  5
57E2
  8
0
  6
BYBLOCK
 62
     0
 10
-1.0
 20
0.0
 30
0.0
 11
0.0
 21
0.0
 31
0.0
  0
ENDBLK
  5
57E3
  8
0
  6
BYBLOCK
 62
     0
  0
BLOCK
  8
0
  2
_FILLED
 70
     0
 10
0.0
 20
0.0
 30
0.0
  3
_FILLED
  1

  0
SOLID
  5
5925
  8
0
  6
BYBLOCK
 62
     0
 10
0.0
 20
0.0
 30
0.0
 11
-1.0
 21
0.1666666667
 31
0.0
 12
-1.0
 22
-0.1666666667
 32
0.0
 13
-1.0
 23
-0.1666666667
 33
0.0
  0
ENDBLK
  5
5926
  8
0
  6
BYBLOCK
 62
     0
  0
ENDSEC
  0
SECTION
  2
ENTITIES
  0
ATTDEF
  5
3930
  8
DEFPOINTS
 10
3328.6052131300348265
 20
354.7752162083363032
 30
0.0
 40
0.001
  1
K-421T
  3

  2
MODELNUMBER
 70
     0
1001
ACDBATTR
1070
     0
1070
     1
  0
ATTDEF
  5
3931
  8
DEFPOINTS
 10
3328.6052131300348265
 20
354.7735495416695812
 30
0.0
 40
0.001
  1
MEMOIRS
  3

  2
TRADENAME
 70
     0
1001
ACDBATTR
1070
     0
1070
     1
  0
ATTDEF
  5
3932
  8
DEFPOINTS
 10
3328.6052131300348265
 20
354.7718828750029729
 30
0.0
 40
0.001
  1
SLIDEBAR KIT
  3

  2
PRODUCT
 70
     0
1001
ACDBATTR
1070
     0
1070
     1
  0
LINE
  5
8113
  8
0
 10
3327.5184921632230726
 20
355.8994688067832044
 30
0.0
 11
3329.6984921632229089
 21
355.8994688067832044
 31
0.0
  0
LINE
  5
8114
  8
0
 10
3329.7284921632231089
 20
355.8694688067831748
 30
0.0
 11
3329.7284921632231089
 21
353.6894688067832249
 31
0.0
  0
LINE
  5
8115
  8
0
 10
3329.6984921632229089
 20
353.6594688067831953
 30
0.0
 11
3327.5184921632230726
 21
353.6594688067831953
 31
0.0
  0
LINE
  5
8116
  8
0
 10
3327.4884921632228725
 20
353.6894688067832249
 30
0.0
 11
3327.4884921632228725
 21
355.8694688067831748
 31
0.0
  0
LINE
  5
8117
  8
0
 10
3327.5684592727720883
 20
355.8494662984832075
 30
0.0
 11
3329.6484921632231817
 21
355.8494662984832075
 31
0.0
  0
LINE
  5
8118
  8
0
 10
3329.6784896549229416
 20
355.8194688067832203
 30
0.0
 11
3329.6784896611229669
 21
353.7393845080208052
 31
0.0
  0
LINE
  5
8119
  8
0
 10
3329.6484921632231817
 20
353.7094713149832046
 30
0.0
 11
3327.5684921611978098
 21
353.7094700932788101
 31
0.0
  0
LINE
  5
811A
  8
0
 10
3327.5384946470280738
 20
353.739468745804686
 30
0.0
 11
3327.5384946653230145
 21
355.8195532641523755
 31
0.0
  0
LINE
  5
811B
  8
0
 10
3327.8111524319738237
 20
355.5981132432862069
 30
0.0
 11
3329.4058320561171058
 21
355.5981132432862069
 31
0.0
  0
LINE
  5
811C
  8
0
 10
3329.4271366020229834
 20
355.5768085403291821
 30
0.0
 11
3329.4271366020229834
 21
353.9821289113913281
 31
0.0
  0
LINE
  5
811D
  8
0
 10
3329.4058318944398707
 20
353.9608243702143113
 30
0.0
 11
3327.8111524378227841
 21
353.9608243758831918
 31
0.0
  0
LINE
  5
811E
  8
0
 10
3327.7898477243229536
 20
353.9821290730329224
 30
0.0
 11
3327.7898477243229536
 21
355.5768085320833052
 31
0.0
  0
LINE
  5
811F
  8
0
 10
3327.8784920780590255
 20
355.5388627177488274
 30
0.0
 11
3329.3384921632227815
 21
355.5388626836831918
 31
0.0
  0
LINE
  5
8120
  8
0
 10
3329.3678860401228121
 20
355.5094697455892856
 30
0.0
 11
3329.3678860401228121
 21
354.0494688067831817
 31
0.0
  0
LINE
  5
8121
  8
0
 10
3329.3384931020291333
 20
354.0200749297832203
 30
0.0
 11
3327.8784921632231999
 21
354.0200749297832203
 31
0.0
  0
LINE
  5
8122
  8
0
 10
3327.8490982862231249
 20
354.0494678678771834
 30
0.0
 11
3327.8490982862231249
 21
355.509468806783218
 31
0.0
  0
CIRCLE
  5
8123
  8
0
 10
3328.6084921632232181
 20
354.7794688067831999
 30
0.0
 40
0.1200000000000001
  0
CIRCLE
  5
8124
  8
0
 10
3328.6084921632232181
 20
354.7794688067831999
 30
0.0
 40
0.3774999992999999
  0
CIRCLE
  5
8125
  8
0
 10
3328.6084921632232181
 20
354.7794688067831999
 30
0.0
 40
0.4274999976000001
  0
LINE
  5
8126
  8
0
 10
3327.7988343915249061
 20
355.5891265762206217
 30
0.0
 11
3327.5472830413900738
 21
355.8406779225484797
 31
0.0
  0
LINE
  5
8127
  8
0
 10
3329.4181499348528632
 20
355.5891265762555804
 30
0.0
 11
3329.6696957034810112
 21
355.8406723409776191
 31
0.0
  0
LINE
  5
8128
  8
0
 10
3329.4181499743199311
 20
353.9698110767440085
 30
0.0
 11
3329.6697002196001449
 21
353.7182586249771248
 31
0.0
  0
LINE
  5
8129
  8
0
 10
3327.7988327009638851
 20
353.9698127278870174
 30
0.0
 11
3327.5473343184871737
 21
353.7182197069939207
 31
0.0
  0
ARC
  5
812A
  8
0
 10
3327.5210459630147852
 20
355.8669150069919169
 30
0.0
 40
0.0326538171463825
 50
94.4855866366902006
 51
175.5144133633237971
  0
ARC
  5
812B
  8
0
 10
3327.5685002035611433
 20
355.8194606452178732
 30
0.0
 40
0.0300056811822369
 50
90.0781572726871786
 51
179.8231440758343069
  0
ARC
  5
812C
  8
0
 10
3329.648465187065085
 20
355.8194418306243278
 30
0.0
 40
0.0300244799775858
 50
0.0514786688264779
 51
89.9485213311637466
  0
ARC
  5
812D
  8
0
 10
3329.6920545326238425
 20
355.8630311761839948
 30
0.0
 40
0.0370019460490621
 50
10.0193562423207094
 51
79.980643757677214
  0
ARC
  5
812E
  8
0
 10
3329.3832546245880621
 20
355.5542314322844959
 30
0.0
 40
0.0493493034525254
 50
27.2256454613266996
 51
62.7739321709916567
  0
ARC
  5
812F
  8
0
 10
3329.3370270515370066
 20
355.5080036482870014
 30
0.0
 40
0.0308937957822693
 50
2.7200525916560441
 51
87.2817773978429869
  0
ARC
  5
8130
  8
0
 10
3327.8337290450881483
 20
355.5542319262847855
 30
0.0
 40
0.0493484897586042
 50
117.2254852915632028
 51
152.7745242594741057
  0
ARC
  5
8131
  8
0
 10
3327.8799538374350959
 20
355.5080071724610775
 30
0.0
 40
0.0308901507841681
 50
92.7123186569159543
 51
177.2879135560310999
  0
ARC
  5
8132
  8
0
 10
3327.52368604773892
 20
353.6946626912998113
 30
0.0
 40
0.0355750747537796
 50
188.3950668812537117
 51
261.6049331187339249
  0
ARC
  5
8133
  8
0
 10
3327.5685213053848202
 20
353.7394967505503018
 30
0.0
 40
0.0300266714153494
 50
180.0534376234816989
 51
269.944388137322278
  0
ARC
  5
8134
  8
0
 10
3327.833729002608834
 20
354.0047056714955147
 30
0.0
 40
0.049348448629501
 50
207.2254907305668894
 51
242.7745532412660054
  0
ARC
  5
8135
  8
0
 10
3327.8799538027569724
 20
354.0509304930207009
 30
0.0
 40
0.0308901630430892
 50
182.7139252273553893
 51
267.2879049569961012
  0
ARC
  5
8136
  8
0
 10
3329.3370304769568975
 20
354.0509304462448199
 30
0.0
 40
0.0308901629684074
 50
272.7139251013447847
 51
357.2879050829802168
  0
ARC
  5
8137
  8
0
 10
3329.3832547952911227
 20
354.0047063532928746
 30
0.0
 40
0.0493493044016356
 50
297.2256332802325005
 51
332.7739191947371182
  0
ARC
  5
8138
  8
0
 10
3329.6484841670098831
 20
353.7394769504309124
 30
0.0
 40
0.0300056365131185
 50
270.0152687730890761
 51
359.8234808876022726
  0
ARC
  5
8139
  8
0
 10
3329.695790119477806
 20
353.6921708505277024
 30
0.0
 40
0.0328134835923514
 50
274.7233997652032258
 51
355.2766002348072902
  0
ENDSEC
  0
EOF
