  0
SECTION
  2
HEADER
  9
$ACADVER
  1
AC1009
  9
$INSBASE
 10
480.6830167245408916
 20
91.2916005063977138
 30
0.0
  9
$EXTMIN
 10
479.461297626557382
 20
87.7947376139336484
 30
-0.0000000349181948
  9
$EXTMAX
 10
481.9318727076632172
 20
91.2974171497776297
 30
0.0000000814935746
  9
$LIMMIN
 10
0.0
 20
0.0
  9
$LIMMAX
 10
11.6929133858000007
 20
8.2677165353999982
  9
$ORTHOMODE
 70
     0
  9
$REGENMODE
 70
     1
  9
$FILLMODE
 70
     1
  9
$QTEXTMODE
 70
     0
  9
$MIRRTEXT
 70
     0
  9
$DRAGMODE
 70
     2
  9
$LTSCALE
 40
0.6431102362
  9
$OSMODE
 70
  4095
  9
$ATTMODE
 70
     1
  9
$TEXTSIZE
 40
0.2
  9
$TRACEWID
 40
0.05
  9
$TEXTSTYLE
  7
STANDARD
  9
$CLAYER
  8
0
  9
$CELTYPE
  6
BYLAYER
  9
$CECOLOR
 62
   256
  9
$DIMSCALE
 40
1.0
  9
$DIMASZ
 40
0.1875
  9
$DIMEXO
 40
0.0625
  9
$DIMDLI
 40
0.4443307087
  9
$DIMRND
 40
0.0
  9
$DIMDLE
 40
0.0
  9
$DIMEXE
 40
0.125
  9
$DIMTP
 40
0.01
  9
$DIMTM
 40
0.01
  9
$DIMTXT
 40
1.0
  9
$DIMCEN
 40
0.1052362205
  9
$DIMTSZ
 40
0.0
  9
$DIMTOL
 70
     1
  9
$DIMLIM
 70
     0
  9
$DIMTIH
 70
     0
  9
$DIMTOH
 70
     1
  9
$DIMSE1
 70
     0
  9
$DIMSE2
 70
     0
  9
$DIMTAD
 70
     0
  9
$DIMZIN
 70
     0
  9
$DIMBLK
  1

  9
$DIMASO
 70
     1
  9
$DIMSHO
 70
     1
  9
$DIMPOST
  1
\X
  9
$DIMAPOST
  1

  9
$DIMALT
 70
     1
  9
$DIMALTD
 70
     2
  9
$DIMALTF
 40
25.3999999999999986
  9
$DIMLFAC
 40
1.0
  9
$DIMTOFL
 70
     0
  9
$DIMTVP
 40
0.0
  9
$DIMTIX
 70
     0
  9
$DIMSOXD
 70
     0
  9
$DIMSAH
 70
     0
  9
$DIMBLK1
  1

  9
$DIMBLK2
  1

  9
$DIMSTYLE
  2
STANDARD
  9
$DIMCLRD
 70
     0
  9
$DIMCLRE
 70
     0
  9
$DIMCLRT
 70
     0
  9
$DIMTFAC
 40
1.0
  9
$DIMGAP
 40
0.09
  9
$LUNITS
 70
     2
  9
$LUPREC
 70
     4
  9
$SKETCHINC
 40
0.1
  9
$FILLETRAD
 40
0.0
  9
$AUNITS
 70
     0
  9
$AUPREC
 70
     0
  9
$MENU
  1
.
  9
$ELEVATION
 40
0.0
  9
$PELEVATION
 40
0.0
  9
$THICKNESS
 40
0.0
  9
$LIMCHECK
 70
     0
  9
$BLIPMODE
 70
     0
  9
$CHAMFERA
 40
0.0
  9
$CHAMFERB
 40
0.0
  9
$SKPOLY
 70
     0
  9
$TDCREATE
 40
2458172.5207638889551163
  9
$TDUPDATE
 40
2459039.4462500000372529
  9
$TDINDWG
 40
0.2882298843
  9
$TDUSRTIMER
 40
0.2882298843
  9
$USRTIMER
 70
     1
  9
$ANGBASE
 50
0.0
  9
$ANGDIR
 70
     0
  9
$PDMODE
 70
     0
  9
$PDSIZE
 40
0.3125
  9
$PLINEWID
 40
0.0
  9
$COORDS
 70
     1
  9
$SPLFRAME
 70
     0
  9
$SPLINETYPE
 70
     6
  9
$SPLINESEGS
 70
     8
  9
$ATTDIA
 70
     1
  9
$ATTREQ
 70
     1
  9
$HANDLING
 70
     1
  9
$HANDSEED
  5
8695
  9
$SURFTAB1
 70
     6
  9
$SURFTAB2
 70
     6
  9
$SURFTYPE
 70
     6
  9
$SURFU
 70
     6
  9
$SURFV
 70
     6
  9
$UCSNAME
  2

  9
$UCSORG
 10
0.0
 20
0.0
 30
0.0
  9
$UCSXDIR
 10
1.0
 20
0.0
 30
0.0
  9
$UCSYDIR
 10
0.0
 20
1.0
 30
0.0
  9
$PUCSNAME
  2

  9
$PUCSORG
 10
0.0
 20
0.0
 30
0.0
  9
$PUCSXDIR
 10
1.0
 20
0.0
 30
0.0
  9
$PUCSYDIR
 10
0.0
 20
1.0
 30
0.0
  9
$USERI1
 70
     0
  9
$USERI2
 70
     0
  9
$USERI3
 70
     0
  9
$USERI4
 70
     0
  9
$USERI5
 70
     0
  9
$USERR1
 40
0.0
  9
$USERR2
 40
0.0
  9
$USERR3
 40
0.0
  9
$USERR4
 40
0.0
  9
$USERR5
 40
0.0
  9
$WORLDVIEW
 70
     1
  9
$SHADEDGE
 70
     3
  9
$SHADEDIF
 70
    70
  9
$TILEMODE
 70
     1
  9
$MAXACTVP
 70
    64
  9
$PLIMCHECK
 70
     0
  9
$PEXTMIN
 10
1.0000000000000000E+20
 20
1.0000000000000000E+20
 30
1.0000000000000000E+20
  9
$PEXTMAX
 10
-1.0000000000000000E+20
 20
-1.0000000000000000E+20
 30
-1.0000000000000000E+20
  9
$PLIMMIN
 10
0.0
 20
0.0
  9
$PLIMMAX
 10
12.0
 20
9.0
  9
$UNITMODE
 70
     0
  9
$VISRETAIN
 70
     1
  9
$PLINEGEN
 70
     0
  9
$PSLTSCALE
 70
     1
  0
ENDSEC
  0
SECTION
  2
TABLES
  0
TABLE
  2
VPORT
 70
     1
  0
VPORT
  2
*ACTIVE
 70
     0
 10
0.0
 20
0.0
 11
1.0
 21
1.0
 12
13.9543834592802796
 22
0.4129302619258511
 13
0.0
 23
0.0
 14
1.0
 24
1.0
 15
0.0
 25
0.0
 16
0.0
 26
0.0
 36
24.1179433675886514
 17
466.74220170783002
 27
89.133147119929788
 37
0.0
 40
3.524616985964089
 41
2.005224660397074
 42
50.0
 43
0.0
 44
0.0
 50
0.0
 51
0.0
 71
     0
 72
   100
 73
     1
 74
     1
 75
     0
 76
     0
 77
     0
 78
     0
  0
ENDTAB
  0
TABLE
  2
LTYPE
 70
     3
  0
LTYPE
  2
CONTINUOUS
 70
     0
  3
Solid line
 72
    65
 73
     0
 40
0.0
  0
LTYPE
  2
PHANTOM2
 70
     0
  3
___ _ _ ___ _ _ ___ _ _ ___ _ _
 72
    65
 73
     6
 40
1.25
 49
0.625
 49
-0.125
 49
0.125
 49
-0.125
 49
0.125
 49
-0.125
  0
ENDTAB
  0
TABLE
  2
LAYER
 70
     2
  0
LAYER
  2
0
 70
     0
 62
   255
  6
CONTINUOUS
  0
LAYER
  2
DEFPOINTS
 70
     0
 62
     7
  6
CONTINUOUS
  0
ENDTAB
  0
TABLE
  2
STYLE
 70
     1
  0
STYLE
  2
STANDARD
 70
     0
 40
0.0
 41
0.8
 50
0.0
 71
     0
 42
0.2
  3
txt
  4

  0
ENDTAB
  0
TABLE
  2
VIEW
 70
     0
  0
ENDTAB
  0
TABLE
  2
UCS
 70
     0
  0
ENDTAB
  0
TABLE
  2
APPID
 70
    10
  0
APPID
  2
ACAD
 70
     0
  0
APPID
  2
ACAD_MLEADERVER
 70
     0
  0
APPID
  2
ACAD_EXEMPT_FROM_CAD_STANDARDS
 70
     0
  0
APPID
  2
ACAD_DSTYLE_DIMJAG
 70
     0
  0
APPID
  2
ACAD_DSTYLE_DIMTALN
 70
     0
  0
APPID
  2
ACAD_NAV_VCDISPLAY
 70
     0
  0
APPID
  2
ACAECLAYERSTANDARD
 70
     0
  0
APPID
  2
ACCMTRANSPARENCY
 70
     0
  0
APPID
  2
DCO15
 70
     0
  0
APPID
  2
ACDBATTR
 70
     0
  0
ENDTAB
  0
TABLE
  2
DIMSTYLE
 70
     2
  0
DIMSTYLE
  2
STANDARD
 70
     0
  3

  4

  5

  6

  7

 40
1.0
 41
0.1875
 42
0.0625
 43
0.38
 44
0.125
 45
0.0
 46
0.0
 47
0.01
 48
0.01
140
0.15625
141
0.09
142
0.0
143
25.3999999999999986
144
1.0
145
0.0
146
1.0
147
0.09
 71
     1
 72
     0
 73
     1
 74
     1
 75
     0
 76
     0
 77
     0
 78
     4
170
     0
171
     2
172
     0
173
     0
174
     0
175
     0
176
     0
177
     0
178
     0
  0
ENDTAB
  0
ENDSEC
  0
SECTION
  2
BLOCKS
  0
BLOCK
  8
0
  2
$MODEL_SPACE
 70
     0
 10
0.0
 20
0.0
 30
0.0
  3
$MODEL_SPACE
  1

  0
ENDBLK
  5
21
  8
0
  0
BLOCK
 67
     1
  8
0
  2
$PAPER_SPACE
 70
     0
 10
0.0
 20
0.0
 30
0.0
  3
$PAPER_SPACE
  1

  0
ENDBLK
  5
1D
 67
     1
  8
0
  0
ENDSEC
  0
SECTION
  2
ENTITIES
  0
ATTDEF
  5
829
  8
DEFPOINTS
 10
480.6795764249663989
 20
91.2960190834106555
 30
0.0
 40
0.001
  1
K-422T
  3

  2
MODELNUMBER
 70
     0
1001
ACDBATTR
1070
     0
1070
     1
  0
ATTDEF
  5
82A
  8
DEFPOINTS
 10
480.6795764249663989
 20
91.2943524167439762
 30
0.0
 40
0.001
  1
MEMOIRS
  3

  2
TRADENAME
 70
     0
1001
ACDBATTR
1070
     0
1070
     1
  0
ATTDEF
  5
82B
  8
DEFPOINTS
 10
480.6795764249663989
 20
91.2926857500773252
 30
0.0
 40
0.001
  1
HANDSHOWER HOLDER
  3

  2
PRODUCT
 70
     0
1001
ACDBATTR
1070
     0
1070
     1
  0
LINE
  5
854A
  8
0
 10
480.5330167244910058
 20
89.9116414926977114
 30
0.0
 11
480.5330167244910058
 21
88.8943483007211341
 31
0.0
  0
ARC
  5
854B
  8
0
 10
480.7006232130556214
 20
88.1311098618653261
 30
0.0
 40
0.6171873379742752
 50
91.6346971117937841
 51
153.536441044321208
  0
ARC
  5
854C
  8
0
 10
480.818907584045121
 20
88.3768532780268146
 30
0.0
 40
0.7735518225960653
 50
217.9549912177321005
 51
227.0480462033249864
  0
ARC
  5
854D
  8
0
 10
480.3130607046941236
 20
87.8320241570088882
 30
0.0
 40
0.03011766772619
 50
225.1526298905268106
 51
269.9727150252318211
  0
ARC
  5
854E
  8
0
 10
480.3124808694157082
 20
87.8324418030250484
 30
0.0
 40
0.0305405461471575
 50
271.060956998544782
 51
1.0042476680499619
  0
ARC
  5
854F
  8
0
 10
480.3158912716586997
 20
87.9354855847761456
 30
0.0
 40
0.0271256227063283
 50
0.2027736930855899
 51
40.1212926418092835
  0
ARC
  5
8550
  8
0
 10
480.6374238755402075
 20
88.2077367926547566
 30
0.0
 40
0.3941866161961602
 50
166.2023204256256008
 51
220.2648215702130017
  0
ARC
  5
8551
  8
0
 10
480.6918747928849029
 20
88.1598919332268736
 30
0.0
 40
0.4596976712633358
 50
91.104119900648044
 51
162.0259909894494115
  0
LINE
  5
8552
  8
0
 10
480.3430167244910081
 20
88.1236926627261141
 30
0.0
 11
480.3430167244910081
 21
87.8329770728505252
 31
0.0
  0
ARC
  5
8553
  8
0
 10
480.3130167241305912
 20
88.1236926627261141
 30
0.0
 40
0.0300000003603107
 50
0.0
 51
39.8142230720707602
  0
ARC
  5
8554
  8
0
 10
480.6486816526223151
 20
88.4035029001228736
 30
0.0
 40
0.4069950947745036
 50
194.4784050159863114
 51
219.8146086906764083
  0
ARC
  5
8555
  8
0
 10
480.6368389401146146
 20
88.3921763262046198
 30
0.0
 40
0.5288363403614689
 50
136.6663278665278938
 51
179.5812371486819927
  0
ARC
  5
8556
  8
0
 10
480.6726853908414228
 20
88.3583565435405234
 30
0.0
 40
0.5781186468127383
 50
103.9805028047039031
 51
136.6663278665278938
  0
LINE
  5
8557
  8
0
 10
480.1080167244909944
 20
88.3960414458349106
 30
0.0
 11
480.1080167244909944
 21
88.2144039918156437
 31
0.0
  0
ARC
  5
8558
  8
0
 10
480.5622146032361002
 20
88.8911723571286956
 30
0.0
 40
0.0293700994366958
 50
173.7921668887647968
 51
262.931029090629977
  0
ARC
  5
8559
  8
0
 10
480.6748982230072897
 20
89.6541713885523279
 30
0.0
 40
0.8006374502072167
 50
261.6478505924197862
 51
270.5809918615461243
  0
LINE
  5
855A
  8
0
 10
480.8330167244910172
 20
89.9116414926977114
 30
0.0
 11
480.8330167244910172
 21
88.8943483007211341
 31
0.0
  0
ARC
  5
855B
  8
0
 10
480.644112505218402
 20
88.2392798569275243
 30
0.0
 40
0.6144080070326337
 50
326.6029189794497825
 51
357.6796009319925815
  0
ARC
  5
855C
  8
0
 10
480.7441895430341106
 20
88.2070354219873565
 30
0.0
 40
0.5138800134518081
 50
0.8215972796589808
 51
22.7968809797566792
  0
ARC
  5
855D
  8
0
 10
480.5471258649367883
 20
88.3768532780268146
 30
0.0
 40
0.7735518225960653
 50
312.7984128069675762
 51
322.0450087822673026
  0
ARC
  5
855E
  8
0
 10
481.0501421773230959
 20
87.9354855847761456
 30
0.0
 40
0.0271256227063283
 50
139.8787073581906952
 51
179.7972263069144105
  0
ARC
  5
855F
  8
0
 10
480.7286095734418154
 20
88.2077367926547566
 30
0.0
 40
0.3941866161961602
 50
319.7351784297870267
 51
13.7976795743743601
  0
LINE
  5
8560
  8
0
 10
481.0230167244909012
 20
88.1236926627261141
 30
0.0
 11
481.0230167244909012
 21
87.8329770728571759
 31
0.0
  0
ARC
  5
8561
  8
0
 10
481.053016724851318
 20
88.1236926627261141
 30
0.0
 40
0.0300000003603107
 50
140.1857769279291972
 51
180.0
  0
ARC
  5
8562
  8
0
 10
480.7173517963595941
 20
88.4035029001228736
 30
0.0
 40
0.4069950947745036
 50
320.1853913093235064
 51
345.521594984013575
  0
ARC
  5
8563
  8
0
 10
480.7291945088672946
 20
88.3921763262046198
 30
0.0
 40
0.5288363403614689
 50
0.4187628513179954
 51
43.3336721334720565
  0
ARC
  5
8564
  8
0
 10
480.6933480581403728
 20
88.3583565435405234
 30
0.0
 40
0.5781186468127383
 50
43.3336721334720565
 51
76.0194971952960259
  0
LINE
  5
8565
  8
0
 10
481.2580167244909717
 20
88.3960414458349106
 30
0.0
 11
481.2580167244909717
 21
88.2144039918146063
 31
0.0
  0
ARC
  5
8566
  8
0
 10
480.8038188457456954
 20
88.8911723571286956
 30
0.0
 40
0.0293700994366958
 50
277.068970909370023
 51
6.2078331112352076
  0
ARC
  5
8567
  8
0
 10
480.6911352259746764
 20
89.6541713885515748
 30
0.0
 40
0.8006374502064986
 50
269.419008138453421
 51
278.3521494075878877
  0
ARC
  5
8568
  8
0
 10
480.6654102359264016
 20
88.1311098618653261
 30
0.0
 40
0.6171873379742752
 50
26.4635589556787387
 51
88.3653028882062017
  0
ARC
  5
8569
  8
0
 10
480.6741586560968926
 20
88.1598919332268736
 30
0.0
 40
0.4596976712633358
 50
17.9740090105505814
 51
88.895880099351956
  0
ARC
  5
856A
  8
0
 10
481.0529727442877856
 20
87.8320241570088882
 30
0.0
 40
0.03011766772619
 50
270.0272849747681789
 51
310.902996494168292
  0
ARC
  5
856B
  8
0
 10
481.0535525795662011
 20
87.8324418030250484
 30
0.0
 40
0.0305405461471575
 50
178.9957523195010936
 51
268.9390430014551043
  0
LINE
  5
856C
  8
0
 10
481.9030167245409757
 20
91.256600506397703
 30
0.0
 11
481.9030167245409757
 21
91.2066005063977201
 31
0.0
  0
LINE
  5
856D
  8
0
 10
481.7980167245409007
 20
91.1416005063977366
 30
0.0
 11
481.7980167245409007
 21
91.1316005064161345
 31
0.0
  0
LINE
  5
856E
  8
0
 10
480.4694281442409078
 20
89.9116414926977114
 30
0.0
 11
480.8966053048408753
 21
89.9116414926977114
 31
0.0
  0
LINE
  5
856F
  8
0
 10
480.0556406054408853
 20
89.9166005063977138
 30
0.0
 11
481.3103928436410115
 21
89.9166005063977138
 31
0.0
  0
LINE
  5
8570
  8
0
 10
479.568016724549409
 20
91.1316005063977173
 30
0.0
 11
481.7980167245409007
 21
91.1316005063977173
 31
0.0
  0
LINE
  5
8571
  8
0
 10
479.498016724541003
 20
91.1716005063977093
 30
0.0
 11
481.8680167245410075
 21
91.1716005063977093
 31
0.0
  0
LINE
  5
8572
  8
0
 10
481.8680167245410075
 20
91.2916005063977138
 30
0.0
 11
479.498016724541003
 21
91.2916005063977138
 31
0.0
  0
LINE
  5
8573
  8
0
 10
479.5680167245408825
 20
91.1316005064161345
 30
0.0
 11
479.5680167245408825
 21
91.1416005063977366
 31
0.0
  0
LINE
  5
8574
  8
0
 10
479.463016724540978
 20
91.256600506397703
 30
0.0
 11
479.463016724540978
 21
91.2066005063977201
 31
0.0
  0
ARC
  5
8575
  8
0
 10
489.5206971463409786
 20
87.5805151648977045
 30
0.0
 40
8.5
 50
155.3058225851463874
 51
163.7950356483918881
  0
ARC
  5
8576
  8
0
 10
471.845336302740975
 20
87.5805151648977045
 30
0.0
 40
8.5
 50
16.2049643516081083
 51
24.6941774147166413
  0
ARC
  5
8577
  8
0
 10
480.4694281442409078
 20
89.9716414926977137
 30
0.0
 40
0.06
 50
246.5416610957149999
 51
270.0
  0
ARC
  5
8578
  8
0
 10
480.8966053048408753
 20
89.9716414926977137
 30
0.0
 40
0.06
 50
270.0
 51
293.4583389042849717
  0
ARC
  5
8579
  8
0
 10
480.0556406054408853
 20
89.966600506397711
 30
0.0
 40
0.05
 50
196.2049643516081119
 51
270.0
  0
ARC
  5
857A
  8
0
 10
481.3103928436410115
 20
89.966600506397711
 30
0.0
 40
0.05
 50
270.0
 51
343.7950356483918881
  0
ARC
  5
857B
  8
0
 10
481.8680167245410075
 20
91.2066005063977201
 30
0.0
 40
0.035
 50
270.0
 51
0.0
  0
ARC
  5
857C
  8
0
 10
479.498016724541003
 20
91.2066005063977201
 30
0.0
 40
0.035
 50
180.0
 51
270.0
  0
ARC
  5
857D
  8
0
 10
479.498016724541003
 20
91.256600506397703
 30
0.0
 40
0.035
 50
90.0
 51
180.0
  0
ARC
  5
857E
  8
0
 10
481.8680167245410075
 20
91.256600506397703
 30
0.0
 40
0.035
 50
0.0
 51
90.0
  0
ARC
  5
857F
  8
0
 10
479.5380167245410235
 20
91.1416005063977366
 30
0.0
 40
0.03
 50
0.0
 51
90.0
  0
ARC
  5
8580
  8
0
 10
481.8280167245409871
 20
91.1416005063977366
 30
0.0
 40
0.03
 50
90.0
 51
180.0
  0
ARC
  5
8582
  8
0
 10
479.8867104166624813
 20
89.6255968667857701
 30
0.0
 40
0.6251897824702209
 50
27.7402868082960516
 51
87.3857422640463852
  0
ARC
  5
8583
  8
0
 10
481.4653829618183067
 20
89.6483348033821699
 30
0.0
 40
0.5997990039545816
 50
91.4619216671632245
 51
153.4320188427444975
  0
ARC
  5
8584
  8
0
 10
480.7219209438634948
 20
88.2392798569275243
 30
0.0
 40
0.6144080070326337
 50
182.3203990680073048
 51
213.3970810205501039
  0
ARC
  5
8585
  8
0
 10
480.6218439060477863
 20
88.2070354219873565
 30
0.0
 40
0.5138800134518081
 50
157.2031190202432924
 51
179.1784027203410119
  0
ENDSEC
  0
EOF
