  0
SECTION
  2
HEADER
  9
$ACADVER
  1
AC1009
  9
$INSBASE
 10
5696.2044297267602815
 20
-21.5811988090482316
 30
0.0
  9
$EXTMIN
 10
5687.2637087196080756
 20
-21.5890527361666784
 30
-0.0000000349181948
  9
$EXTMAX
 10
5705.3820518453512705
 20
12.1500662124703904
 30
0.0000000814935746
  9
$LIMMIN
 10
0.0
 20
0.0
  9
$LIMMAX
 10
11.6929133858000007
 20
8.2677165353999982
  9
$ORTHOMODE
 70
     0
  9
$REGENMODE
 70
     1
  9
$FILLMODE
 70
     1
  9
$QTEXTMODE
 70
     0
  9
$MIRRTEXT
 70
     0
  9
$DRAGMODE
 70
     2
  9
$LTSCALE
 40
0.6431102362
  9
$OSMODE
 70
  4095
  9
$ATTMODE
 70
     1
  9
$TEXTSIZE
 40
0.2
  9
$TRACEWID
 40
0.05
  9
$TEXTSTYLE
  7
STANDARD
  9
$CLAYER
  8
0
  9
$CELTYPE
  6
BYLAYER
  9
$CECOLOR
 62
   256
  9
$DIMSCALE
 40
1.0
  9
$DIMASZ
 40
0.1875
  9
$DIMEXO
 40
0.0625
  9
$DIMDLI
 40
0.4443307087
  9
$DIMRND
 40
0.0
  9
$DIMDLE
 40
0.0
  9
$DIMEXE
 40
0.125
  9
$DIMTP
 40
0.01
  9
$DIMTM
 40
0.01
  9
$DIMTXT
 40
2.0
  9
$DIMCEN
 40
0.1052362205
  9
$DIMTSZ
 40
0.0
  9
$DIMTOL
 70
     1
  9
$DIMLIM
 70
     0
  9
$DIMTIH
 70
     1
  9
$DIMTOH
 70
     1
  9
$DIMSE1
 70
     0
  9
$DIMSE2
 70
     0
  9
$DIMTAD
 70
     0
  9
$DIMZIN
 70
     0
  9
$DIMBLK
  1

  9
$DIMASO
 70
     1
  9
$DIMSHO
 70
     1
  9
$DIMPOST
  1
\X
  9
$DIMAPOST
  1

  9
$DIMALT
 70
     1
  9
$DIMALTD
 70
     2
  9
$DIMALTF
 40
25.3999999999999986
  9
$DIMLFAC
 40
1.0
  9
$DIMTOFL
 70
     0
  9
$DIMTVP
 40
0.0
  9
$DIMTIX
 70
     0
  9
$DIMSOXD
 70
     0
  9
$DIMSAH
 70
     0
  9
$DIMBLK1
  1

  9
$DIMBLK2
  1

  9
$DIMSTYLE
  2
STANDARD
  9
$DIMCLRD
 70
     0
  9
$DIMCLRE
 70
     0
  9
$DIMCLRT
 70
     0
  9
$DIMTFAC
 40
1.0
  9
$DIMGAP
 40
0.09
  9
$LUNITS
 70
     2
  9
$LUPREC
 70
     4
  9
$SKETCHINC
 40
0.1
  9
$FILLETRAD
 40
0.0
  9
$AUNITS
 70
     0
  9
$AUPREC
 70
     0
  9
$MENU
  1
.
  9
$ELEVATION
 40
0.0
  9
$PELEVATION
 40
0.0
  9
$THICKNESS
 40
0.0
  9
$LIMCHECK
 70
     0
  9
$BLIPMODE
 70
     0
  9
$CHAMFERA
 40
0.0
  9
$CHAMFERB
 40
0.0
  9
$SKPOLY
 70
     0
  9
$TDCREATE
 40
2458060.468368056230247
  9
$TDUPDATE
 40
2460118.4763888888992369
  9
$TDINDWG
 40
0.6213149306
  9
$TDUSRTIMER
 40
0.6213149306
  9
$USRTIMER
 70
     1
  9
$ANGBASE
 50
0.0
  9
$ANGDIR
 70
     0
  9
$PDMODE
 70
     0
  9
$PDSIZE
 40
0.3125
  9
$PLINEWID
 40
0.0
  9
$COORDS
 70
     1
  9
$SPLFRAME
 70
     0
  9
$SPLINETYPE
 70
     6
  9
$SPLINESEGS
 70
     8
  9
$ATTDIA
 70
     1
  9
$ATTREQ
 70
     1
  9
$HANDLING
 70
     1
  9
$HANDSEED
  5
23495
  9
$SURFTAB1
 70
     6
  9
$SURFTAB2
 70
     6
  9
$SURFTYPE
 70
     6
  9
$SURFU
 70
     6
  9
$SURFV
 70
     6
  9
$UCSNAME
  2

  9
$UCSORG
 10
0.0
 20
0.0
 30
0.0
  9
$UCSXDIR
 10
1.0
 20
0.0
 30
0.0
  9
$UCSYDIR
 10
0.0
 20
1.0
 30
0.0
  9
$PUCSNAME
  2

  9
$PUCSORG
 10
0.0
 20
0.0
 30
0.0
  9
$PUCSXDIR
 10
1.0
 20
0.0
 30
0.0
  9
$PUCSYDIR
 10
0.0
 20
1.0
 30
0.0
  9
$USERI1
 70
     0
  9
$USERI2
 70
     0
  9
$USERI3
 70
     0
  9
$USERI4
 70
     0
  9
$USERI5
 70
     0
  9
$USERR1
 40
0.0
  9
$USERR2
 40
0.0
  9
$USERR3
 40
0.0
  9
$USERR4
 40
0.0
  9
$USERR5
 40
0.0
  9
$WORLDVIEW
 70
     1
  9
$SHADEDGE
 70
     3
  9
$SHADEDIF
 70
    70
  9
$TILEMODE
 70
     1
  9
$MAXACTVP
 70
    64
  9
$PLIMCHECK
 70
     0
  9
$PEXTMIN
 10
1.0000000000000000E+20
 20
1.0000000000000000E+20
 30
1.0000000000000000E+20
  9
$PEXTMAX
 10
-1.0000000000000000E+20
 20
-1.0000000000000000E+20
 30
-1.0000000000000000E+20
  9
$PLIMMIN
 10
0.0
 20
0.0
  9
$PLIMMAX
 10
12.0
 20
9.0
  9
$UNITMODE
 70
     0
  9
$VISRETAIN
 70
     1
  9
$PLINEGEN
 70
     0
  9
$PSLTSCALE
 70
     1
  0
ENDSEC
  0
SECTION
  2
TABLES
  0
TABLE
  2
VPORT
 70
     1
  0
VPORT
  2
*ACTIVE
 70
     0
 10
0.0
 20
0.0
 11
1.0
 21
1.0
 12
1903.9649701262299004
 22
-124.9001496949535976
 13
0.0
 23
0.0
 14
1.0
 24
1.0
 15
0.0
 25
0.0
 16
0.0
 26
0.0
 36
5.1040778033513332
 17
3792.35791015625
 27
120.1806564331053977
 37
0.0
 40
34.041711943692107
 41
2.8398203592814371
 42
50.0
 43
0.0
 44
0.0
 50
0.0
 51
0.0
 71
     0
 72
   100
 73
     1
 74
     1
 75
     0
 76
     0
 77
     0
 78
     0
  0
ENDTAB
  0
TABLE
  2
LTYPE
 70
     2
  0
LTYPE
  2
CONTINUOUS
 70
     0
  3
Solid line
 72
    65
 73
     0
 40
0.0
  0
LTYPE
  2
PHANTOM2
 70
     0
  3
___ _ _ ___ _ _ ___ _ _ ___ _ _
 72
    65
 73
     6
 40
1.25
 49
0.625
 49
-0.125
 49
0.125
 49
-0.125
 49
0.125
 49
-0.125
  0
ENDTAB
  0
TABLE
  2
LAYER
 70
     2
  0
LAYER
  2
0
 70
     0
 62
   255
  6
CONTINUOUS
  0
LAYER
  2
DEFPOINTS
 70
     0
 62
     7
  6
CONTINUOUS
  0
ENDTAB
  0
TABLE
  2
STYLE
 70
     1
  0
STYLE
  2
STANDARD
 70
     0
 40
0.0
 41
0.8
 50
0.0
 71
     0
 42
0.2
  3
txt
  4

  0
ENDTAB
  0
TABLE
  2
VIEW
 70
     0
  0
ENDTAB
  0
TABLE
  2
UCS
 70
     0
  0
ENDTAB
  0
TABLE
  2
APPID
 70
     9
  0
APPID
  2
ACAD
 70
     0
  0
APPID
  2
ACAD_MLEADERVER
 70
     0
  0
APPID
  2
ACAD_EXEMPT_FROM_CAD_STANDARDS
 70
     0
  0
APPID
  2
ACAD_NAV_VCDISPLAY
 70
     0
  0
APPID
  2
ACAECLAYERSTANDARD
 70
     0
  0
APPID
  2
ACCMTRANSPARENCY
 70
     0
  0
APPID
  2
ACAD_DSTYLE_DIMJAG
 70
     0
  0
APPID
  2
ACAD_DSTYLE_DIMTALN
 70
     0
  0
APPID
  2
ACDBATTR
 70
     0
  0
ENDTAB
  0
TABLE
  2
DIMSTYLE
 70
     1
  0
DIMSTYLE
  2
STANDARD
 70
     0
  3

  4

  5

  6

  7

 40
1.0
 41
0.1875
 42
0.0625
 43
0.38
 44
0.125
 45
0.0
 46
0.0
 47
0.01
 48
0.01
140
0.15625
141
0.09
142
0.0
143
25.3999999999999986
144
1.0
145
0.0
146
1.0
147
0.09
 71
     1
 72
     0
 73
     1
 74
     1
 75
     0
 76
     0
 77
     0
 78
     4
170
     0
171
     2
172
     0
173
     0
174
     0
175
     0
176
     0
177
     0
178
     0
  0
ENDTAB
  0
ENDSEC
  0
SECTION
  2
BLOCKS
  0
BLOCK
  8
0
  2
$MODEL_SPACE
 70
     0
 10
0.0
 20
0.0
 30
0.0
  3
$MODEL_SPACE
  1

  0
ENDBLK
  5
21
  8
0
  0
BLOCK
 67
     1
  8
0
  2
$PAPER_SPACE
 70
     0
 10
0.0
 20
0.0
 30
0.0
  3
$PAPER_SPACE
  1

  0
ENDBLK
  5
1D
 67
     1
  8
0
  0
BLOCK
  8
0
  2
_FILLED
 70
     0
 10
0.0
 20
0.0
 30
0.0
  3
_FILLED
  1

  0
SOLID
  5
1D213
  8
0
  6
BYBLOCK
 62
     0
 10
0.0
 20
0.0
 30
0.0
 11
-1.0
 21
0.1666666667
 31
0.0
 12
-1.0
 22
-0.1666666667
 32
0.0
 13
-1.0
 23
-0.1666666667
 33
0.0
  0
ENDBLK
  5
1D214
  8
0
  6
BYBLOCK
 62
     0
  0
ENDSEC
  0
SECTION
  2
ENTITIES
  0
ATTDEF
  5
3930
  8
DEFPOINTS
 10
5696.2045586002041091
 20
-21.5828873117199009
 30
0.0
 40
0.001
  1
K-43202
  3

  2
MODELNUMBER
 70
     0
1001
ACDBATTR
1070
     0
1070
     1
  0
ATTDEF
  5
3931
  8
DEFPOINTS
 10
5696.2045586002041091
 20
-21.5845539783865696
 30
0.0
 40
0.001
  1
ELLISTON/THE COMPLETE SOLUTION
  3

  2
TRADENAME
 70
     0
1001
ACDBATTR
1070
     0
1070
     1
  0
ATTDEF
  5
3932
  8
DEFPOINTS
 10
5696.2045586002041091
 20
-21.5862206450532312
 30
0.0
 40
0.001
  1
TOILET
  3

  2
PRODUCT
 70
     0
1001
ACDBATTR
1070
     0
1070
     1
  0
LINE
  5
230FD
  8
0
 10
5690.8657947481542578
 20
-21.5811988090482316
 30
0.0
 11
5701.5430647053681241
 21
-21.5811988090482316
 31
0.0
  0
LINE
  5
230FE
  8
0
 10
5699.7503495656737869
 20
12.1487203679018005
 30
0.0
 11
5692.6585098878476856
 21
12.1487203679017703
 31
0.0
  0
LINE
  5
230FF
  8
0
 10
5704.8505849087077877
 20
12.0391165051518403
 30
0.0
 11
5687.5582745448118658
 21
12.0391165051517497
 31
0.0
  0
LINE
  5
23100
  8
0
 10
5704.7330901469367745
 20
10.6038005301517693
 30
0.0
 11
5687.6757693065819694
 21
10.6038005301517693
 31
0.0
  0
LINE
  5
23101
  8
0
 10
5702.9686882700680144
 20
-1.6715854284916529
 30
0.0
 11
5689.4401711834516391
 21
-1.6715854284916529
 31
0.0
  0
LINE
  5
23102
  8
0
 10
5703.2101588894611268
 20
-2.2607988090482531
 30
0.0
 11
5689.1987005640603456
 21
-2.2607988090482531
 31
0.0
  0
LINE
  5
23103
  8
0
 10
5703.2393663288539756
 20
-2.5211988090482289
 30
0.0
 11
5689.1694931246656779
 21
-2.5211988090482289
 31
0.0
  0
ARC
  5
23104
  8
0
 10
5706.9772361376790286
 20
-772.8699670064712564
 30
0.0
 40
785.1492631649101668
 50
91.0449580776160587
 51
91.4172311682626599
  0
ARC
  5
23105
  8
0
 10
5676.5872133457969539
 20
9.6351712568172161
 30
0.0
 40
11.0142001188167598
 50
5.650595600061993
 51
11.4591611352103406
  0
ARC
  5
23106
  8
0
 10
5687.6757693065819694
 20
10.7323005301517505
 30
0.0
 40
0.1285
 50
185.6505956000636104
 51
270.0
  0
ARC
  5
23107
  8
0
 10
5687.5582745448118658
 20
11.8591165051517393
 30
0.0
 40
0.18
 50
90.0
 51
191.4591611352103087
  0
ARC
  5
23108
  8
0
 10
5655.7135055213875603
 20
4.1891779323159142
 30
0.0
 40
33.0938027074928485
 50
11.3586422802903293
 51
13.3270893613710104
  0
ARC
  5
23109
  8
0
 10
5688.2851027167680513
 20
10.7323005301517505
 30
0.0
 40
0.1285
 50
191.3586422802902973
 51
270.0
  0
ARC
  5
2310A
  8
0
 10
5688.091244616422955
 20
11.8591165051517393
 30
0.0
 40
0.18
 50
90.0
 51
193.3270893613710086
  0
ARC
  5
2310B
  8
0
 10
5564.9203604323192849
 20
-3.9894277243304539
 30
0.0
 40
123.9386502132722967
 50
2.9738091806724749
 51
5.8851447243953681
  0
ARC
  5
2310C
  8
0
 10
5564.9203604323192849
 20
-3.9894277243304539
 30
0.0
 40
123.9386502132722967
 50
5.9560502020658994
 51
6.7620113868771483
  0
ARC
  5
2310D
  8
0
 10
4756.0403402618094333
 20
-46.0102745679081906
 30
0.0
 40
933.9094142538610868
 50
2.770794994425219
 51
2.9738091806724749
  0
ARC
  5
2310E
  8
0
 10
5632.7062384386517806
 20
-3.5820740341760309
 30
0.0
 40
56.2174129078655582
 50
2.1510119108486232
 51
2.770794994425219
  0
LINE
  5
2310F
  8
0
 10
5689.143951760015625
 20
-1.8168473598998951
 30
0.0
 11
5689.2131691196118481
 21
-1.8168473598998951
 31
0.0
  0
ARC
  5
23110
  8
0
 10
5689.2639130069392195
 20
-1.4560579029146929
 30
0.0
 40
0.3802101169552938
 50
182.4094578385463876
 51
251.6082121422099931
  0
ARC
  5
23111
  8
0
 10
5689.1070934858798864
 20
-1.9316070016473641
 30
0.0
 40
0.1205334299947202
 50
39.9909799998399791
 51
72.1941234688079732
  0
LINE
  5
23112
  8
0
 10
5689.194360861010864
 20
-1.8760081821810379
 30
0.0
 11
5689.1387005640599455
 21
-2.1761991030482468
 31
0.0
  0
ARC
  5
23113
  8
0
 10
5689.4401711834516391
 20
-1.9215854284916529
 30
0.0
 40
0.25
 50
90.0
 51
169.4957193574443863
  0
LINE
  5
23114
  8
0
 10
5689.1387005640599455
 20
-2.1761991030482468
 30
0.0
 11
5689.1387005640599455
 21
-2.2007988090482509
 31
0.0
  0
ARC
  5
23115
  8
0
 10
5689.1987005640603456
 20
-2.2007988090482509
 30
0.0
 40
0.06
 50
179.9999999999984084
 51
270.0
  0
LINE
  5
23116
  8
0
 10
5689.0495663343363049
 20
-2.6370077517583179
 30
0.0
 11
5689.0448007652457818
 21
-2.7733741542125179
 31
0.0
  0
ARC
  5
23117
  8
0
 10
5689.1694931246656779
 20
-2.641198809048233
 30
0.0
 40
0.12
 50
90.0
 51
177.9985105067364941
  0
LINE
  5
23118
  8
0
 10
5689.0448007652457818
 20
-2.7733741542125179
 30
0.0
 11
5689.0466559816086374
 21
-2.954643704952701
 31
0.0
  0
LINE
  5
23119
  8
0
 10
5689.0466559816086374
 20
-2.954643704952701
 30
0.0
 11
5689.0967901744597839
 21
-3.912105743348234
 31
0.0
  0
ARC
  5
2311A
  8
0
 10
5690.4253720246224475
 20
-3.8858652898366581
 30
0.0
 40
1.328840958874268
 50
181.1314860186344902
 51
192.387823715270514
  0
ARC
  5
2311B
  8
0
 10
5689.6211427046227982
 20
-4.0434570870685604
 30
0.0
 40
0.5098676031095351
 50
194.4792044576614956
 51
219.2179070859970125
  0
ARC
  5
2311C
  8
0
 10
5689.6023634430121092
 20
-4.0566359836159052
 30
0.0
 40
0.4869886281789264
 50
219.4135979333508999
 51
236.5916336760153058
  0
ARC
  5
2311D
  8
0
 10
5689.2526551852915873
 20
-4.5876620679527491
 30
0.0
 40
0.1488456725002006
 50
5.0947887094347273
 51
56.7684282548475423
  0
LINE
  5
2311E
  8
0
 10
5689.4009127903600529
 20
-4.5744440211482518
 30
0.0
 11
5689.41470081225998
 21
-4.7311988090482373
 31
0.0
  0
ARC
  5
2311F
  8
0
 10
5696.4821578101937121
 20
-3.9009103722761722
 30
0.0
 40
7.1160612376355337
 50
186.7004242135620871
 51
209.769962645627686
  0
ARC
  5
23120
  8
0
 10
5699.0392210726931808
 20
-2.438246128406262
 30
0.0
 40
10.0618988466555503
 50
209.769962645627686
 51
222.8456175825180878
  0
ARC
  5
23121
  8
0
 10
5698.1354968961368286
 20
-3.276441390860469
 30
0.0
 40
8.8293045560255088
 50
222.8456175825180878
 51
226.5507093910040908
  0
ARC
  5
23122
  8
0
 10
5691.5966898572569335
 20
-10.0881485582305306
 30
0.0
 40
0.615885895100222
 50
4.944626882359084
 51
40.7197826785808275
  0
ARC
  5
23123
  8
0
 10
5616.6329899073389242
 20
-7.0971871762510261
 30
0.0
 40
75.634373509706819
 50
353.3115569841227739
 51
357.7738921321754901
  0
ARC
  5
23124
  8
0
 10
5609.4160114064698064
 20
-6.2508628227178056
 30
0.0
 40
82.9008061690917373
 50
350.1498214965524767
 51
353.3115569841227739
  0
ARC
  5
23125
  8
0
 10
5633.6181608523802424
 20
-10.4531313794201104
 30
0.0
 40
58.3365414981360786
 50
349.0030710953948869
 51
350.1498214965524767
  0
ARC
  5
23126
  8
0
 10
5646.3988135825902646
 20
-13.5774893069036793
 30
0.0
 40
45.1815424678399893
 50
349.7964594915604266
 51
350.7400089133445817
  0
ARC
  5
23127
  8
0
 10
5691.2966752384081701
 20
-20.8976074575791699
 30
0.0
 40
0.3091391164669694
 50
144.7203377358659964
 51
170.7400089133446102
  0
ARC
  5
23128
  8
0
 10
5693.7072795914136805
 20
-10.5506675352900992
 30
0.0
 40
1.6242083250575119
 50
158.376772753336212
 51
198.1275338479860864
  0
LINE
  5
23129
  8
0
 10
5689.3342262193618808
 20
-4.4631582502490801
 30
0.0
 11
5703.0746332341586822
 21
-4.4631582502490801
 31
0.0
  0
LINE
  5
2312A
  8
0
 10
5689.9285837737506881
 20
-2.5001988090482419
 30
0.0
 11
5690.324653294734162
 21
-2.5001988090482419
 31
0.0
  0
ARC
  5
2312B
  8
0
 10
5689.6347681172601369
 20
-2.41079880904823
 30
0.0
 40
0.1500000000000054
 50
11.6539380101035999
 51
90.0
  0
ARC
  5
2312C
  8
0
 10
5689.9285837737506881
 20
-2.350198809047924
 30
0.0
 40
0.149999999998466
 50
191.6539380101035874
 51
270.0
  0
LINE
  5
2312D
  8
0
 10
5690.5314629228687409
 20
-2.3266649263485131
 30
0.0
 11
5690.5430768964597519
 21
-2.2607988090482531
 31
0.0
  0
ARC
  5
2312E
  8
0
 10
5690.324653294734162
 20
-2.2901988090482339
 30
0.0
 40
0.21
 50
270.0
 51
350.0000000027076226
  0
LINE
  5
2312F
  8
0
 10
5690.5451117785351016
 20
-2.3061988090482539
 30
0.0
 11
5691.2425487661939769
 21
-2.3061988090482539
 31
0.0
  0
ARC
  5
23130
  8
0
 10
5690.5504693614702774
 20
-2.2580663026823231
 30
0.0
 40
0.0484297621713259
 50
251.9216897614026038
 51
263.648606472404424
  0
LINE
  5
23131
  8
0
 10
5691.5943255128349847
 20
-2.3778728210603211
 30
0.0
 11
5691.5891363782220651
 21
-2.5211988090482289
 31
0.0
  0
ARC
  5
23132
  8
0
 10
5692.2892724905714203
 20
1.932032540474466
 30
0.0
 40
4.3655739058284633
 50
253.8281690876281971
 51
261.6498307085133206
  0
ARC
  5
23133
  8
0
 10
5691.7592434891921584
 20
-2.3548661139189728
 30
0.0
 40
0.1777886854064971
 50
200.6592644278532021
 51
249.3194562262027887
  0
LINE
  5
23134
  8
0
 10
5691.6582254948625632
 20
-2.4207859407771082
 30
0.0
 11
5691.6530134221584376
 21
-2.3612116773193739
 31
0.0
  0
ARC
  5
23135
  8
0
 10
5691.767806911650041
 20
-2.4111988090482441
 30
0.0
 40
0.11
 50
185.0000000139272061
 51
270.0
  0
ARC
  5
23136
  8
0
 10
5691.5434320053700503
 20
-2.3707988090482379
 30
0.0
 40
0.11
 50
5.0000000139288714
 51
90.0
  0
ARC
  5
23137
  8
0
 10
5693.1653423920506611
 20
-2.457733779265225
 30
0.0
 40
0.0991257481022578
 50
104.4725385738186958
 51
168.327334325416814
  0
ARC
  5
23138
  8
0
 10
5692.9592470944144225
 20
-2.4114769552680002
 30
0.0
 40
0.1121239738421587
 50
281.8813054443824058
 51
346.4858788495914723
  0
LINE
  5
23139
  8
0
 10
5693.0023574153947266
 20
-2.2607988090482531
 30
0.0
 11
5693.1581992648598316
 21
-2.3294163338482292
 31
0.0
  0
ARC
  5
2313A
  8
0
 10
5693.0595043363955483
 20
-2.5535689862425102
 30
0.0
 40
0.2449185588720329
 50
58.0503446012014308
 51
66.2359959560369731
  0
ARC
  5
2313B
  8
0
 10
5693.181037919872324
 20
-2.3586937773503669
 30
0.0
 40
0.0152519331871565
 50
21.3321503413998101
 51
58.0503446012014308
  0
ARC
  5
2313C
  8
0
 10
5693.1903337801222733
 20
-2.353731892020249
 30
0.0
 40
0.0049460025213398
 50
288.0053584121779977
 51
6.8086876205130276
  0
ARC
  5
2313D
  8
0
 10
5693.1584850538029059
 20
-2.2405766825453659
 30
0.0
 40
0.1224940995345863
 50
261.5898541102340005
 51
285.8120759889526994
  0
LINE
  5
2313E
  8
0
 10
5699.3310408324341552
 20
-2.4111988090482441
 30
0.0
 11
5693.0778186210873173
 21
-2.4111988090482441
 31
0.0
  0
LINE
  5
2313F
  8
0
 10
5689.3419459722608735
 20
-1.515907809048229
 30
0.0
 11
5691.1871944369240737
 21
-1.515907809048229
 31
0.0
  0
LINE
  5
23140
  8
0
 10
5689.2829481952330752
 20
-1.4449870807860059
 30
0.0
 11
5689.3534492351873268
 21
-1.0621357435229291
 31
0.0
  0
ARC
  5
23141
  8
0
 10
5689.3419459722608735
 20
-1.4559078090482549
 30
0.0
 40
0.06
 50
169.5130168769046861
 51
270.0
  0
ARC
  5
23142
  8
0
 10
5690.3277103158243335
 20
-7.1616833828893496
 30
0.0
 40
6.3547364976341756
 50
92.5049403848363454
 51
96.7712487448864067
  0
ARC
  5
23143
  8
0
 10
5685.1752282732668391
 20
110.6165129121337998
 30
0.0
 40
111.5361096003893948
 50
272.5049403848362886
 51
272.7571294223885729
  0
ARC
  5
23144
  8
0
 10
5709.9780488238602629
 20
-449.3766185726800018
 30
0.0
 40
449.0070638634986722
 50
91.8810485054134034
 51
92.4811285956223514
  0
ARC
  5
23145
  8
0
 10
5689.6091062689738465
 20
-1.1094588993259999
 30
0.0
 40
0.26
 50
96.7712487448864067
 51
169.5130168769046861
  0
LINE
  5
23146
  8
0
 10
5689.8910379050539632
 20
-1.6109078090482281
 30
0.0
 11
5689.6129960232074154
 21
-1.6109078090482281
 31
0.0
  0
LINE
  5
23147
  8
0
 10
5689.9660264919803012
 20
-1.537216178630558
 30
0.0
 11
5689.9663982715228485
 21
-1.515907809048229
 31
0.0
  0
ARC
  5
23148
  8
0
 10
5689.8910379050539632
 20
-1.535907809048239
 30
0.0
 40
0.075
 50
270.0
 51
359.0004285616489028
  0
ARC
  5
23149
  8
0
 10
5689.4928064152763909
 20
-1.5759177907691251
 30
0.0
 40
0.0600113036715814
 50
17.050943136533899
 51
89.6196971924799186
  0
ARC
  5
2314A
  8
0
 10
5689.6225671135371158
 20
-1.5356638000469329
 30
0.0
 40
0.0758502911047976
 50
197.3802373103279137
 51
262.7508667144176115
  0
LINE
  5
2314B
  8
0
 10
5689.9277485601742228
 20
-1.601309091915339
 30
0.0
 11
5689.9443047812856094
 21
-1.662010269087687
 31
0.0
  0
ARC
  5
2314C
  8
0
 10
5691.4503712371151778
 20
-94.2327809093182651
 30
0.0
 40
92.5830211923090189
 50
90.3051037524621876
 51
91.2441269363220755
  0
ARC
  5
2314D
  8
0
 10
5704.9328684330439501
 20
-340.0097629129394932
 30
0.0
 40
338.6471884111272743
 50
92.2724225553895963
 51
92.3651900012717135
  0
ARC
  5
2314E
  8
0
 10
5691.0554545812847209
 20
-1.672775135182234
 30
0.0
 40
0.1589152515886615
 50
42.8144278558315818
 51
80.791701040403197
  0
ARC
  5
2314F
  8
0
 10
5690.9447131823353629
 20
-1.7753746055273321
 30
0.0
 40
0.3098798459695812
 50
25.8662409170230383
 51
42.8144278558315818
  0
LINE
  5
23150
  8
0
 10
5696.9698720733858863
 20
-1.4102146601746881
 30
0.0
 11
5695.4389873801301292
 21
-1.4102146601747161
 31
0.0
  0
ARC
  5
23151
  8
0
 10
5688.9659320175724133
 20
104.6707521361802975
 30
0.0
 40
106.1910438095652012
 50
270.5206234580251135
 51
271.2734388839368762
  0
ARC
  5
23152
  8
0
 10
5689.6359719571555615
 20
74.5286388995107814
 30
0.0
 40
76.0414842125686619
 50
271.2734388839368762
 51
271.7560364009806904
  0
ARC
  5
23153
  8
0
 10
5689.6429155639543751
 20
115.1959843867862929
 30
0.0
 40
116.6962468656536061
 50
271.1407536152170792
 51
271.5975545203617116
  0
ARC
  5
23154
  8
0
 10
5694.6717280734392261
 20
-48.3571728541570565
 30
0.0
 40
46.9358613075917006
 50
90.8936964628831277
 51
92.167842316866583
  0
ARC
  5
23155
  8
0
 10
5692.1238626075046341
 20
227.4507715254098059
 30
0.0
 40
228.8849952489161979
 50
270.4545440682942967
 51
270.8298896985190254
  0
ARC
  5
23156
  8
0
 10
5691.1816587477032954
 20
-1.4657579195694259
 30
0.0
 40
0.0504544871135402
 50
276.2989727122624117
 51
322.7071183536853027
  0
ARC
  5
23157
  8
0
 10
5692.7107053072522831
 20
-1.639117856704672
 30
0.0
 40
1.2563940798225921
 50
173.3625889437097101
 51
179.6257361610406065
  0
ARC
  5
23158
  8
0
 10
5691.4393552994579295
 20
-1.5533833328355511
 30
0.0
 40
0.063915174901051
 50
12.3397423790457292
 51
76.9666547913315497
  0
ARC
  5
23159
  8
0
 10
5691.4436110278620617
 20
-1.5514137681421969
 30
0.0
 40
0.0593455256527898
 50
0.9335404359979248
 51
11.3601578492999202
  0
ARC
  5
2315A
  8
0
 10
5716.0729462381032135
 20
-1.150083768400548
 30
0.0
 40
24.5732592628605708
 50
180.9335404359979123
 51
181.0899610238784021
  0
ARC
  5
2315B
  8
0
 10
5691.5792860229430516
 20
-1.6160928904658931
 30
0.0
 40
0.0751663730538694
 50
181.0899610238784021
 51
227.5836434104762134
  0
LINE
  5
2315C
  8
0
 10
5692.3244974001472656
 20
-1.4694481602426199
 30
0.0
 11
5692.3218337956050163
 21
-1.620206742049731
 31
0.0
  0
ARC
  5
2315D
  8
0
 10
5692.2462150450983245
 20
-1.6158311918061941
 30
0.0
 40
0.0757452366035425
 50
312.6018006877379207
 51
356.6883699382647137
  0
ARC
  5
2315E
  8
0
 10
5691.4688879721970807
 20
-2.0500495014088069
 30
0.0
 40
0.5138617224685892
 50
86.3960725797696654
 51
91.155440577188017
  0
ARC
  5
2315F
  8
0
 10
5691.9338485980752012
 20
-8.6789983118917462
 30
0.0
 40
0.5225890030224518
 50
353.9957384208454982
 51
57.7515600439290111
  0
ARC
  5
23160
  8
0
 10
5602.1465845844159048
 20
-7.9319675971075858
 30
0.0
 40
90.3105445834217448
 50
355.9801142377509109
 51
359.4913735509355774
  0
ARC
  5
23161
  8
0
 10
5634.352458359542652
 20
-10.5055124763263699
 30
0.0
 40
58.0043176142572321
 50
348.9920093196100197
 51
356.2858299368136272
  0
ARC
  5
23162
  8
0
 10
5692.3994302537939802
 20
-9.4591250891124616
 30
0.0
 40
0.4543786328497315
 50
169.9782935826177095
 51
196.918091535344189
  0
ARC
  5
23163
  8
0
 10
5700.0035566332417147
 20
-10.8029083125141696
 30
0.0
 40
8.1763273082885046
 50
167.2061246577519
 51
169.9782935826177095
  0
ARC
  5
23164
  8
0
 10
5717.1415500991988665
 20
-14.6946384091914997
 30
0.0
 40
25.7506376271762996
 50
165.597512831290004
 51
167.2061246577519
  0
ARC
  5
23165
  8
0
 10
5692.7465637277018686
 20
-8.391694650925956
 30
0.0
 40
0.5558204946174899
 50
144.4524451795732034
 51
169.4190685029111876
  0
ARC
  5
23166
  8
0
 10
5692.7114697521337803
 20
-8.3931843921092195
 30
0.0
 40
0.5285751071909007
 50
108.8242241236966947
 51
142.1087994196915076
  0
ARC
  5
23167
  8
0
 10
5693.0976849020116788
 20
-10.0879368963490492
 30
0.0
 40
2.2645662652909402
 50
82.2568707461648643
 51
104.2327162783799963
  0
ARC
  5
23168
  8
0
 10
5697.2034777178096192
 20
45.7424370875129398
 30
0.0
 40
53.7210707907379117
 50
265.9430225920158932
 51
268.9344119069701264
  0
ARC
  5
23169
  8
0
 10
5685.4316233158406249
 20
-772.8699670064712564
 30
0.0
 40
785.1492631649101668
 50
88.5827688317373543
 51
88.9550419223839413
  0
ARC
  5
2316A
  8
0
 10
5715.8216461077226995
 20
9.6351712568172161
 30
0.0
 40
11.0142001188167598
 50
168.5408388647896061
 51
174.3494043999380096
  0
ARC
  5
2316B
  8
0
 10
5704.7330901469367745
 20
10.7323005301517505
 30
0.0
 40
0.1285
 50
270.0
 51
354.349404399936418
  0
ARC
  5
2316C
  8
0
 10
5704.8505849087077877
 20
11.8591165051517393
 30
0.0
 40
0.18
 50
348.5408388647896913
 51
90.0
  0
ARC
  5
2316D
  8
0
 10
5736.6953539321320932
 20
4.1891779323159142
 30
0.0
 40
33.0938027074928485
 50
166.6729106386289914
 51
168.641357719709589
  0
ARC
  5
2316E
  8
0
 10
5704.1237567367543306
 20
10.7323005301517505
 30
0.0
 40
0.1285
 50
270.0
 51
348.6413577197096743
  0
ARC
  5
2316F
  8
0
 10
5704.317614837097608
 20
11.8591165051517393
 30
0.0
 40
0.18
 50
346.6729106386289914
 51
90.0
  0
ARC
  5
23170
  8
0
 10
5827.4884990212012781
 20
-3.9894277243304539
 30
0.0
 40
123.9386502132722967
 50
173.2379886131228091
 51
177.0261908193274962
  0
ARC
  5
23171
  8
0
 10
6636.3685191917102202
 20
-46.0102745679081906
 30
0.0
 40
933.9094142538610868
 50
177.0261908193274962
 51
177.229205005574812
  0
ARC
  5
23172
  8
0
 10
5759.7026210148687824
 20
-3.5820740341760309
 30
0.0
 40
56.2174129078655582
 50
177.229205005574812
 51
177.8489880891513906
  0
LINE
  5
23173
  8
0
 10
5703.2649076935049379
 20
-1.8168473598998951
 30
0.0
 11
5703.1956903339087148
 21
-1.8168473598998951
 31
0.0
  0
ARC
  5
23174
  8
0
 10
5703.1449464465813435
 20
-1.4560579029146929
 30
0.0
 40
0.3802101169552938
 50
288.3917878577900069
 51
357.590542161453584
  0
ARC
  5
23175
  8
0
 10
5703.3017659676406765
 20
-1.9316070016473641
 30
0.0
 40
0.1205334299947202
 50
107.8058765311919984
 51
140.0090200001600067
  0
LINE
  5
23176
  8
0
 10
5703.2144985925096989
 20
-1.8760081821810379
 30
0.0
 11
5703.2701588894587985
 21
-2.1761991030482468
 31
0.0
  0
ARC
  5
23177
  8
0
 10
5702.9686882700680144
 20
-1.9215854284916529
 30
0.0
 40
0.25
 50
10.5042806425555604
 51
90.0
  0
LINE
  5
23178
  8
0
 10
5703.2701588894587985
 20
-2.1761991030482468
 30
0.0
 11
5703.2701588894587985
 21
-2.2007988090482509
 31
0.0
  0
ARC
  5
23179
  8
0
 10
5703.2101588894611268
 20
-2.2007988090482509
 30
0.0
 40
0.06
 50
270.0
 51
0.0000000000016284
  0
LINE
  5
2317A
  8
0
 10
5703.3592931191842581
 20
-2.6370077517583179
 30
0.0
 11
5703.3640586882738717
 21
-2.7733741542125179
 31
0.0
  0
ARC
  5
2317B
  8
0
 10
5703.2393663288539756
 20
-2.641198809048233
 30
0.0
 40
0.12
 50
2.0014894932634402
 51
90.0
  0
LINE
  5
2317C
  8
0
 10
5703.3640586882738717
 20
-2.7733741542125179
 30
0.0
 11
5703.3621915060230094
 21
-2.954643704952701
 31
0.0
  0
LINE
  5
2317D
  8
0
 10
5703.3621915060230094
 20
-2.954643704952701
 30
0.0
 11
5703.3120692790598696
 21
-3.912105743348234
 31
0.0
  0
ARC
  5
2317E
  8
0
 10
5701.983487428897206
 20
-3.8858652898366581
 30
0.0
 40
1.328840958874268
 50
347.6121762847295145
 51
358.8685139813654814
  0
ARC
  5
2317F
  8
0
 10
5702.7877167488977648
 20
-4.0434570870685604
 30
0.0
 40
0.5098676031095351
 50
320.7820929140029875
 51
345.520795542338476
  0
ARC
  5
23180
  8
0
 10
5702.8064960105084538
 20
-4.0566359836159052
 30
0.0
 40
0.4869886281789264
 50
303.4083663239846942
 51
320.5864020666492138
  0
ARC
  5
23181
  8
0
 10
5703.1562042682280662
 20
-4.5876620679527491
 30
0.0
 40
0.1488456725002006
 50
123.2315717451523938
 51
174.9052112905652905
  0
LINE
  5
23182
  8
0
 10
5703.0079466631596006
 20
-4.5744440211482518
 30
0.0
 11
5702.9941586412596735
 21
-4.7311988090482373
 31
0.0
  0
ARC
  5
23183
  8
0
 10
5695.9267016433259414
 20
-3.9009103722761722
 30
0.0
 40
7.1160612376355337
 50
330.230037354372314
 51
353.2995757864377993
  0
ARC
  5
23184
  8
0
 10
5693.3696383808255632
 20
-2.438246128406262
 30
0.0
 40
10.0618988466555503
 50
317.1543824174818837
 51
330.230037354372314
  0
ARC
  5
23185
  8
0
 10
5694.2733625573837344
 20
-3.276441390860469
 30
0.0
 40
8.8293045560255088
 50
313.4492906089959092
 51
317.1543824174818837
  0
ARC
  5
23186
  8
0
 10
5700.8121695962636295
 20
-10.0881485582305306
 30
0.0
 40
0.615885895100222
 50
139.2802173214190873
 51
175.0553731176408974
  0
ARC
  5
23187
  8
0
 10
5775.7758695461807292
 20
-7.0971871762510261
 30
0.0
 40
75.634373509706819
 50
182.2261078678243962
 51
186.6884430158771977
  0
ARC
  5
23188
  8
0
 10
5782.9928480470489376
 20
-6.2508628227178056
 30
0.0
 40
82.9008061690917373
 50
186.6884430158771977
 51
189.8501785034474949
  0
ARC
  5
23189
  8
0
 10
5758.7906986011403205
 20
-10.4531313794201104
 30
0.0
 40
58.3365414981360786
 50
189.8501785034474949
 51
190.9969289046051131
  0
ARC
  5
2318A
  8
0
 10
5746.0100458709293889
 20
-13.5774893069036793
 30
0.0
 40
45.1815424678399893
 50
189.2599910866553898
 51
190.2035405084394881
  0
ARC
  5
2318B
  8
0
 10
5701.1121842151105739
 20
-20.8976074575791699
 30
0.0
 40
0.3091391164669694
 50
9.2599910866553774
 51
35.2796622641340178
  0
ARC
  5
2318C
  8
0
 10
5698.7015798621068825
 20
-10.5506675352900992
 30
0.0
 40
1.6242083250575119
 50
341.8724661520138852
 51
21.6232272466637809
  0
LINE
  5
2318D
  8
0
 10
5702.4802756797689653
 20
-2.5001988090482419
 30
0.0
 11
5702.0842061587864009
 21
-2.5001988090482419
 31
0.0
  0
ARC
  5
2318E
  8
0
 10
5702.7740913362613355
 20
-2.41079880904823
 30
0.0
 40
0.1500000000000054
 50
90.0
 51
168.3460619898964126
  0
ARC
  5
2318F
  8
0
 10
5702.4802756797689653
 20
-2.350198809047924
 30
0.0
 40
0.149999999998466
 50
270.0
 51
348.3460619898963841
  0
LINE
  5
23190
  8
0
 10
5701.8773965306518221
 20
-2.3266649263485131
 30
0.0
 11
5701.8657825570599016
 21
-2.2607988090482531
 31
0.0
  0
ARC
  5
23191
  8
0
 10
5702.0842061587864009
 20
-2.2901988090482339
 30
0.0
 40
0.21
 50
189.9999999972924059
 51
270.0
  0
LINE
  5
23192
  8
0
 10
5701.8637476749836424
 20
-2.3061988090482539
 30
0.0
 11
5701.1663106873256766
 21
-2.3061988090482539
 31
0.0
  0
ARC
  5
23193
  8
0
 10
5701.8583900920502856
 20
-2.2580663026823231
 30
0.0
 40
0.0484297621713259
 50
276.351393527595576
 51
288.0783102385973962
  0
LINE
  5
23194
  8
0
 10
5700.8145339406837593
 20
-2.3778728210603211
 30
0.0
 11
5700.8197230752975884
 21
-2.5211988090482289
 31
0.0
  0
ARC
  5
23195
  8
0
 10
5700.1195869629491426
 20
1.932032540474466
 30
0.0
 40
4.3655739058284633
 50
278.3501692914866794
 51
286.1718309123717745
  0
ARC
  5
23196
  8
0
 10
5700.6496159643265855
 20
-2.3548661139189728
 30
0.0
 40
0.1777886854064971
 50
290.6805437737971829
 51
339.3407355721467979
  0
LINE
  5
23197
  8
0
 10
5700.7506339586589093
 20
-2.4207859407771082
 30
0.0
 11
5700.7558460313630349
 21
-2.3612116773193739
 31
0.0
  0
ARC
  5
23198
  8
0
 10
5700.641052541868703
 20
-2.4111988090482441
 30
0.0
 40
0.11
 50
270.0
 51
354.9999999860726803
  0
ARC
  5
23199
  8
0
 10
5700.8654274481496032
 20
-2.3707988090482379
 30
0.0
 40
0.11
 50
90.0
 51
174.9999999860710886
  0
ARC
  5
2319A
  8
0
 10
5699.2435170614699018
 20
-2.457733779265225
 30
0.0
 40
0.0991257481022578
 50
11.6726656745832091
 51
75.5274614261813326
  0
ARC
  5
2319B
  8
0
 10
5699.4496123591061405
 20
-2.4114769552680002
 30
0.0
 40
0.1121239738421587
 50
193.514121150408414
 51
258.1186945556175942
  0
LINE
  5
2319C
  8
0
 10
5699.4065020381249269
 20
-2.2607988090482531
 30
0.0
 11
5699.2506601886598219
 21
-2.3294163338482292
 31
0.0
  0
ARC
  5
2319D
  8
0
 10
5699.3493551171241052
 20
-2.5535689862425102
 30
0.0
 40
0.2449185588720329
 50
113.7640040439629985
 51
121.9496553987984981
  0
ARC
  5
2319E
  8
0
 10
5699.2278215336473295
 20
-2.3586937773503669
 30
0.0
 40
0.0152519331871565
 50
121.9496553987984981
 51
158.6678496586002041
  0
ARC
  5
2319F
  8
0
 10
5699.2185256733991991
 20
-2.353731892020249
 30
0.0
 40
0.0049460025213398
 50
173.1913123794869875
 51
251.9946415878218886
  0
ARC
  5
231A0
  8
0
 10
5699.2503743997167476
 20
-2.2405766825453659
 30
0.0
 40
0.1224940995345863
 50
254.1879240110469027
 51
278.4101458897659995
  0
LINE
  5
231A1
  8
0
 10
5703.0669134812596894
 20
-1.515907809048229
 30
0.0
 11
5701.2216650165946703
 21
-1.515907809048229
 31
0.0
  0
LINE
  5
231A2
  8
0
 10
5703.1259112582865782
 20
-1.4449870807860059
 30
0.0
 11
5703.0554102183332361
 21
-1.0621357435229291
 31
0.0
  0
ARC
  5
231A3
  8
0
 10
5703.0669134812596894
 20
-1.4559078090482549
 30
0.0
 40
0.06
 50
270.0
 51
10.4869831230952606
  0
ARC
  5
231A4
  8
0
 10
5702.08114913769532
 20
-7.1616833828893496
 30
0.0
 40
6.3547364976341756
 50
83.2287512551136075
 51
87.4950596151636546
  0
ARC
  5
231A5
  8
0
 10
5707.2336311802537239
 20
110.6165129121337998
 30
0.0
 40
111.5361096003893948
 50
267.2428705776114271
 51
267.4950596151635978
  0
ARC
  5
231A6
  8
0
 10
5682.4308106296612095
 20
-449.3766185726800018
 30
0.0
 40
449.0070638634986722
 50
87.5188714043776343
 51
88.118951494586625
  0
ARC
  5
231A7
  8
0
 10
5702.7997531845467165
 20
-1.1094588993259999
 30
0.0
 40
0.26
 50
10.4869831230952606
 51
83.2287512551136075
  0
LINE
  5
231A8
  8
0
 10
5702.5178215484647808
 20
-1.6109078090482281
 30
0.0
 11
5702.7958634303131475
 21
-1.6109078090482281
 31
0.0
  0
LINE
  5
231A9
  8
0
 10
5702.4428329615411712
 20
-1.537216178630558
 30
0.0
 11
5702.4424611819977144
 21
-1.515907809048229
 31
0.0
  0
ARC
  5
231AA
  8
0
 10
5702.5178215484647808
 20
-1.535907809048239
 30
0.0
 40
0.075
 50
180.9995714383510119
 51
270.0
  0
ARC
  5
231AB
  8
0
 10
5702.9160530382441721
 20
-1.5759177907691251
 30
0.0
 40
0.0600113036715814
 50
90.3803028075200956
 51
162.9490568634660974
  0
ARC
  5
231AC
  8
0
 10
5702.7862923399834472
 20
-1.5356638000469329
 30
0.0
 40
0.0758502911047976
 50
277.2491332855822748
 51
342.6197626896720863
  0
LINE
  5
231AD
  8
0
 10
5702.4811108933463402
 20
-1.601309091915339
 30
0.0
 11
5702.4645546722340441
 21
-1.662010269087687
 31
0.0
  0
ARC
  5
231AE
  8
0
 10
5700.9584882164053852
 20
-94.2327809093182651
 30
0.0
 40
92.5830211923090189
 50
88.7558730636778961
 51
89.6948962475378266
  0
ARC
  5
231AF
  8
0
 10
5687.4759910204766129
 20
-340.0097629129394932
 30
0.0
 40
338.6471884111272743
 50
87.6348099987282865
 51
87.727577444610418
  0
ARC
  5
231B0
  8
0
 10
5701.3534048722349326
 20
-1.672775135182234
 30
0.0
 40
0.1589152515886615
 50
99.208298959596803
 51
137.1855721441683897
  0
ARC
  5
231B1
  8
0
 10
5701.4641462711861095
 20
-1.7753746055273321
 30
0.0
 40
0.3098798459695812
 50
137.1855721441683897
 51
154.1337590829768942
  0
ARC
  5
231B2
  8
0
 10
5703.4429274359490591
 20
104.6707521361802975
 30
0.0
 40
106.1910438095652012
 50
268.7265611160630101
 51
269.4793765419750002
  0
ARC
  5
231B3
  8
0
 10
5702.7728874963640919
 20
74.5286388995107814
 30
0.0
 40
76.0414842125686619
 50
268.2439635990193096
 51
268.7265611160630101
  0
ARC
  5
231B4
  8
0
 10
5702.7659438895670974
 20
115.1959843867862929
 30
0.0
 40
116.6962468656536061
 50
268.4024454796382884
 51
268.8592463847829208
  0
ARC
  5
231B5
  8
0
 10
5697.7371313800813368
 20
-48.3571728541570565
 30
0.0
 40
46.9358613075917006
 50
87.8321576831334028
 51
89.1063035371168581
  0
ARC
  5
231B6
  8
0
 10
5700.2849968460141099
 20
227.4507715254098059
 30
0.0
 40
228.8849952489161979
 50
269.1701103014810883
 51
269.5454559317057033
  0
ARC
  5
231B7
  8
0
 10
5701.2272007058172676
 20
-1.4657579195694259
 30
0.0
 40
0.0504544871135402
 50
217.2928816463146973
 51
263.7010272877375883
  0
ARC
  5
231B8
  8
0
 10
5699.6981541462682799
 20
-1.639117856704672
 30
0.0
 40
1.2563940798225921
 50
0.3742638389593813
 51
6.6374110562903228
  0
ARC
  5
231B9
  8
0
 10
5700.9695041540626335
 20
-1.5533833328355511
 30
0.0
 40
0.063915174901051
 50
103.0333452086683934
 51
167.6602576209542121
  0
ARC
  5
231BA
  8
0
 10
5700.9652484256575917
 20
-1.5514137681421969
 30
0.0
 40
0.0593455256527898
 50
168.639842150699991
 51
179.0664595640020877
  0
ARC
  5
231BB
  8
0
 10
5676.3359132154173494
 20
-1.150083768400548
 30
0.0
 40
24.5732592628605708
 50
358.9100389761215979
 51
359.0664595640021162
  0
ARC
  5
231BC
  8
0
 10
5700.8295734305784208
 20
-1.6160928904658931
 30
0.0
 40
0.0751663730538694
 50
312.4163565895237866
 51
358.9100389761215979
  0
LINE
  5
231BD
  8
0
 10
5700.0843620533742069
 20
-1.4694481602426199
 30
0.0
 11
5700.0870256579146371
 21
-1.620206742049731
 31
0.0
  0
ARC
  5
231BE
  8
0
 10
5700.1626444084222385
 20
-1.6158311918061941
 30
0.0
 40
0.0757452366035425
 50
183.3116300617352863
 51
227.3981993122621077
  0
ARC
  5
231BF
  8
0
 10
5700.9399714813225728
 20
-2.0500495014088069
 30
0.0
 40
0.5138617224685892
 50
88.8445594228119688
 51
93.6039274202303488
  0
ARC
  5
231C0
  8
0
 10
5700.4750108554453618
 20
-8.6789983118917462
 30
0.0
 40
0.5225890030224518
 50
122.2484399560708965
 51
186.0042615791545018
  0
ARC
  5
231C1
  8
0
 10
5790.2622748691037486
 20
-7.9319675971075858
 30
0.0
 40
90.3105445834217448
 50
180.5086264490643941
 51
184.0198857622490891
  0
ARC
  5
231C2
  8
0
 10
5758.0564010939770014
 20
-10.5055124763263699
 30
0.0
 40
58.0043176142572321
 50
183.7141700631862875
 51
191.007990680389895
  0
ARC
  5
231C3
  8
0
 10
5700.0094291997256732
 20
-9.4591250891124616
 30
0.0
 40
0.4543786328497315
 50
343.0819084646557826
 51
10.0217064173823296
  0
ARC
  5
231C4
  8
0
 10
5692.4053028202779387
 20
-10.8029083125141696
 30
0.0
 40
8.1763273082885046
 50
10.0217064173823296
 51
12.7938753422481
  0
ARC
  5
231C5
  8
0
 10
5675.267309354320787
 20
-14.6946384091914997
 30
0.0
 40
25.7506376271762996
 50
12.7938753422481
 51
14.4024871687100298
  0
ARC
  5
231C6
  8
0
 10
5699.6622957258177848
 20
-8.391694650925956
 30
0.0
 40
0.5558204946174899
 50
10.5809314970887591
 51
35.5475548204267611
  0
ARC
  5
231C7
  8
0
 10
5699.6973897013867827
 20
-8.3931843921092195
 30
0.0
 40
0.5285751071909007
 50
37.8912005803084782
 51
71.1757758763032626
  0
ARC
  5
231C8
  8
0
 10
5699.3111745515079747
 20
-10.0879368963490492
 30
0.0
 40
2.2645662652909402
 50
75.7672837216199611
 51
97.7431292538351215
  0
ARC
  5
231C9
  8
0
 10
5695.2053817357109438
 20
45.7424370875129398
 30
0.0
 40
53.7210707907379117
 50
271.0655880930298736
 51
274.0569774079841068
  0
ARC
  5
231CA
  8
0
 10
5690.0838457016870962
 20
8.8907722639636404
 30
0.0
 40
0.6761396800870341
 50
116.9638921505276983
 51
170.9294520359050011
  0
ARC
  5
231CB
  8
0
 10
5690.0586982780278049
 20
8.940203848665476
 30
0.0
 40
0.6206791131692319
 50
74.0587140497134016
 51
116.9638921505276983
  0
ARC
  5
231CC
  8
0
 10
5690.0238577533409625
 20
8.8383177020748462
 30
0.0
 40
0.7282370173144505
 50
8.0958258685564335
 51
73.6246125267364704
  0
ARC
  5
231CD
  8
0
 10
5690.044644520951806
 20
8.8223589031168217
 30
0.0
 40
0.7101518415602119
 50
307.9453012030730861
 51
9.6069254508273474
  0
ARC
  5
231CE
  8
0
 10
5690.0978429484512162
 20
8.7758965966285984
 30
0.0
 40
0.6409392828119596
 50
242.8258775642995033
 51
306.7489424482487266
  0
ARC
  5
231CF
  8
0
 10
5690.1349032995758535
 20
8.8527478633478438
 30
0.0
 40
0.7262363547635184
 50
200.3324031339923863
 51
242.9937604672036002
  0
LINE
  5
231D0
  8
0
 10
5688.2315218943422224
 20
8.8845367038989025
 30
0.0
 11
5689.9642254048712857
 21
9.0495656197129506
 31
0.0
  0
LINE
  5
231D1
  8
0
 10
5688.0901190364247668
 20
8.7295272637076664
 30
0.0
 11
5689.8212238974956563
 21
8.5656294646633722
 31
0.0
  0
LINE
  5
231D2
  8
0
 10
5688.0836571896088572
 20
8.8368592969407018
 30
0.0
 11
5688.2315218943422224
 21
8.8845367038989025
 31
0.0
  0
ARC
  5
231D3
  8
0
 10
5688.0985021991600661
 20
8.8114123602989878
 30
0.0
 40
0.0294604971619254
 50
120.2580552110552929
 51
163.3486188612478998
  0
ARC
  5
231D4
  8
0
 10
5688.152295775949824
 20
8.7922209307823778
 30
0.0
 40
0.0865486036140078
 50
161.3805928511530112
 51
177.1490755608587051
  0
ARC
  5
231D5
  8
0
 10
5688.2480884147244069
 20
8.7870365805933943
 30
0.0
 40
0.1824810071897808
 50
177.0192600346939003
 51
189.4740858172002902
  0
ARC
  5
231D6
  8
0
 10
5688.1145321317262642
 20
8.765150498706447
 30
0.0
 40
0.0471455930889831
 50
189.9553554463049068
 51
215.6983086627928969
  0
ARC
  5
231D7
  8
0
 10
5688.0928306097503082
 20
8.7500835349976285
 30
0.0
 40
0.0207343415433463
 50
216.8792163964126019
 51
262.4855101591243169
  0
ARC
  5
231D8
  8
0
 10
5690.0003371970396984
 20
8.8567992451876023
 30
0.0
 40
0.2144495204743174
 50
89.3992199346542975
 51
119.823693149279805
  0
ARC
  5
231D9
  8
0
 10
5690.0002616399133331
 20
8.8495937035399947
 30
0.0
 40
0.2216554582560899
 50
61.712435519661291
 51
89.3992199346542975
  0
ARC
  5
231DA
  8
0
 10
5689.9882114652546079
 20
8.8272024595366645
 30
0.0
 40
0.247083287839233
 50
21.57402907734701
 51
61.712435519661291
  0
ARC
  5
231DB
  8
0
 10
5689.9729628064442295
 20
8.8211730823656467
 30
0.0
 40
0.2634806957018799
 50
344.1104727035528867
 51
21.57402907734701
  0
ARC
  5
231DC
  8
0
 10
5690.0082698560636345
 20
8.8111225815483465
 30
0.0
 40
0.2267710195996168
 50
312.4243451533516236
 51
344.1104727035528867
  0
ARC
  5
231DD
  8
0
 10
5690.0076295358830976
 20
8.8118232235211167
 30
0.0
 40
0.2277201819185251
 50
297.9540906165411229
 51
312.4243451533516236
  0
ARC
  5
231DE
  8
0
 10
5690.0163025365663998
 20
8.7954801035976118
 30
0.0
 40
0.2092183303980565
 50
272.780617579399518
 51
297.9540906165411229
  0
ARC
  5
231DF
  8
0
 10
5690.0153287678240304
 20
8.8155292576608417
 30
0.0
 40
0.2292911180523745
 50
260.8134064462375932
 51
272.780617579399518
  0
LINE
  5
231E0
  8
0
 10
5689.8805775883656679
 20
8.5688830876761983
 30
0.0
 11
5690.0783637051363257
 21
8.6097846012790722
 31
0.0
  0
ARC
  5
231E1
  8
0
 10
5689.8400752240404472
 20
8.7647390512921106
 30
0.0
 40
0.2
 50
264.5914639813896088
 51
281.6838820928044811
  0
ARC
  5
231E2
  8
0
 10
5690.0160004301706067
 20
8.8658257052958334
 30
0.0
 40
0.1961757917229913
 50
48.1332213427006224
 51
86.7906629801239831
  0
ARC
  5
231E3
  8
0
 10
5689.9704409067089728
 20
8.8149895187551692
 30
0.0
 40
0.2644398967857145
 50
15.24275999871214
 51
48.1332213427006224
  0
ARC
  5
231E4
  8
0
 10
5689.9835894379966703
 20
8.8219123503643573
 30
0.0
 40
0.2499546193437751
 50
341.8554996201468157
 51
14.5040814035741494
  0
ARC
  5
231E5
  8
0
 10
5690.0051802748839691
 20
8.8147607039760487
 30
0.0
 40
0.2272102897370184
 50
318.5954295698073793
 51
341.8737374314753197
  0
ARC
  5
231E6
  8
0
 10
5690.017321415493825
 20
8.8003809842984122
 30
0.0
 40
0.2086115900442877
 50
281.6996198332868744
 51
319.3523459762805032
  0
ARC
  5
231E7
  8
0
 10
5690.0160058449700955
 20
8.8067338463456224
 30
0.0
 40
0.2150992384621414
 50
264.4991808699044782
 51
281.6996198332868744
  0
ARC
  5
231E8
  8
0
 10
5690.029332413035263
 20
8.8116049441505311
 30
0.0
 40
0.2076909203644064
 50
283.6551856330530086
 51
314.0084566428546964
  0
ARC
  5
231E9
  8
0
 10
5691.3763138505291863
 20
3.461336510700078
 30
0.0
 40
5.7606160167816869
 50
103.5464590167065069
 51
103.8350962678732969
  0
ARC
  5
231EA
  8
0
 10
5689.8101589069610782
 20
10.1781182062529396
 30
0.0
 40
1.13902038013569
 50
277.7737867580672173
 51
279.5324478918466866
  0
ARC
  5
231EB
  8
0
 10
5689.9997103563855489
 20
8.8625813167516014
 30
0.0
 40
0.3076717556992127
 50
103.9162511492468042
 51
147.4206082842617036
  0
ARC
  5
231EC
  8
0
 10
5689.9984819928904471
 20
8.8675388729857332
 30
0.0
 40
0.3025642865905723
 50
65.6284981540519681
 51
103.9162511492468042
  0
ARC
  5
231ED
  8
0
 10
5689.9794536820390931
 20
8.8255356743335938
 30
0.0
 40
0.3486765985129132
 50
23.9278752083805699
 51
65.6284981540519681
  0
ARC
  5
231EE
  8
0
 10
5689.9617232253831389
 20
8.8176682951632017
 30
0.0
 40
0.3680741434151589
 50
349.2406795209848838
 51
23.9278752083805699
  0
ARC
  5
231EF
  8
0
 10
5689.9991571550363005
 20
8.8105549323728383
 30
0.0
 40
0.3299703506978473
 50
307.0794367243312877
 51
349.2406795209832922
  0
ARC
  5
231F0
  8
0
 10
5690.0194039915431858
 20
8.7837638355628371
 30
0.0
 40
0.2963891467761269
 50
264.1553706497948042
 51
307.0794367243312877
  0
ARC
  5
231F1
  8
0
 10
5690.0224523015649538
 20
8.8135431539440106
 30
0.0
 40
0.3263240761601607
 50
229.1252143630073022
 51
264.1553706497948042
  0
LINE
  5
231F2
  8
0
 10
5688.0836571896088572
 20
8.8368592969407018
 30
0.0
 11
5689.8276883682028711
 21
9.0037738301910224
 31
0.0
  0
ARC
  5
231F3
  8
0
 10
5689.8200957874851156
 20
8.7837743031507785
 30
0.0
 40
0.2201305048826074
 50
15.2587156595655298
 51
88.0234037479899598
  0
ARC
  5
231F4
  8
0
 10
5689.8010079693804073
 20
8.7785672471151486
 30
0.0
 40
0.2399158083316268
 50
335.0490425584507079
 51
15.2587156595655298
  0
ARC
  5
231F5
  8
0
 10
5689.8369964137200441
 20
8.7657949201459928
 30
0.0
 40
0.2019303997558
 50
284.6630705876318075
 51
334.0271902910379254
  0
LINE
  5
231F6
  8
0
 10
5689.8276883682028711
 20
9.0037738301910224
 30
0.0
 11
5689.9607389538196003
 21
9.0492335575721938
 31
0.0
  0
ARC
  5
231F7
  8
0
 10
5690.0874386578825579
 20
8.88023994119294
 30
0.0
 40
0.6697656858083429
 50
133.2215270133617082
 51
169.8289204969669868
  0
ARC
  5
231F8
  8
0
 10
5690.0452009353411995
 20
8.9251846955223755
 30
0.0
 40
0.6080886548540383
 50
99.3174800412221259
 51
133.2215270133617082
  0
ARC
  5
231F9
  8
0
 10
5690.0478618384604488
 20
8.9089665554888882
 30
0.0
 40
0.6245236319319991
 50
60.863637714539621
 51
99.3174800412221259
  0
ARC
  5
231FA
  8
0
 10
5690.0066810497655752
 20
8.8350896524213152
 30
0.0
 40
0.7091029093244581
 50
21.0371998802553897
 51
60.863637714539621
  0
ARC
  5
231FB
  8
0
 10
5689.9786753531307113
 20
8.8243184052209926
 30
0.0
 40
0.7391085556313498
 50
338.6909552555696905
 51
21.0371998802553897
  0
ARC
  5
231FC
  8
0
 10
5690.0765939816210448
 20
8.7861237189991925
 30
0.0
 40
0.6340043603731691
 50
294.8263333783074813
 51
338.6909552555696905
  0
ARC
  5
231FD
  8
0
 10
5690.0866629275333253
 20
8.7643588002408137
 30
0.0
 40
0.6100232144385846
 50
249.7188001565679087
 51
294.8263333783074813
  0
ARC
  5
231FE
  8
0
 10
5690.1147087965528044
 20
8.8402531594829838
 30
0.0
 40
0.6909338103692934
 50
225.1871041254499062
 51
249.7188001565679087
  0
ARC
  5
231FF
  8
0
 10
5690.1242732157261344
 20
8.8498802503486047
 30
0.0
 40
0.7045043296171708
 50
200.8374191446683028
 51
225.1871041254499062
  0
ARC
  5
23200
  8
0
 10
5648.1985755668765705
 20
1.0202144872714589
 30
0.0
 40
41.2277474881414818
 50
11.0546998642289402
 51
13.4416367833090007
  0
ARC
  5
23201
  8
0
 10
5623.4830077750748387
 20
-3.6368137634426598
 30
0.0
 40
66.3792150602063487
 50
5.0324909227239498
 51
10.68517981000433
  0
ARC
  5
23202
  8
0
 10
5620.0706520627627469
 20
-3.937306169344196
 30
0.0
 40
69.8047759184232604
 50
2.5526474044964091
 51
5.0324909227239498
  0
ARC
  5
23203
  8
0
 10
5745.7314507906876315
 20
0.6733599531226844
 30
0.0
 40
42.787876459292761
 50
166.5801220484262899
 51
169.2276578403320002
  0
ARC
  5
23204
  8
0
 10
5768.9258516784466337
 20
-3.6368137634426598
 30
0.0
 40
66.3792150602063487
 50
169.314820189995686
 51
174.9675090772759916
  0
ARC
  5
23205
  8
0
 10
5772.338207390757816
 20
-3.937306169344196
 30
0.0
 40
69.8047759184232604
 50
174.9675090772759916
 51
177.4473525955035882
  0
ARC
  5
23206
  8
0
 10
5691.1754230867427395
 20
-1.752973316622217
 30
0.0
 40
0.2373575774361331
 50
30.1236383096519695
 51
87.157346035828354
  0
ARC
  5
23207
  8
0
 10
5689.696136477960863
 20
-0.6116750102816014
 30
0.0
 40
0.2669397956756429
 50
243.8406111149726883
 51
267.9927625861478191
  0
ARC
  5
23208
  8
0
 10
5690.2032979986106511
 20
4.5285262753215809
 30
0.0
 40
5.4315916009128724
 50
264.5432750639029109
 51
266.9250480616257164
  0
ARC
  5
23209
  8
0
 10
5691.7581284937496093
 20
34.8723247726341015
 30
0.0
 40
35.8151850248086632
 50
267.045219967721323
 51
268.4345326026150929
  0
ARC
  5
2320A
  8
0
 10
5696.5529350244205489
 20
208.5718129874595093
 30
0.0
 40
209.5808375199308102
 50
268.4214942609258969
 51
269.3588311113296072
  0
LINE
  5
2320B
  8
0
 10
5694.2076678994653776
 20
-0.9959020300694589
 30
0.0
 11
5698.2011915540551854
 21
-0.9959020300694589
 31
0.0
  0
ARC
  5
2320C
  8
0
 10
5702.7127229755597
 20
-0.6116750102815729
 30
0.0
 40
0.266939795675659
 50
272.0072374138521809
 51
296.1593888850264875
  0
ARC
  5
2320D
  8
0
 10
5702.2055614549080929
 20
4.5285262753215809
 30
0.0
 40
5.4315916009128724
 50
273.0749519383742268
 51
275.4567249360972028
  0
ARC
  5
2320E
  8
0
 10
5700.6507309597691346
 20
34.8723247726341015
 30
0.0
 40
35.8151850248086632
 50
271.5654673973849071
 51
272.954780032278677
  0
ARC
  5
2320F
  8
0
 10
5695.8559244290981951
 20
208.5718129874595093
 30
0.0
 40
209.5808375199308102
 50
270.6411688886705065
 51
271.5785057390739894
  0
LINE
  5
23210
  8
0
 10
5703.3621915060230094
 20
-2.954643704952701
 30
0.0
 11
5689.0466559816086374
 21
-2.954643704952701
 31
0.0
  0
LINE
  5
23212
  8
0
 10
5695.2395749442766828
 20
-0.6115121004622779
 30
0.0
 11
5697.1692845092420612
 21
-0.6115121004622779
 31
0.0
  0
ENDSEC
  0
EOF
