  0
SECTION
  2
HEADER
  9
$ACADVER
  1
AC1009
  9
$INSBASE
 10
3577.9829804442438217
 20
143.9289051417977987
 30
0.0
  9
$EXTMIN
 10
3570.1505469648118378
 20
142.718448359944091
 30
-0.0015258207003583
  9
$EXTMAX
 10
3585.7435868422858221
 20
146.8871770013091123
 30
0.0000000349246037
  9
$LIMMIN
 10
0.0
 20
0.0
  9
$LIMMAX
 10
11.6929133858000007
 20
8.2677165353999982
  9
$ORTHOMODE
 70
     0
  9
$REGENMODE
 70
     1
  9
$FILLMODE
 70
     1
  9
$QTEXTMODE
 70
     0
  9
$MIRRTEXT
 70
     0
  9
$DRAGMODE
 70
     2
  9
$LTSCALE
 40
0.6431102362
  9
$OSMODE
 70
  4095
  9
$ATTMODE
 70
     1
  9
$TEXTSIZE
 40
0.2
  9
$TRACEWID
 40
0.05
  9
$TEXTSTYLE
  7
STANDARD
  9
$CLAYER
  8
0
  9
$CELTYPE
  6
BYLAYER
  9
$CECOLOR
 62
   256
  9
$DIMSCALE
 40
1.0
  9
$DIMASZ
 40
0.1875
  9
$DIMEXO
 40
0.0625
  9
$DIMDLI
 40
0.4443307087
  9
$DIMRND
 40
0.0
  9
$DIMDLE
 40
0.0
  9
$DIMEXE
 40
0.125
  9
$DIMTP
 40
0.01
  9
$DIMTM
 40
0.01
  9
$DIMTXT
 40
2.0
  9
$DIMCEN
 40
0.1052362205
  9
$DIMTSZ
 40
0.0
  9
$DIMTOL
 70
     1
  9
$DIMLIM
 70
     0
  9
$DIMTIH
 70
     1
  9
$DIMTOH
 70
     1
  9
$DIMSE1
 70
     0
  9
$DIMSE2
 70
     0
  9
$DIMTAD
 70
     0
  9
$DIMZIN
 70
     0
  9
$DIMBLK
  1

  9
$DIMASO
 70
     1
  9
$DIMSHO
 70
     1
  9
$DIMPOST
  1
\X
  9
$DIMAPOST
  1

  9
$DIMALT
 70
     1
  9
$DIMALTD
 70
     2
  9
$DIMALTF
 40
25.3999999999999986
  9
$DIMLFAC
 40
1.0
  9
$DIMTOFL
 70
     0
  9
$DIMTVP
 40
0.0
  9
$DIMTIX
 70
     0
  9
$DIMSOXD
 70
     0
  9
$DIMSAH
 70
     0
  9
$DIMBLK1
  1

  9
$DIMBLK2
  1

  9
$DIMSTYLE
  2
STANDARD
  9
$DIMCLRD
 70
     0
  9
$DIMCLRE
 70
     0
  9
$DIMCLRT
 70
     0
  9
$DIMTFAC
 40
1.0
  9
$DIMGAP
 40
0.09
  9
$LUNITS
 70
     2
  9
$LUPREC
 70
     4
  9
$SKETCHINC
 40
0.1
  9
$FILLETRAD
 40
0.0
  9
$AUNITS
 70
     0
  9
$AUPREC
 70
     0
  9
$MENU
  1
.
  9
$ELEVATION
 40
0.0
  9
$PELEVATION
 40
0.0
  9
$THICKNESS
 40
0.0
  9
$LIMCHECK
 70
     0
  9
$BLIPMODE
 70
     0
  9
$CHAMFERA
 40
0.0
  9
$CHAMFERB
 40
0.0
  9
$SKPOLY
 70
     0
  9
$TDCREATE
 40
2458060.468368056230247
  9
$TDUPDATE
 40
2459088.9491319442167878
  9
$TDINDWG
 40
0.5537454861
  9
$TDUSRTIMER
 40
0.5537454861
  9
$USRTIMER
 70
     1
  9
$ANGBASE
 50
0.0
  9
$ANGDIR
 70
     0
  9
$PDMODE
 70
     0
  9
$PDSIZE
 40
0.3125
  9
$PLINEWID
 40
0.0
  9
$COORDS
 70
     1
  9
$SPLFRAME
 70
     0
  9
$SPLINETYPE
 70
     6
  9
$SPLINESEGS
 70
     8
  9
$ATTDIA
 70
     1
  9
$ATTREQ
 70
     1
  9
$HANDLING
 70
     1
  9
$HANDSEED
  5
F1D2
  9
$SURFTAB1
 70
     6
  9
$SURFTAB2
 70
     6
  9
$SURFTYPE
 70
     6
  9
$SURFU
 70
     6
  9
$SURFV
 70
     6
  9
$UCSNAME
  2

  9
$UCSORG
 10
0.0
 20
0.0
 30
0.0
  9
$UCSXDIR
 10
1.0
 20
0.0
 30
0.0
  9
$UCSYDIR
 10
0.0
 20
1.0
 30
0.0
  9
$PUCSNAME
  2

  9
$PUCSORG
 10
0.0
 20
0.0
 30
0.0
  9
$PUCSXDIR
 10
1.0
 20
0.0
 30
0.0
  9
$PUCSYDIR
 10
0.0
 20
1.0
 30
0.0
  9
$USERI1
 70
     0
  9
$USERI2
 70
     0
  9
$USERI3
 70
     0
  9
$USERI4
 70
     0
  9
$USERI5
 70
     0
  9
$USERR1
 40
0.0
  9
$USERR2
 40
0.0
  9
$USERR3
 40
0.0
  9
$USERR4
 40
0.0
  9
$USERR5
 40
0.0
  9
$WORLDVIEW
 70
     1
  9
$SHADEDGE
 70
     3
  9
$SHADEDIF
 70
    70
  9
$TILEMODE
 70
     1
  9
$MAXACTVP
 70
    64
  9
$PLIMCHECK
 70
     0
  9
$PEXTMIN
 10
1.0000000000000000E+20
 20
1.0000000000000000E+20
 30
1.0000000000000000E+20
  9
$PEXTMAX
 10
-1.0000000000000000E+20
 20
-1.0000000000000000E+20
 30
-1.0000000000000000E+20
  9
$PLIMMIN
 10
0.0
 20
0.0
  9
$PLIMMAX
 10
12.0
 20
9.0
  9
$UNITMODE
 70
     0
  9
$VISRETAIN
 70
     1
  9
$PLINEGEN
 70
     0
  9
$PSLTSCALE
 70
     1
  0
ENDSEC
  0
SECTION
  2
TABLES
  0
TABLE
  2
VPORT
 70
     1
  0
VPORT
  2
*ACTIVE
 70
     0
 10
0.0
 20
0.0
 11
1.0
 21
1.0
 12
274.2539516691741142
 22
-50.4586988952611293
 13
0.0
 23
0.0
 14
1.0
 24
1.0
 15
0.0
 25
0.0
 16
0.0
 26
0.0
 36
96.5995694866707311
 17
3303.693115234375
 27
195.2615115758877096
 37
0.0
 40
5.90574894007114
 41
2.6486111111111108
 42
50.0
 43
0.0
 44
0.0
 50
0.0
 51
0.0
 71
     0
 72
   100
 73
     1
 74
     1
 75
     0
 76
     0
 77
     0
 78
     0
  0
ENDTAB
  0
TABLE
  2
LTYPE
 70
     2
  0
LTYPE
  2
CONTINUOUS
 70
     0
  3
Solid line
 72
    65
 73
     0
 40
0.0
  0
LTYPE
  2
PHANTOM2
 70
     0
  3
___ _ _ ___ _ _ ___ _ _ ___ _ _
 72
    65
 73
     6
 40
1.25
 49
0.625
 49
-0.125
 49
0.125
 49
-0.125
 49
0.125
 49
-0.125
  0
ENDTAB
  0
TABLE
  2
LAYER
 70
     2
  0
LAYER
  2
0
 70
     0
 62
   255
  6
CONTINUOUS
  0
LAYER
  2
DEFPOINTS
 70
     0
 62
     7
  6
CONTINUOUS
  0
ENDTAB
  0
TABLE
  2
STYLE
 70
     1
  0
STYLE
  2
STANDARD
 70
     0
 40
0.0
 41
0.8
 50
0.0
 71
     0
 42
0.2
  3
txt
  4

  0
ENDTAB
  0
TABLE
  2
VIEW
 70
     0
  0
ENDTAB
  0
TABLE
  2
UCS
 70
     0
  0
ENDTAB
  0
TABLE
  2
APPID
 70
     9
  0
APPID
  2
ACAD
 70
     0
  0
APPID
  2
ACAD_MLEADERVER
 70
     0
  0
APPID
  2
ACAD_EXEMPT_FROM_CAD_STANDARDS
 70
     0
  0
APPID
  2
ACAD_NAV_VCDISPLAY
 70
     0
  0
APPID
  2
ACAECLAYERSTANDARD
 70
     0
  0
APPID
  2
ACCMTRANSPARENCY
 70
     0
  0
APPID
  2
ACAD_DSTYLE_DIMJAG
 70
     0
  0
APPID
  2
ACAD_DSTYLE_DIMTALN
 70
     0
  0
APPID
  2
ACDBATTR
 70
     0
  0
ENDTAB
  0
TABLE
  2
DIMSTYLE
 70
     1
  0
DIMSTYLE
  2
STANDARD
 70
     0
  3

  4

  5

  6

  7

 40
1.0
 41
0.1875
 42
0.0625
 43
0.38
 44
0.125
 45
0.0
 46
0.0
 47
0.01
 48
0.01
140
0.15625
141
0.09
142
0.0
143
25.3999999999999986
144
1.0
145
0.0
146
1.0
147
0.09
 71
     1
 72
     0
 73
     1
 74
     1
 75
     0
 76
     0
 77
     0
 78
     4
170
     0
171
     2
172
     0
173
     0
174
     0
175
     0
176
     0
177
     0
178
     0
  0
ENDTAB
  0
ENDSEC
  0
SECTION
  2
BLOCKS
  0
BLOCK
  8
0
  2
$MODEL_SPACE
 70
     0
 10
0.0
 20
0.0
 30
0.0
  3
$MODEL_SPACE
  1

  0
ENDBLK
  5
21
  8
0
  0
BLOCK
 67
     1
  8
0
  2
$PAPER_SPACE
 70
     0
 10
0.0
 20
0.0
 30
0.0
  3
$PAPER_SPACE
  1

  0
ENDBLK
  5
1D
 67
     1
  8
0
  0
BLOCK
  8
0
  2
_FILLED
 70
     0
 10
0.0
 20
0.0
 30
0.0
  3
_FILLED
  1

  0
SOLID
  5
9E2C
  8
0
  6
BYBLOCK
 62
     0
 10
0.0
 20
0.0
 30
0.0
 11
-1.0
 21
0.1666666667
 31
0.0
 12
-1.0
 22
-0.1666666667
 32
0.0
 13
-1.0
 23
-0.1666666667
 33
0.0
  0
ENDBLK
  5
9E2D
  8
0
  6
BYBLOCK
 62
     0
  0
BLOCK
  8
0
  2
A$C6B0F1CD5
 70
     2
 10
0.0
 20
0.0
 30
0.0
  3
A$C6B0F1CD5
  1

  0
ATTDEF
  5
B779
  8
DEFPOINTS
 10
0.0005209962714616
 20
0.000347009907216
 30
0.0
 40
0.001
  1
BATH FAUCET
  3

  2
PRODUCT
 70
     0
1001
ACDBATTR
1070
     0
1070
     1
  0
ATTDEF
  5
B77A
  8
DEFPOINTS
 10
0.0005209962714616
 20
0.0020136765738812
 30
0.0
 40
0.001
  1
SINGULIER
  3

  2
TRADENAME
 70
     0
1001
ACDBATTR
1070
     0
1070
     1
  0
ATTDEF
  5
B77B
  8
DEFPOINTS
 10
0.0005209962714616
 20
0.0036803432405463
 30
0.0
 40
0.001
  1
K-10873W
  3

  2
MODELNUMBER
 70
     0
1001
ACDBATTR
1070
     0
1070
     1
  0
ENDBLK
  5
B77F
  8
0
  0
ENDSEC
  0
SECTION
  2
ENTITIES
  0
ATTDEF
  5
EA04
  8
DEFPOINTS
 10
3577.982859562844169
 20
143.9329229603067972
 30
0.0
 40
0.001
  1
K-4417IN
  3

  2
MODELNUMBER
 70
     0
1001
ACDBATTR
1070
     0
1070
     1
  0
ATTDEF
  5
EA05
  8
DEFPOINTS
 10
3577.982859562844169
 20
143.9312562936401036
 30
0.0
 40
0.001
  1
ESCALE
  3

  2
TRADENAME
 70
     0
1001
ACDBATTR
1070
     0
1070
     1
  0
ATTDEF
  5
EA06
  8
DEFPOINTS
 10
3577.982859562844169
 20
143.9295896269734953
 30
0.0
 40
0.001
  1
TOILET SEAT
  3

  2
PRODUCT
 70
     0
1001
ACDBATTR
1070
     0
1070
     1
  0
ARC
  5
EE93
  8
0
 10
3577.9884929296149494
 20
37.1842498641609609
 30
0.0
 40
109.6929356669346021
 50
90.0028791854697943
 51
90.3360914501166548
  0
ARC
  5
EE94
  8
0
 10
3577.686400880787005
 20
88.6833311197894147
 30
0.0
 40
58.1929683875295893
 50
90.3360914501166548
 51
92.9233964616011292
  0
ARC
  5
EE95
  8
0
 10
3575.4488687699899856
 20
129.7151489841889997
 30
0.0
 40
17.1010221871531414
 50
92.4477425047302575
 51
100.7798732965034958
  0
ARC
  5
EE96
  8
0
 10
3573.6818044908909542
 20
139.2837635278438881
 30
0.0
 40
7.3709561087174569
 50
101.1980496329179005
 51
113.8030081228007049
  0
ARC
  5
EE97
  8
0
 10
3570.797350441459912
 20
145.8311306908375116
 30
0.0
 40
0.2163978588602621
 50
114.6968384160450967
 51
166.1281373747295049
  0
ARC
  5
EE98
  8
0
 10
3571.3556173391211814
 20
145.6345402837405913
 30
0.0
 40
0.8075303544456987
 50
162.0796975437193908
 51
174.4513186464396881
  0
ARC
  5
EE99
  8
0
 10
4011.0597429586218823
 20
83.4744273440755364
 30
0.0
 40
444.882881556318182
 50
171.9580600580929968
 51
172.1629845085915917
  0
ARC
  5
EE9A
  8
0
 10
3570.4103245666528892
 20
144.1260224635896918
 30
0.0
 40
0.0789630963646481
 50
172.2259262266632902
 51
267.4594795997502956
  0
LINE
  5
EE9B
  8
0
 10
3570.4068244549439441
 20
144.0471369781978126
 30
0.0
 11
3585.5591369864428088
 21
144.0471369781978126
 31
0.0
  0
LINE
  5
EE9C
  8
0
 10
3582.8491221764929833
 20
143.9289051417977987
 30
0.0
 11
3573.1168392648942245
 21
143.9289051417977987
 31
0.0
  0
ARC
  5
EE9D
  8
0
 10
3573.1169822087240391
 20
143.9605441486365862
 30
0.0
 40
0.0316393297445044
 50
180.2588618488366876
 51
269.7411416075383954
  0
LINE
  5
EE9E
  8
0
 10
3573.0853432018930107
 20
143.9604012028977991
 30
0.0
 11
3573.0853432018930107
 21
144.0471369781978126
 31
0.0
  0
ARC
  5
EE9F
  8
0
 10
3572.733176471554998
 20
144.5054947894460042
 30
0.0
 40
0.5770912793341343
 50
272.389127454544905
 51
307.4150259956284117
  0
LINE
  5
EEA0
  8
0
 10
3572.7572331319320256
 20
143.9289051417977987
 30
0.0
 11
3572.288231709154843
 21
143.9289051417977987
 31
0.0
  0
ARC
  5
EEA1
  8
0
 10
3572.3051798784408675
 20
144.4853099745023997
 30
0.0
 40
0.5566628946671562
 50
231.9192654309715067
 51
268.2553019708220177
  0
ARC
  5
EEA2
  8
0
 10
3571.8015382658609269
 20
144.6015029546692006
 30
0.0
 40
0.5938051293255946
 50
264.4671482529715831
 51
287.3307158383660749
  0
ARC
  5
EEA3
  8
0
 10
3571.800578811556079
 20
144.591598170750899
 30
0.0
 40
0.5838539838120901
 50
248.832649885810099
 51
264.4671482529715831
  0
LINE
  5
EEA4
  8
0
 10
3573.9340950970940867
 20
143.9289051417977987
 30
0.0
 11
3573.9512697895970632
 21
143.9151085454475947
 31
0.0
  0
LINE
  5
EEA5
  8
0
 10
3573.951931436094128
 20
143.9156402746978074
 30
0.0
 11
3573.9317998947940396
 21
143.8993775826978094
 31
0.0
  0
LINE
  5
EEA6
  8
0
 10
3573.9317998947940396
 20
143.8993775826978094
 30
0.0
 11
3573.9317998947940396
 21
143.8915035669978977
 31
0.0
  0
LINE
  5
EEA7
  8
0
 10
3573.9317998947940396
 20
143.8915035669978977
 30
0.0
 11
3573.9512788648280548
 21
143.8757497950597042
 31
0.0
  0
LINE
  5
EEA8
  8
0
 10
3573.9519420344940954
 20
143.876282763997807
 30
0.0
 11
3573.9439378189940726
 21
143.8698500236978077
 31
0.0
  0
LINE
  5
EEA9
  8
0
 10
3573.7703860882938898
 20
143.8698500236978077
 30
0.0
 11
3574.3215601579940994
 21
143.8698500236978077
 31
0.0
  0
LINE
  5
EEAA
  8
0
 10
3574.3215601579940994
 20
143.8698500236978077
 30
0.0
 11
3574.3215636742938841
 21
143.082448448897793
 31
0.0
  0
LINE
  5
EEAB
  8
0
 10
3574.3215636742938841
 20
143.082448448897793
 30
0.0
 11
3573.7703860882938898
 21
143.082448448897793
 31
0.0
  0
LINE
  5
EEAC
  8
0
 10
3573.7703860882938898
 20
143.082448448897793
 30
0.0
 11
3573.7703860882938898
 21
143.8698500236978077
 31
0.0
  0
ARC
  5
EEAD
  8
0
 10
3573.9768187296958786
 20
143.8365975151183989
 30
0.0
 40
0.0828681798085623
 50
93.8087026005696458
 51
107.4770573670595013
  0
ARC
  5
EEAE
  8
0
 10
3573.3805354554569931
 20
152.793499951164506
 30
0.0
 40
8.8938603441017445
 50
273.8087026005695748
 51
274.6493107064102901
  0
LINE
  5
EEAF
  8
0
 10
3574.1480394018940387
 20
143.9289051417977987
 30
0.0
 11
3574.1601463514939496
 21
143.9190626220978118
 31
0.0
  0
LINE
  5
EEB0
  8
0
 10
3574.1601463514939496
 20
143.9190626220978118
 30
0.0
 11
3574.1601463514939496
 21
143.9111886063977863
 31
0.0
  0
LINE
  5
EEB1
  8
0
 10
3574.1601463514939496
 20
143.9111886063977863
 30
0.0
 11
3574.1400777347939766
 21
143.8949724356978095
 31
0.0
  0
LINE
  5
EEB2
  8
0
 10
3574.1406659333838434
 20
143.8954477215083045
 30
0.0
 11
3574.1601463514939496
 21
143.8796925433977094
 31
0.0
  0
LINE
  5
EEB3
  8
0
 10
3574.1601463514939496
 20
143.8796925433977094
 30
0.0
 11
3574.1601463514939496
 21
143.8718185275978101
 31
0.0
  0
LINE
  5
EEB4
  8
0
 10
3574.1601463514939496
 20
143.8718185275978101
 30
0.0
 11
3574.1578080437930112
 21
143.8698500236978077
 31
0.0
  0
ARC
  5
EEB5
  8
0
 10
3574.1513329926619917
 20
143.8927187532916889
 30
0.0
 40
0.0230809420814273
 50
277.775523652951108
 51
289.9176456416502106
  0
ARC
  5
EEB6
  8
0
 10
3574.0941957346931304
 20
144.2024466237787124
 30
0.0
 40
0.3294232539742599
 50
271.5970462033986905
 51
281.548669170958874
  0
ARC
  5
EEB7
  8
0
 10
3573.6821401547299502
 20
150.696982055289709
 30
0.0
 40
6.8368198770276507
 50
273.0505613963674136
 51
273.5323993255985897
  0
ARC
  5
EEB8
  8
0
 10
3573.9604438829919673
 20
143.8592313129412048
 30
0.0
 40
0.0190534356748125
 50
95.946557789868379
 51
116.5008305214419977
  0
ARC
  5
EEB9
  8
0
 10
3574.1883646621768094
 20
141.6710786999107938
 30
0.0
 40
2.2190442855413148
 50
93.6790012925816029
 51
95.946557789868379
  0
ARC
  5
EEBA
  8
0
 10
3574.0107954919731128
 20
144.7113806796442077
 30
0.0
 40
0.8265797121310882
 50
272.4393474349008102
 51
278.9985160008617981
  0
ARC
  5
EEBB
  8
0
 10
3574.0769943109257838
 20
144.3617931409075936
 30
0.0
 40
0.4582125144203629
 50
271.3920281345609169
 51
280.4554222738984777
  0
ARC
  5
EEBC
  8
0
 10
3574.1050002984929961
 20
143.209295489604898
 30
0.0
 40
0.6946253629925712
 50
91.3920281345609027
 51
94.8749947179318553
  0
ARC
  5
EEBD
  8
0
 10
3574.3293549212748985
 20
138.6375369520748961
 30
0.0
 40
5.271493714640088
 50
93.0815960816354391
 51
93.9385792286178969
  0
ARC
  5
EEBE
  8
0
 10
3573.9736870529432053
 20
143.7253091344610141
 30
0.0
 40
0.1713917250747984
 50
92.1451805923015144
 51
104.1460407064546985
  0
ARC
  5
EEBF
  8
0
 10
3574.0099230706350681
 20
143.4854157846122007
 30
0.0
 40
0.4212690362201918
 50
91.5675258266172563
 51
100.6872079896598962
  0
ARC
  5
EEC0
  8
0
 10
3575.3683127674607931
 20
120.2112295244189966
 30
0.0
 40
23.734864520213371
 50
93.1227831969244448
 51
93.3087995375951067
  0
ARC
  5
EEC1
  8
0
 10
3574.0584183930118343
 20
144.527562176024702
 30
0.0
 40
0.6169443124513428
 50
271.5712843815705924
 51
279.4908454236664284
  0
LINE
  5
EEC2
  8
0
 10
3573.7979416270932234
 20
143.082448448897793
 30
0.0
 11
3573.7900676112940346
 21
143.0745744330978084
 31
0.0
  0
LINE
  5
EEC3
  8
0
 10
3573.7900676112940346
 20
143.0745744330978084
 30
0.0
 11
3574.3018786348930007
 21
143.0745744330978084
 31
0.0
  0
LINE
  5
EEC4
  8
0
 10
3574.3018786348930007
 20
143.0745744330978084
 30
0.0
 11
3574.2940046191929468
 21
143.082448448897793
 31
0.0
  0
LINE
  5
EEC5
  8
0
 10
3574.3018786348930007
 20
143.0745744330978084
 30
0.0
 11
3574.3018786348930007
 21
142.8934720708977864
 31
0.0
  0
LINE
  5
EEC6
  8
0
 10
3574.3018786348930007
 20
142.8934720708977864
 30
0.0
 11
3574.2940046191929468
 21
142.8855980551977893
 31
0.0
  0
LINE
  5
EEC7
  8
0
 10
3574.2940046191929468
 20
142.8855980551977893
 30
0.0
 11
3573.7979416270932234
 21
142.8855980551977893
 31
0.0
  0
LINE
  5
EEC8
  8
0
 10
3573.7979416270932234
 20
142.8855980551977893
 30
0.0
 11
3573.7900676112940346
 21
142.8934720708977864
 31
0.0
  0
LINE
  5
EEC9
  8
0
 10
3573.7900676112940346
 20
142.8934720708977864
 30
0.0
 11
3573.7900676112940346
 21
143.0745744330978084
 31
0.0
  0
LINE
  5
EECA
  8
0
 10
3573.7900676112940346
 20
142.8934720708977864
 30
0.0
 11
3574.3018786348930007
 21
142.8934720708977864
 31
0.0
  0
LINE
  5
EECB
  8
0
 10
3573.9438350533928315
 20
142.8855980551977893
 30
0.0
 11
3573.9317998947940396
 21
142.8757555354978024
 31
0.0
  0
LINE
  5
EECC
  8
0
 10
3573.9317998947940396
 20
142.8757555354978024
 30
0.0
 11
3573.9317998947940396
 21
142.8678815196979031
 31
0.0
  0
LINE
  5
EECD
  8
0
 10
3573.9317998947940396
 20
142.8678815196979031
 30
0.0
 11
3573.9511825177792161
 21
142.8521177548674075
 31
0.0
  0
LINE
  5
EECE
  8
0
 10
3573.9511825177792161
 20
142.8521177548674075
 30
0.0
 11
3573.9317998947940396
 21
142.8363854566977977
 31
0.0
  0
LINE
  5
EECF
  8
0
 10
3573.9317998947940396
 20
142.8363854566977977
 30
0.0
 11
3573.9317998947940396
 21
142.8285114409979997
 31
0.0
  0
ARC
  5
EED0
  8
0
 10
3573.9545500559388529
 20
142.8489166244623902
 30
0.0
 40
0.0046462403216775
 50
107.1605075029709013
 51
136.4511956269645054
  0
ARC
  5
EED1
  8
0
 10
3573.9694981365869353
 20
142.8005073623457974
 30
0.0
 40
0.0553108411167155
 50
93.1679177544356065
 51
107.1599805354423012
  0
ARC
  5
EED2
  8
0
 10
3573.8353648081001666
 20
145.2240048112213913
 30
0.0
 40
2.3718957085030952
 50
273.1679177544356207
 51
275.583659431884314
  0
ARC
  5
EED3
  8
0
 10
3573.8318095650761279
 20
145.2603707747082922
 30
0.0
 40
2.4084350442016862
 50
275.583659431884314
 51
277.3702139861898104
  0
LINE
  5
EED4
  8
0
 10
3574.1407637210400026
 20
142.871834257999609
 30
0.0
 11
3574.15791836099379
 21
142.8855980551977893
 31
0.0
  0
ARC
  5
EED5
  8
0
 10
3574.0985099373087905
 20
143.2725250578631062
 30
0.0
 40
0.3909673499422637
 50
273.1879455227298763
 51
278.242186873368496
  0
ARC
  5
EED6
  8
0
 10
3575.3082854689660053
 20
121.5521136605077004
 30
0.0
 40
21.3631087763234397
 50
93.1879455227298763
 51
93.5457257431741454
  0
ARC
  5
EED7
  8
0
 10
3574.0188467413850049
 20
142.361692927317705
 30
0.0
 40
0.5136185788669148
 50
93.5457257431741454
 51
99.7574473013363132
  0
ARC
  5
EED8
  8
0
 10
3573.9684046524998848
 20
142.7429652380882033
 30
0.0
 40
0.137743135483675
 50
91.3571184612084579
 51
105.4113153294807006
  0
ARC
  5
EED9
  8
0
 10
3574.2416385966971575
 20
138.9889028663274075
 30
0.0
 40
3.9015765458726142
 50
92.8663758759561091
 51
94.0638337952661914
  0
ARC
  5
EEDA
  8
0
 10
3574.0639975544258959
 20
141.9344593609459935
 30
0.0
 40
0.9115628905404068
 50
92.0075612229276913
 51
98.3386158062010907
  0
ARC
  5
EEDB
  8
0
 10
3573.9756947935497919
 20
144.3046499242076948
 30
0.0
 40
1.460275568778449
 50
272.2122771561474792
 51
277.2565770957513109
  0
LINE
  5
EEDC
  8
0
 10
3574.1601463514939496
 20
142.8560704960978001
 30
0.0
 11
3574.1407637210400026
 21
142.871834257999609
 31
0.0
  0
LINE
  5
EEDD
  8
0
 10
3574.1601463514939496
 20
142.8560704960976011
 30
0.0
 11
3574.1601463514939496
 21
142.848196480397803
 31
0.0
  0
LINE
  5
EEDE
  8
0
 10
3573.9317998947940396
 20
142.8285114409978007
 30
0.0
 11
3573.9512698355938483
 21
142.8127463037978089
 31
0.0
  0
ARC
  5
EEDF
  8
0
 10
3574.0723304554308015
 20
141.8490278774308138
 30
0.0
 40
0.9895134611368105
 50
91.9065517796705649
 51
98.1647435893452069
  0
ARC
  5
EEE0
  8
0
 10
3573.9998946553328096
 20
144.0250682800268009
 30
0.0
 40
1.1877322252444851
 50
271.9065517796706217
 51
277.7541333526364724
  0
LINE
  5
EEE1
  8
0
 10
3574.1601463514939496
 20
142.848196480397803
 30
0.0
 11
3574.1407214707937783
 21
142.8324198427978047
 31
0.0
  0
ARC
  5
EEE2
  8
0
 10
3573.9583484132940612
 20
142.8031164582602912
 30
0.0
 40
0.0119515767725018
 50
93.6557239091135045
 51
126.3183633898318021
  0
ARC
  5
EEE3
  8
0
 10
3574.0381011942640725
 20
142.253881857898989
 30
0.0
 40
0.5669085183464727
 50
93.3714181221038046
 51
98.1650049862437584
  0
ARC
  5
EEE4
  8
0
 10
3576.0182616781557954
 20
113.8689599141072932
 30
0.0
 40
29.0207831682116399
 50
93.8514705295571048
 51
93.9784515272064738
  0
ARC
  5
EEE5
  8
0
 10
3574.0286311262229901
 20
143.6127710551043037
 30
0.0
 40
0.7895995356539824
 50
272.9254115031670267
 51
277.7867643329486782
  0
ARC
  5
EEE6
  8
0
 10
3574.1327504133710136
 20
142.8455027673161908
 30
0.0
 40
0.015319987019938
 50
280.7629529786165108
 51
301.3528334924264982
  0
LINE
  5
EEE7
  8
0
 10
3573.9512698355938483
 20
142.8127463037978089
 30
0.0
 11
3573.9318872126091264
 21
142.7970140056281991
 31
0.0
  0
LINE
  5
EEE8
  8
0
 10
3573.9318872126091264
 20
142.7970140056281991
 30
0.0
 11
3573.9318872126091264
 21
142.7891399899284011
 31
0.0
  0
ARC
  5
EEE9
  8
0
 10
3574.0640848722409828
 20
141.8950879098763949
 30
0.0
 40
0.9115628905404068
 50
92.0075612229276913
 51
98.3386158062010907
  0
ARC
  5
EEEA
  8
0
 10
3573.9758200599621887
 20
144.2633026237031117
 30
0.0
 40
1.4582997276227929
 50
272.2137839565733088
 51
277.2615005369063965
  0
LINE
  5
EEEB
  8
0
 10
3574.1601463514939496
 20
142.8166990450282015
 30
0.0
 11
3574.1407215068420555
 21
142.8324198138581096
 31
0.0
  0
LINE
  5
EEEC
  8
0
 10
3574.1601463514939496
 20
142.8166990450280025
 30
0.0
 11
3574.1601463514939496
 21
142.8088250293282044
 31
0.0
  0
LINE
  5
EEED
  8
0
 10
3573.9318872126091264
 20
142.7891399899282021
 30
0.0
 11
3573.9513571074107858
 21
142.7733748896770862
 31
0.0
  0
ARC
  5
EEEE
  8
0
 10
3574.0724177732458884
 20
141.8096564263611867
 30
0.0
 40
0.9895134611368105
 50
91.9065517796705649
 51
98.1647435893452069
  0
ARC
  5
EEEF
  8
0
 10
3574.0000101320811154
 20
143.9839927707294009
 30
0.0
 40
1.1860281738634371
 50
271.9079309887941918
 51
277.759712785459385
  0
LINE
  5
EEF0
  8
0
 10
3574.1601463514939496
 20
142.8088250293282044
 30
0.0
 11
3574.1408087886088651
 21
142.7930483917282061
 31
0.0
  0
ARC
  5
EEF1
  8
0
 10
3573.9584358773399799
 20
142.7637443085274924
 30
0.0
 40
0.0119522833383326
 50
93.6562099212696069
 51
126.3170173347678968
  0
ARC
  5
EEF2
  8
0
 10
3574.0381885120791594
 20
142.2145104068293904
 30
0.0
 40
0.5669085183464727
 50
93.3714181221038046
 51
98.1650049862437584
  0
ARC
  5
EEF3
  8
0
 10
3574.028718444038077
 20
143.5733996040345914
 30
0.0
 40
0.7895995356539824
 50
272.9254115031670267
 51
277.7867643329486782
  0
ARC
  5
EEF4
  8
0
 10
3574.1328377311861004
 20
142.8061313162465922
 30
0.0
 40
0.015319987019938
 50
280.7629529786165108
 51
301.3528334924264982
  0
ARC
  5
EEF5
  8
0
 10
3574.7364426674212154
 20
132.5611877531187872
 30
0.0
 40
10.2454038196190194
 50
93.7351197375666771
 51
94.0948023192000846
  0
LINE
  5
EEF6
  8
0
 10
3573.9513571074107858
 20
142.7733748896770862
 30
0.0
 11
3573.931974484426064
 21
142.7576425915075049
 31
0.0
  0
LINE
  5
EEF7
  8
0
 10
3573.931974484426064
 20
142.7576425915075049
 30
0.0
 11
3573.931974484426064
 21
142.7497685758075932
 31
0.0
  0
ARC
  5
EEF8
  8
0
 10
3574.0641721440579204
 20
141.8557164957557006
 30
0.0
 40
0.9115628905404068
 50
92.0075612229276913
 51
98.3386158062010907
  0
ARC
  5
EEF9
  8
0
 10
3573.9759452600587792
 20
144.2219577473775871
 30
0.0
 40
1.4563262737100089
 50
272.2152920139182015
 51
277.2664280463162072
  0
LINE
  5
EEFA
  8
0
 10
3574.1601463514939496
 20
142.7773276309075072
 30
0.0
 11
3574.1408087886088651
 21
142.7930483917282061
 31
0.0
  0
LINE
  5
EEFB
  8
0
 10
3574.1601463514939496
 20
142.7773276309073083
 30
0.0
 11
3574.1601463514939496
 21
142.7694536152075102
 31
0.0
  0
LINE
  5
EEFC
  8
0
 10
3573.931974484426064
 20
142.7497685758075079
 30
0.0
 11
3573.9511687584940773
 21
142.7340259097977935
 31
0.0
  0
ARC
  5
EEFD
  8
0
 10
3574.072505045062826
 20
141.7702850122404925
 30
0.0
 40
0.9895134611368105
 50
91.9065517796705649
 51
98.1647435893452069
  0
ARC
  5
EEFE
  8
0
 10
3574.0001255476950064
 20
143.9429194279040871
 30
0.0
 40
1.184326252016825
 50
271.9093114661877735
 51
277.7652972844513783
  0
LINE
  5
EEFF
  8
0
 10
3574.1601463514939496
 20
142.7694536152075102
 30
0.0
 11
3574.1408960604248932
 21
142.7536769776075118
 31
0.0
  0
ARC
  5
EF00
  8
0
 10
3573.9590387707180525
 20
142.721909346751886
 30
0.0
 40
0.0144481207238785
 50
95.0739558009213113
 51
123.0047366043085049
  0
ARC
  5
EF01
  8
0
 10
3574.0382757838951875
 20
142.1751389927086962
 30
0.0
 40
0.5669085183464727
 50
93.3714181221038046
 51
98.1650049862437584
  0
ARC
  5
EF02
  8
0
 10
3574.0288057158550146
 20
143.5340281899138972
 30
0.0
 40
0.7895995356539824
 50
272.9254115031670267
 51
277.7867643329486782
  0
ARC
  5
EF03
  8
0
 10
3574.132925003003038
 20
142.766759902125898
 30
0.0
 40
0.015319987019938
 50
280.7629529786165108
 51
301.3528334924264982
  0
ARC
  5
EF04
  8
0
 10
3576.8571090191671829
 20
101.5352795667804031
 30
0.0
 40
41.3043793231374678
 50
93.8703521070304561
 51
93.9595699497409242
  0
ARC
  5
EF05
  8
0
 10
3600.9466792313951373
 20
109.0895183618701054
 30
0.0
 40
43.1359533780705817
 50
128.7426849333594134
 51
128.7552228341097873
  0
LINE
  5
EF06
  8
0
 10
3573.9438070563937799
 20
142.7281177401978027
 30
0.0
 11
3574.1578871764941141
 21
142.7281177401978027
 31
0.0
  0
LINE
  5
EF07
  8
0
 10
3574.1578871764941141
 20
142.7281177401978027
 30
0.0
 11
3574.1601463514939496
 21
142.7300862440978051
 31
0.0
  0
LINE
  5
EF08
  8
0
 10
3574.1601463514939496
 20
142.7300862440978051
 30
0.0
 11
3574.1601463514939496
 21
142.7379602598977044
 31
0.0
  0
LINE
  5
EF09
  8
0
 10
3574.1601463514939496
 20
142.7379602598977044
 30
0.0
 11
3574.1408960964731705
 21
142.7536769486677883
 31
0.0
  0
ARC
  5
EF0A
  8
0
 10
3573.7399529313051971
 20
148.5110377883397916
 30
0.0
 40
5.7910113659864582
 50
273.0291489730503827
 51
273.7096884990268109
  0
ARC
  5
EF0B
  8
0
 10
3574.0906902424630971
 20
143.1015057547043057
 30
0.0
 40
0.3701208962973347
 50
273.7096884990268109
 51
280.8161331934327904
  0
ARC
  5
EF0C
  8
0
 10
3577.9774685117718036
 20
37.1842498641609609
 30
0.0
 40
109.6929356669346021
 50
89.6639085498833737
 51
89.9971208145302057
  0
ARC
  5
EF0D
  8
0
 10
3578.2795605606011122
 20
88.6833311197894147
 30
0.0
 40
58.1929683875295893
 50
87.076603538398885
 51
89.6639085498833737
  0
ARC
  5
EF0E
  8
0
 10
3580.5170926713972221
 20
129.7151489841889997
 30
0.0
 40
17.1010221871531414
 50
79.2201267034964189
 51
87.5522574952697425
  0
ARC
  5
EF0F
  8
0
 10
3582.2841569504957988
 20
139.2837635278438881
 30
0.0
 40
7.3709561087174569
 50
66.1969918771993235
 51
78.8019503670821138
  0
ARC
  5
EF10
  8
0
 10
3585.168610999926841
 20
145.8311306908375116
 30
0.0
 40
0.2163978588602621
 50
13.8718626252704809
 51
65.3031615839548607
  0
ARC
  5
EF11
  8
0
 10
3584.6103441022660263
 20
145.6345402837405913
 30
0.0
 40
0.8075303544456987
 50
5.5486813535603048
 51
17.9203024562806199
  0
ARC
  5
EF12
  8
0
 10
3144.9062184827639612
 20
83.4744273440755364
 30
0.0
 40
444.882881556318182
 50
7.8370154914084189
 51
8.0419399419069961
  0
ARC
  5
EF13
  8
0
 10
3585.5556368747338638
 20
144.1260224635896918
 30
0.0
 40
0.0789630963646481
 50
272.5405204002495907
 51
7.7740737733366618
  0
ARC
  5
EF14
  8
0
 10
3582.8489792326640782
 20
143.9605441486365862
 30
0.0
 40
0.0316393297445044
 50
270.2588583924616046
 51
359.7411381511632271
  0
LINE
  5
EF15
  8
0
 10
3582.880618239494197
 20
143.9604012028977991
 30
0.0
 11
3582.880618239494197
 21
144.0471369781978126
 31
0.0
  0
ARC
  5
EF16
  8
0
 10
3583.2327813443789637
 20
144.5054881562373907
 30
0.0
 40
0.5770838081067408
 50
232.5848597573319978
 51
267.6128538353124213
  0
LINE
  5
EF17
  8
0
 10
3583.2087449336931968
 20
143.9289051417977987
 30
0.0
 11
3583.67772973223191
 21
143.9289051417977987
 31
0.0
  0
ARC
  5
EF18
  8
0
 10
3583.660781562946795
 20
144.4853099745025133
 30
0.0
 40
0.556662894667171
 50
271.7446980291779823
 51
308.0807345690284933
  0
ARC
  5
EF19
  8
0
 10
3584.1644231755258261
 20
144.6015029546692006
 30
0.0
 40
0.5938051293255946
 50
252.6692841616338967
 51
275.5328517470283032
  0
ARC
  5
EF1A
  8
0
 10
3584.1653826298311287
 20
144.591598170750899
 30
0.0
 40
0.5838539838120901
 50
275.5328517470283032
 51
291.167350114189901
  0
LINE
  5
EF1B
  8
0
 10
3582.0318663442940306
 20
143.9289051417977987
 30
0.0
 11
3582.0146916517901445
 21
143.9151085454475947
 31
0.0
  0
LINE
  5
EF1C
  8
0
 10
3582.0140300052930797
 20
143.9156402746978074
 30
0.0
 11
3582.0341615465940777
 21
143.8993775826978094
 31
0.0
  0
LINE
  5
EF1D
  8
0
 10
3582.0341615465940777
 20
143.8993775826978094
 30
0.0
 11
3582.0341615465940777
 21
143.8915035669978977
 31
0.0
  0
LINE
  5
EF1E
  8
0
 10
3582.0341615465940777
 20
143.8915035669978977
 30
0.0
 11
3582.0146825765591529
 21
143.8757497950597042
 31
0.0
  0
LINE
  5
EF1F
  8
0
 10
3582.0140194068931123
 20
143.876282763997807
 30
0.0
 11
3582.0220236223940447
 21
143.8698500236978077
 31
0.0
  0
LINE
  5
EF20
  8
0
 10
3582.1955753530937727
 20
143.8698500236978077
 30
0.0
 11
3581.6444012833931083
 21
143.8698500236978077
 31
0.0
  0
LINE
  5
EF21
  8
0
 10
3581.6444012833931083
 20
143.8698500236978077
 30
0.0
 11
3581.6443977670937784
 21
143.082448448897793
 31
0.0
  0
LINE
  5
EF22
  8
0
 10
3581.6443977670937784
 20
143.082448448897793
 30
0.0
 11
3582.1955753530937727
 21
143.082448448897793
 31
0.0
  0
LINE
  5
EF23
  8
0
 10
3582.1955753530937727
 20
143.082448448897793
 30
0.0
 11
3582.1955753530937727
 21
143.8698500236978077
 31
0.0
  0
ARC
  5
EF24
  8
0
 10
3581.9891427116908744
 20
143.8365975151183989
 30
0.0
 40
0.0828681798085623
 50
72.5229426329404419
 51
86.1912973994303968
  0
ARC
  5
EF25
  8
0
 10
3582.5854259859311242
 20
152.793499951164506
 30
0.0
 40
8.8938603441017445
 50
265.3506892935897099
 51
266.1912973994303115
  0
LINE
  5
EF26
  8
0
 10
3581.817922039493169
 20
143.9289051417977987
 30
0.0
 11
3581.8058150898928034
 21
143.9190626220978118
 31
0.0
  0
LINE
  5
EF27
  8
0
 10
3581.8058150898928034
 20
143.9190626220978118
 30
0.0
 11
3581.8058150898928034
 21
143.9111886063977863
 31
0.0
  0
LINE
  5
EF28
  8
0
 10
3581.8058150898928034
 20
143.9111886063977863
 30
0.0
 11
3581.8258837065927764
 21
143.8949724356978095
 31
0.0
  0
LINE
  5
EF29
  8
0
 10
3581.8252955080029096
 20
143.8954477215083045
 30
0.0
 11
3581.8058150898928034
 21
143.8796925433977094
 31
0.0
  0
LINE
  5
EF2A
  8
0
 10
3581.8058150898928034
 20
143.8796925433977094
 30
0.0
 11
3581.8058150898928034
 21
143.8718185275978101
 31
0.0
  0
LINE
  5
EF2B
  8
0
 10
3581.8058150898928034
 20
143.8718185275978101
 30
0.0
 11
3581.8081533975941966
 21
143.8698500236978077
 31
0.0
  0
ARC
  5
EF2C
  8
0
 10
3581.8146284487261255
 20
143.8927187532916889
 30
0.0
 40
0.0230809420814273
 50
250.0823543583497894
 51
262.2244763470490057
  0
ARC
  5
EF2D
  8
0
 10
3581.8717657066949869
 20
144.2024466237787124
 30
0.0
 40
0.3294232539742599
 50
258.451330829041126
 51
268.4029537966013095
  0
ARC
  5
EF2E
  8
0
 10
3582.2838212866568028
 20
150.696982055289709
 30
0.0
 40
6.8368198770276507
 50
266.4676006744012966
 51
266.9494386036325864
  0
ARC
  5
EF2F
  8
0
 10
3582.00551755839615
 20
143.8592313129412048
 30
0.0
 40
0.0190534356748125
 50
63.4991694785580165
 51
84.0534422101316352
  0
ARC
  5
EF30
  8
0
 10
3581.7775967792099436
 20
141.6710786999107938
 30
0.0
 40
2.2190442855413148
 50
84.0534422101316352
 51
86.3209987074183971
  0
ARC
  5
EF31
  8
0
 10
3581.9551659494140949
 20
144.7113806796442077
 30
0.0
 40
0.8265797121310882
 50
261.0014839991380882
 51
267.5606525650991898
  0
ARC
  5
EF32
  8
0
 10
3581.8889671304618787
 20
144.3617931409075936
 30
0.0
 40
0.4582125144203629
 50
259.5445777261015223
 51
268.6079718654390831
  0
ARC
  5
EF33
  8
0
 10
3581.8609611428928474
 20
143.209295489604898
 30
0.0
 40
0.6946253629925712
 50
85.1250052820681162
 51
88.6079718654390973
  0
ARC
  5
EF34
  8
0
 10
3581.6366065201118545
 20
138.6375369520748961
 30
0.0
 40
5.271493714640088
 50
86.0614207713821173
 51
86.9184039183645751
  0
ARC
  5
EF35
  8
0
 10
3581.9922743884440024
 20
143.7253091344610141
 30
0.0
 40
0.1713917250747984
 50
75.8539592935453157
 51
87.8548194076984856
  0
ARC
  5
EF36
  8
0
 10
3581.9560383707521396
 20
143.4854157846122007
 30
0.0
 40
0.4212690362201918
 50
79.3127920103401038
 51
88.4324741733827437
  0
ARC
  5
EF37
  8
0
 10
3580.5976486739259599
 20
120.2112295244189966
 30
0.0
 40
23.734864520213371
 50
86.6912004624048791
 51
86.8772168030755694
  0
ARC
  5
EF38
  8
0
 10
3581.9075430483749187
 20
144.527562176024702
 30
0.0
 40
0.6169443124513428
 50
260.5091545763335716
 51
268.4287156184294076
  0
LINE
  5
EF39
  8
0
 10
3582.1680198142939844
 20
143.082448448897793
 30
0.0
 11
3582.1758938300931732
 21
143.0745744330978084
 31
0.0
  0
LINE
  5
EF3A
  8
0
 10
3582.1758938300931732
 20
143.0745744330978084
 30
0.0
 11
3581.664082806494207
 21
143.0745744330978084
 31
0.0
  0
LINE
  5
EF3B
  8
0
 10
3581.664082806494207
 20
143.0745744330978084
 30
0.0
 11
3581.6719568221928967
 21
143.082448448897793
 31
0.0
  0
LINE
  5
EF3C
  8
0
 10
3581.664082806494207
 20
143.0745744330978084
 30
0.0
 11
3581.664082806494207
 21
142.8934720708977864
 31
0.0
  0
LINE
  5
EF3D
  8
0
 10
3581.664082806494207
 20
142.8934720708977864
 30
0.0
 11
3581.6719568221928967
 21
142.8855980551977893
 31
0.0
  0
LINE
  5
EF3E
  8
0
 10
3581.6719568221928967
 20
142.8855980551977893
 30
0.0
 11
3582.1680198142939844
 21
142.8855980551977893
 31
0.0
  0
LINE
  5
EF3F
  8
0
 10
3582.1680198142939844
 20
142.8855980551977893
 30
0.0
 11
3582.1758938300931732
 21
142.8934720708977864
 31
0.0
  0
LINE
  5
EF40
  8
0
 10
3582.1758938300931732
 20
142.8934720708977864
 30
0.0
 11
3582.1758938300931732
 21
143.0745744330978084
 31
0.0
  0
LINE
  5
EF41
  8
0
 10
3582.1758938300931732
 20
142.8934720708977864
 30
0.0
 11
3581.664082806494207
 21
142.8934720708977864
 31
0.0
  0
LINE
  5
EF42
  8
0
 10
3582.0221263879939215
 20
142.8855980551977893
 30
0.0
 11
3582.0341615465940777
 21
142.8757555354978024
 31
0.0
  0
LINE
  5
EF43
  8
0
 10
3582.0341615465940777
 20
142.8757555354978024
 30
0.0
 11
3582.0341615465940777
 21
142.8678815196979031
 31
0.0
  0
LINE
  5
EF44
  8
0
 10
3582.0341615465940777
 20
142.8678815196979031
 30
0.0
 11
3582.0147789236079916
 21
142.8521177548674075
 31
0.0
  0
LINE
  5
EF45
  8
0
 10
3582.0147789236079916
 20
142.8521177548674075
 30
0.0
 11
3582.0341615465940777
 21
142.8363854566977977
 31
0.0
  0
LINE
  5
EF46
  8
0
 10
3582.0341615465940777
 20
142.8363854566977977
 30
0.0
 11
3582.0341615465940777
 21
142.8285114409979997
 31
0.0
  0
ARC
  5
EF47
  8
0
 10
3582.0114113854488096
 20
142.8489166244623902
 30
0.0
 40
0.0046462403216775
 50
43.5488043730354519
 51
72.839492497029056
  0
ARC
  5
EF48
  8
0
 10
3581.9964633047998177
 20
142.8005073623457974
 30
0.0
 40
0.0553108411167155
 50
72.8400194645576704
 51
86.8320822455643935
  0
ARC
  5
EF49
  8
0
 10
3582.1305966332870412
 20
145.2240048112213913
 30
0.0
 40
2.3718957085030952
 50
264.416340568115686
 51
266.8320822455643793
  0
ARC
  5
EF4A
  8
0
 10
3582.1341518763110798
 20
145.2603707747082922
 30
0.0
 40
2.4084350442016862
 50
262.6297860138103033
 51
264.416340568115686
  0
LINE
  5
EF4B
  8
0
 10
3581.8251977203472052
 20
142.871834257999609
 30
0.0
 11
3581.8080430803938725
 21
142.8855980551977893
 31
0.0
  0
ARC
  5
EF4C
  8
0
 10
3581.8674515040779625
 20
143.2725250578631062
 30
0.0
 40
0.3909673499422637
 50
261.757813126631504
 51
266.8120544772701237
  0
ARC
  5
EF4D
  8
0
 10
3580.6576759724212025
 20
121.5521136605077004
 30
0.0
 40
21.3631087763234397
 50
86.4542742568258546
 51
86.8120544772701379
  0
ARC
  5
EF4E
  8
0
 10
3581.9471147000022029
 20
142.361692927317705
 30
0.0
 40
0.5136185788669148
 50
80.2425526986637152
 51
86.4542742568258546
  0
ARC
  5
EF4F
  8
0
 10
3581.9975567888868682
 20
142.7429652380882033
 30
0.0
 40
0.137743135483675
 50
74.5886846705192852
 51
88.6428815387915563
  0
ARC
  5
EF50
  8
0
 10
3581.7243228446900503
 20
138.9889028663274075
 30
0.0
 40
3.9015765458726142
 50
85.9361662047338086
 51
87.1336241240438909
  0
ARC
  5
EF51
  8
0
 10
3581.9019638869622213
 20
141.9344593609459935
 30
0.0
 40
0.9115628905404068
 50
81.6613841937989235
 51
87.9924387770723087
  0
ARC
  5
EF52
  8
0
 10
3581.9902666478378706
 20
144.3046499242076948
 30
0.0
 40
1.460275568778449
 50
262.7434229042488028
 51
267.7877228438525208
  0
LINE
  5
EF53
  8
0
 10
3581.8058150898928034
 20
142.8560704960978001
 30
0.0
 11
3581.8251977203472052
 21
142.871834257999609
 31
0.0
  0
LINE
  5
EF54
  8
0
 10
3581.8058150898928034
 20
142.8560704960976011
 30
0.0
 11
3581.8058150898928034
 21
142.848196480397803
 31
0.0
  0
LINE
  5
EF55
  8
0
 10
3582.0341615465940777
 20
142.8285114409978007
 30
0.0
 11
3582.0146916057938142
 21
142.8127463037978089
 31
0.0
  0
ARC
  5
EF56
  8
0
 10
3581.8936309859559515
 20
141.8490278774308138
 30
0.0
 40
0.9895134611368105
 50
81.8352564106548073
 51
88.0934482203294209
  0
ARC
  5
EF57
  8
0
 10
3581.9660667860539434
 20
144.0250682800268009
 30
0.0
 40
1.1877322252444851
 50
262.2458666473635276
 51
268.0934482203293783
  0
LINE
  5
EF58
  8
0
 10
3581.8058150898928034
 20
142.848196480397803
 30
0.0
 11
3581.8252399705929747
 21
142.8324198427978047
 31
0.0
  0
ARC
  5
EF59
  8
0
 10
3582.0076130280931466
 20
142.8031164582602912
 30
0.0
 40
0.0119515767725018
 50
53.6816366101681908
 51
86.3442760908864955
  0
ARC
  5
EF5A
  8
0
 10
3581.9278602471231352
 20
142.253881857898989
 30
0.0
 40
0.5669085183464727
 50
81.8349950137562274
 51
86.6285818778961811
  0
ARC
  5
EF5B
  8
0
 10
3579.9476997632309576
 20
113.8689599141072932
 30
0.0
 40
29.0207831682116399
 50
86.021548472793512
 51
86.1485294704428952
  0
ARC
  5
EF5C
  8
0
 10
3581.9373303151642176
 20
143.6127710551043037
 30
0.0
 40
0.7895995356539824
 50
262.2132356670513218
 51
267.0745884968329733
  0
ARC
  5
EF5D
  8
0
 10
3581.8332110280161942
 20
142.8455027673161908
 30
0.0
 40
0.015319987019938
 50
238.6471665075735018
 51
259.2370470213836029
  0
LINE
  5
EF5E
  8
0
 10
3582.0146916057938142
 20
142.8127463037978089
 30
0.0
 11
3582.0340742287780813
 21
142.7970140056281991
 31
0.0
  0
LINE
  5
EF5F
  8
0
 10
3582.0340742287780813
 20
142.7970140056281991
 30
0.0
 11
3582.0340742287780813
 21
142.7891399899284011
 31
0.0
  0
ARC
  5
EF60
  8
0
 10
3581.9018765691462249
 20
141.8950879098763949
 30
0.0
 40
0.9115628905404068
 50
81.6613841937989235
 51
87.9924387770723087
  0
ARC
  5
EF61
  8
0
 10
3581.9901413814250191
 20
144.2633026237031117
 30
0.0
 40
1.4582997276227929
 50
262.7384994630936035
 51
267.7862160434266912
  0
LINE
  5
EF62
  8
0
 10
3581.8058150898928034
 20
142.8166990450282015
 30
0.0
 11
3581.8252399345451522
 21
142.8324198138581096
 31
0.0
  0
LINE
  5
EF63
  8
0
 10
3581.8058150898928034
 20
142.8166990450280025
 30
0.0
 11
3581.8058150898928034
 21
142.8088250293282044
 31
0.0
  0
LINE
  5
EF64
  8
0
 10
3582.0340742287780813
 20
142.7891399899282021
 30
0.0
 11
3582.0146043339768767
 21
142.7733748896770862
 31
0.0
  0
ARC
  5
EF65
  8
0
 10
3581.8935436681408646
 20
141.8096564263611867
 30
0.0
 40
0.9895134611368105
 50
81.8352564106548073
 51
88.0934482203294209
  0
ARC
  5
EF66
  8
0
 10
3581.9659513093070018
 20
143.9839927707294009
 30
0.0
 40
1.1860281738634371
 50
262.240287214540615
 51
268.0920690112058082
  0
LINE
  5
EF67
  8
0
 10
3581.8058150898928034
 20
142.8088250293282044
 30
0.0
 11
3581.8251526527778879
 21
142.7930483917282061
 31
0.0
  0
ARC
  5
EF68
  8
0
 10
3582.0075255640467731
 20
142.7637443085274924
 30
0.0
 40
0.0119522833383326
 50
53.6829826652321316
 51
86.3437900787303789
  0
ARC
  5
EF69
  8
0
 10
3581.9277729293080483
 20
142.2145104068293904
 30
0.0
 40
0.5669085183464727
 50
81.8349950137562274
 51
86.6285818778961811
  0
ARC
  5
EF6A
  8
0
 10
3581.9372429973491307
 20
143.5733996040345914
 30
0.0
 40
0.7895995356539824
 50
262.2132356670513218
 51
267.0745884968329733
  0
ARC
  5
EF6B
  8
0
 10
3581.8331237102011073
 20
142.8061313162465922
 30
0.0
 40
0.015319987019938
 50
238.6471665075735018
 51
259.2370470213836029
  0
ARC
  5
EF6C
  8
0
 10
3581.2295187739659923
 20
132.5611877531187872
 30
0.0
 40
10.2454038196190194
 50
85.9051976807999154
 51
86.2648802624333229
  0
LINE
  5
EF6D
  8
0
 10
3582.0146043339768767
 20
142.7733748896770862
 30
0.0
 11
3582.0339869569611437
 21
142.7576425915075049
 31
0.0
  0
LINE
  5
EF6E
  8
0
 10
3582.0339869569611437
 20
142.7576425915075049
 30
0.0
 11
3582.0339869569611437
 21
142.7497685758075932
 31
0.0
  0
ARC
  5
EF6F
  8
0
 10
3581.9017892973288326
 20
141.8557164957557006
 30
0.0
 40
0.9115628905404068
 50
81.6613841937989235
 51
87.9924387770723087
  0
ARC
  5
EF70
  8
0
 10
3581.9900161813279738
 20
144.2219577473775871
 30
0.0
 40
1.4563262737100089
 50
262.7335719536837928
 51
267.7847079860816848
  0
LINE
  5
EF71
  8
0
 10
3581.8058150898928034
 20
142.7773276309075072
 30
0.0
 11
3581.8251526527778879
 21
142.7930483917282061
 31
0.0
  0
LINE
  5
EF72
  8
0
 10
3581.8058150898928034
 20
142.7773276309073083
 30
0.0
 11
3581.8058150898928034
 21
142.7694536152075102
 31
0.0
  0
LINE
  5
EF73
  8
0
 10
3582.0339869569611437
 20
142.7497685758075079
 30
0.0
 11
3582.0147926828940399
 21
142.7340259097977935
 31
0.0
  0
ARC
  5
EF74
  8
0
 10
3581.8934563963248365
 20
141.7702850122404925
 30
0.0
 40
0.9895134611368105
 50
81.8352564106548073
 51
88.0934482203294209
  0
ARC
  5
EF75
  8
0
 10
3581.9658358936922014
 20
143.9429194279040871
 30
0.0
 40
1.184326252016825
 50
262.234702715548508
 51
268.0906885338122265
  0
LINE
  5
EF76
  8
0
 10
3581.8058150898928034
 20
142.7694536152075102
 30
0.0
 11
3581.8250653809618598
 21
142.7536769776075118
 31
0.0
  0
ARC
  5
EF77
  8
0
 10
3582.0069226706691552
 20
142.721909346751886
 30
0.0
 40
0.0144481207238785
 50
56.9952633956915307
 51
84.9260441990787029
  0
ARC
  5
EF78
  8
0
 10
3581.9276856574920203
 20
142.1751389927086962
 30
0.0
 40
0.5669085183464727
 50
81.8349950137562274
 51
86.6285818778961811
  0
ARC
  5
EF79
  8
0
 10
3581.9371557255331027
 20
143.5340281899138972
 30
0.0
 40
0.7895995356539824
 50
262.2132356670513218
 51
267.0745884968329733
  0
ARC
  5
EF7A
  8
0
 10
3581.8330364383841697
 20
142.766759902125898
 30
0.0
 40
0.015319987019938
 50
238.6471665075735018
 51
259.2370470213836029
  0
ARC
  5
EF7B
  8
0
 10
3579.1088524222200249
 20
101.5352795667804031
 30
0.0
 40
41.3043793231374678
 50
86.04043005025909
 51
86.1296478929695866
  0
ARC
  5
EF7C
  8
0
 10
3555.0192822099920704
 20
109.0895183618701054
 30
0.0
 40
43.1359533780705817
 50
51.2447771658901416
 51
51.2573150666405226
  0
LINE
  5
EF7D
  8
0
 10
3582.0221543849929731
 20
142.7281177401978027
 30
0.0
 11
3581.8080742648940031
 21
142.7281177401978027
 31
0.0
  0
LINE
  5
EF7E
  8
0
 10
3581.8080742648940031
 20
142.7281177401978027
 30
0.0
 11
3581.8058150898928034
 21
142.7300862440978051
 31
0.0
  0
LINE
  5
EF7F
  8
0
 10
3581.8058150898928034
 20
142.7300862440978051
 30
0.0
 11
3581.8058150898928034
 21
142.7379602598977044
 31
0.0
  0
LINE
  5
EF80
  8
0
 10
3581.8058150898928034
 20
142.7379602598977044
 30
0.0
 11
3581.8250653449140373
 21
142.7536769486677883
 31
0.0
  0
ARC
  5
EF81
  8
0
 10
3582.2260085100820106
 20
148.5110377883397916
 30
0.0
 40
5.7910113659864582
 50
266.2903115009731891
 51
266.9708510269495036
  0
ARC
  5
EF82
  8
0
 10
3581.8752711989241106
 20
143.1015057547043057
 30
0.0
 40
0.3701208962973347
 50
259.1838668065672096
 51
266.2903115009731891
  0
ENDSEC
  0
EOF
