  0
SECTION
  2
HEADER
  9
$ACADVER
  1
AC1009
  9
$INSBASE
 10
3573.1286334979281492
 20
-24.5957822182875816
 30
0.0
  9
$EXTMIN
 10
3565.7990515137498733
 20
-24.8804273317810001
 30
-0.0000000349181948
  9
$EXTMAX
 10
3580.4134298485619183
 20
-21.5941178612018199
 30
0.0000000814935746
  9
$LIMMIN
 10
0.0
 20
0.0
  9
$LIMMAX
 10
11.6929133858000007
 20
8.2677165353999982
  9
$ORTHOMODE
 70
     1
  9
$REGENMODE
 70
     1
  9
$FILLMODE
 70
     1
  9
$QTEXTMODE
 70
     0
  9
$MIRRTEXT
 70
     0
  9
$DRAGMODE
 70
     2
  9
$LTSCALE
 40
0.6431102362
  9
$OSMODE
 70
  3999
  9
$ATTMODE
 70
     1
  9
$TEXTSIZE
 40
0.2
  9
$TRACEWID
 40
0.05
  9
$TEXTSTYLE
  7
STANDARD
  9
$CLAYER
  8
0
  9
$CELTYPE
  6
BYLAYER
  9
$CECOLOR
 62
   256
  9
$DIMSCALE
 40
1.0
  9
$DIMASZ
 40
0.1875
  9
$DIMEXO
 40
0.0625
  9
$DIMDLI
 40
0.4443307087
  9
$DIMRND
 40
0.0
  9
$DIMDLE
 40
0.0
  9
$DIMEXE
 40
0.125
  9
$DIMTP
 40
0.01
  9
$DIMTM
 40
0.01
  9
$DIMTXT
 40
2.0
  9
$DIMCEN
 40
0.1052362205
  9
$DIMTSZ
 40
0.0
  9
$DIMTOL
 70
     1
  9
$DIMLIM
 70
     0
  9
$DIMTIH
 70
     1
  9
$DIMTOH
 70
     1
  9
$DIMSE1
 70
     0
  9
$DIMSE2
 70
     0
  9
$DIMTAD
 70
     0
  9
$DIMZIN
 70
     0
  9
$DIMBLK
  1

  9
$DIMASO
 70
     1
  9
$DIMSHO
 70
     1
  9
$DIMPOST
  1
\X
  9
$DIMAPOST
  1

  9
$DIMALT
 70
     1
  9
$DIMALTD
 70
     2
  9
$DIMALTF
 40
25.3999999999999986
  9
$DIMLFAC
 40
1.0
  9
$DIMTOFL
 70
     0
  9
$DIMTVP
 40
0.0
  9
$DIMTIX
 70
     0
  9
$DIMSOXD
 70
     0
  9
$DIMSAH
 70
     0
  9
$DIMBLK1
  1

  9
$DIMBLK2
  1

  9
$DIMSTYLE
  2
STANDARD
  9
$DIMCLRD
 70
     0
  9
$DIMCLRE
 70
     0
  9
$DIMCLRT
 70
     0
  9
$DIMTFAC
 40
1.0
  9
$DIMGAP
 40
0.09
  9
$LUNITS
 70
     2
  9
$LUPREC
 70
     4
  9
$SKETCHINC
 40
0.1
  9
$FILLETRAD
 40
0.0
  9
$AUNITS
 70
     0
  9
$AUPREC
 70
     0
  9
$MENU
  1
.
  9
$ELEVATION
 40
0.0
  9
$PELEVATION
 40
0.0
  9
$THICKNESS
 40
0.0
  9
$LIMCHECK
 70
     0
  9
$BLIPMODE
 70
     0
  9
$CHAMFERA
 40
0.0
  9
$CHAMFERB
 40
0.0
  9
$SKPOLY
 70
     0
  9
$TDCREATE
 40
2458060.468368056230247
  9
$TDUPDATE
 40
2460146.5982291670516133
  9
$TDINDWG
 40
0.5426806713
  9
$TDUSRTIMER
 40
0.5426806713
  9
$USRTIMER
 70
     1
  9
$ANGBASE
 50
0.0
  9
$ANGDIR
 70
     0
  9
$PDMODE
 70
     0
  9
$PDSIZE
 40
0.3125
  9
$PLINEWID
 40
0.0
  9
$COORDS
 70
     1
  9
$SPLFRAME
 70
     0
  9
$SPLINETYPE
 70
     6
  9
$SPLINESEGS
 70
     8
  9
$ATTDIA
 70
     1
  9
$ATTREQ
 70
     1
  9
$HANDLING
 70
     1
  9
$HANDSEED
  5
1304C
  9
$SURFTAB1
 70
     6
  9
$SURFTAB2
 70
     6
  9
$SURFTYPE
 70
     6
  9
$SURFU
 70
     6
  9
$SURFV
 70
     6
  9
$UCSNAME
  2

  9
$UCSORG
 10
0.0
 20
0.0
 30
0.0
  9
$UCSXDIR
 10
1.0
 20
0.0
 30
0.0
  9
$UCSYDIR
 10
0.0
 20
1.0
 30
0.0
  9
$PUCSNAME
  2

  9
$PUCSORG
 10
0.0
 20
0.0
 30
0.0
  9
$PUCSXDIR
 10
1.0
 20
0.0
 30
0.0
  9
$PUCSYDIR
 10
0.0
 20
1.0
 30
0.0
  9
$USERI1
 70
     0
  9
$USERI2
 70
     0
  9
$USERI3
 70
     0
  9
$USERI4
 70
     0
  9
$USERI5
 70
     0
  9
$USERR1
 40
0.0
  9
$USERR2
 40
0.0
  9
$USERR3
 40
0.0
  9
$USERR4
 40
0.0
  9
$USERR5
 40
0.0
  9
$WORLDVIEW
 70
     1
  9
$SHADEDGE
 70
     3
  9
$SHADEDIF
 70
    70
  9
$TILEMODE
 70
     1
  9
$MAXACTVP
 70
    64
  9
$PLIMCHECK
 70
     0
  9
$PEXTMIN
 10
1.0000000000000000E+20
 20
1.0000000000000000E+20
 30
1.0000000000000000E+20
  9
$PEXTMAX
 10
-1.0000000000000000E+20
 20
-1.0000000000000000E+20
 30
-1.0000000000000000E+20
  9
$PLIMMIN
 10
0.0
 20
0.0
  9
$PLIMMAX
 10
12.0
 20
9.0
  9
$UNITMODE
 70
     0
  9
$VISRETAIN
 70
     1
  9
$PLINEGEN
 70
     0
  9
$PSLTSCALE
 70
     1
  0
ENDSEC
  0
SECTION
  2
TABLES
  0
TABLE
  2
VPORT
 70
     1
  0
VPORT
  2
*ACTIVE
 70
     0
 10
0.0
 20
0.0
 11
1.0
 21
1.0
 12
-256.2215181079063768
 22
-114.1303161145578002
 13
0.0
 23
0.0
 14
1.0
 24
1.0
 15
0.0
 25
0.0
 16
0.0
 26
0.0
 36
327.1425206445442768
 17
3829.3277587890629547
 27
90.8930435180664063
 37
0.0
 40
6.2599314847202248
 41
2.3419117647058818
 42
50.0
 43
0.0
 44
0.0
 50
0.0
 51
0.0
 71
     0
 72
   100
 73
     1
 74
     1
 75
     0
 76
     0
 77
     0
 78
     2
  0
ENDTAB
  0
TABLE
  2
LTYPE
 70
     2
  0
LTYPE
  2
CONTINUOUS
 70
     0
  3
Solid line
 72
    65
 73
     0
 40
0.0
  0
LTYPE
  2
PHANTOM2
 70
     0
  3
___ _ _ ___ _ _ ___ _ _ ___ _ _
 72
    65
 73
     6
 40
1.25
 49
0.625
 49
-0.125
 49
0.125
 49
-0.125
 49
0.125
 49
-0.125
  0
ENDTAB
  0
TABLE
  2
LAYER
 70
     2
  0
LAYER
  2
0
 70
     0
 62
   255
  6
CONTINUOUS
  0
LAYER
  2
DEFPOINTS
 70
     0
 62
     7
  6
CONTINUOUS
  0
ENDTAB
  0
TABLE
  2
STYLE
 70
     1
  0
STYLE
  2
STANDARD
 70
     0
 40
0.0
 41
0.8
 50
0.0
 71
     0
 42
0.2
  3
txt
  4

  0
ENDTAB
  0
TABLE
  2
VIEW
 70
     0
  0
ENDTAB
  0
TABLE
  2
UCS
 70
     0
  0
ENDTAB
  0
TABLE
  2
APPID
 70
    10
  0
APPID
  2
ACAD
 70
     0
  0
APPID
  2
ACAD_MLEADERVER
 70
     0
  0
APPID
  2
ACAD_EXEMPT_FROM_CAD_STANDARDS
 70
     0
  0
APPID
  2
ACAD_NAV_VCDISPLAY
 70
     0
  0
APPID
  2
ACAECLAYERSTANDARD
 70
     0
  0
APPID
  2
ACCMTRANSPARENCY
 70
     0
  0
APPID
  2
ACAD_DSTYLE_DIMJAG
 70
     0
  0
APPID
  2
ACAD_DSTYLE_DIMTALN
 70
     0
  0
APPID
  2
ACDBATTR
 70
     0
  0
APPID
  2
ACAD_DSTYLE_DIMRADIAL_EXTENSION
 70
     0
  0
ENDTAB
  0
TABLE
  2
DIMSTYLE
 70
     1
  0
DIMSTYLE
  2
STANDARD
 70
     0
  3

  4

  5

  6

  7

 40
1.0
 41
0.1875
 42
0.0625
 43
0.38
 44
0.125
 45
0.0
 46
0.0
 47
0.01
 48
0.01
140
0.15625
141
0.09
142
0.0
143
25.3999999999999986
144
1.0
145
0.0
146
1.0
147
0.09
 71
     1
 72
     0
 73
     1
 74
     1
 75
     0
 76
     0
 77
     0
 78
     4
170
     0
171
     2
172
     0
173
     0
174
     0
175
     0
176
     0
177
     0
178
     0
  0
ENDTAB
  0
ENDSEC
  0
SECTION
  2
BLOCKS
  0
BLOCK
  8
0
  2
$MODEL_SPACE
 70
     0
 10
0.0
 20
0.0
 30
0.0
  3
$MODEL_SPACE
  1

  0
ENDBLK
  5
21
  8
0
  0
BLOCK
 67
     1
  8
0
  2
$PAPER_SPACE
 70
     0
 10
0.0
 20
0.0
 30
0.0
  3
$PAPER_SPACE
  1

  0
ENDBLK
  5
1D
 67
     1
  8
0
  0
BLOCK
  8
0
  2
_FILLED
 70
     0
 10
0.0
 20
0.0
 30
0.0
  3
_FILLED
  1

  0
SOLID
  5
125B2
  8
0
  6
BYBLOCK
 62
     0
 10
0.0
 20
0.0
 30
0.0
 11
-1.0
 21
0.1666666667
 31
0.0
 12
-1.0
 22
-0.1666666667
 32
0.0
 13
-1.0
 23
-0.1666666667
 33
0.0
  0
ENDBLK
  5
125B3
  8
0
  6
BYBLOCK
 62
     0
  0
ENDSEC
  0
SECTION
  2
ENTITIES
  0
ARC
  5
12C81
  8
0
 10
3567.6867457673088211
 20
-5.5469798465488793
 30
0.0
 40
17.7890036525467892
 50
266.0576515264918953
 51
269.1099860426608075
  0
ARC
  5
12C82
  8
0
 10
3564.9797908261798511
 20
-179.7966275736750958
 30
0.0
 40
156.4816689750668957
 50
88.2960573924089545
 51
89.1099860426608643
  0
ARC
  5
12C83
  8
0
 10
3571.0339203252328844
 20
38.136542459406563
 30
0.0
 40
61.536648244487111
 50
268.6953055090314137
 51
269.6958526880337104
  0
ARC
  5
12C84
  8
0
 10
3578.8733299417390299
 20
1514.9237710518079894
 30
0.0
 40
1538.3446841370209768
 50
269.6958526880337104
 51
269.7170724769791263
  0
ARC
  5
12C85
  8
0
 10
3571.2782178974480303
 20
-23.1532719871896191
 30
0.0
 40
0.2488886644000679
 50
269.7170724769791263
 51
298.0068107003291971
  0
ARC
  5
12C86
  8
0
 10
3571.2817933559308585
 20
-23.1599945186806693
 30
0.0
 40
0.2412744452667652
 50
298.0068107003291971
 51
315.1155879765346981
  0
ARC
  5
12C87
  8
0
 10
3573.6557509162148563
 20
-25.52439295037113
 30
0.0
 40
3.1092560264363018
 50
134.0836524157014935
 51
135.1155879765348118
  0
ARC
  5
12C88
  8
0
 10
3571.6251561152221257
 20
-23.4277850016304292
 30
0.0
 40
0.1905096968380767
 50
115.8379645235627038
 51
134.0836524157014935
  0
ARC
  5
12C89
  8
0
 10
3571.6595764134281126
 20
-23.4770139170496392
 30
0.0
 40
0.2499999999999954
 50
93.7820742789438668
 51
118.0212304075794947
  0
ARC
  5
12C8A
  8
0
 10
3571.6758374249320696
 20
-24.1027301495914585
 30
0.0
 40
0.8757843831832715
 50
89.2852127088710148
 51
92.1431725695022692
  0
LINE
  5
12C8B
  8
0
 10
3571.6867628947379671
 20
-23.2270139170496392
 30
0.0
 11
3573.1286334979281492
 21
-23.2270139170496392
 31
0.0
  0
ARC
  5
12C8C
  8
0
 10
3566.5225314058011463
 20
-22.5421956174840084
 30
0.0
 40
0.7539927708022235
 50
256.860175254202602
 51
265.5251738779527955
  0
ARC
  5
12C8D
  8
0
 10
3566.371312818664137
 20
-23.2146883558992592
 30
0.0
 40
0.0649741177930709
 50
181.3878169227963042
 51
251.9006186099960019
  0
LINE
  5
12C8E
  8
0
 10
3566.3063577602279111
 20
-23.2162620034496392
 30
0.0
 11
3566.3064055241279675
 21
-23.2009303640496398
 31
0.0
  0
LINE
  5
12C8F
  8
0
 10
3566.3073128996311425
 20
-23.2009600629512107
 30
0.0
 11
3566.3828793761849738
 21
-22.9155235203624486
 31
0.0
  0
ARC
  5
12C90
  8
0
 10
3566.4840495045009447
 20
-22.9422743288245883
 30
0.0
 40
0.1046470287060796
 50
121.382277285546607
 51
165.1891443304321001
  0
LINE
  5
12C91
  8
0
 10
3566.4295550261281278
 20
-22.8529359135496399
 30
0.0
 11
3567.2343471730268902
 21
-22.3208612210496504
 31
0.0
  0
ARC
  5
12C92
  8
0
 10
3567.6326418974549597
 20
-23.0150136476856204
 30
0.0
 40
0.8003038666101577
 50
110.4266710943621064
 51
119.8465867753954939
  0
ARC
  5
12C93
  8
0
 10
3571.0077007994941596
 20
-31.5227264610405911
 30
0.0
 40
9.9528546960879023
 50
109.2021525176925962
 51
111.5410776331622031
  0
ARC
  5
12C94
  8
0
 10
3571.7481864725891683
 20
-32.9652320339810387
 30
0.0
 40
11.5608390540557107
 50
105.610766058808494
 51
110.3165590564929062
  0
ARC
  5
12C95
  8
0
 10
3570.1912180111658017
 20
-27.7749373112034306
 30
0.0
 40
6.1438828384525808
 50
94.3868043725584442
 51
104.6518324831974951
  0
ARC
  5
12C96
  8
0
 10
3571.2432525211352186
 20
-43.2773584156990765
 30
0.0
 40
21.6817891405415004
 50
90.0491497692352851
 51
94.0252489563338969
  0
LINE
  5
12C97
  8
0
 10
3571.2246533361490037
 20
-21.5955772525838015
 30
0.0
 11
3573.1286334979281492
 21
-21.6001960688567216
 31
0.0
  0
ARC
  5
12C98
  8
0
 10
3573.1702414473161298
 20
-145.5706296527486927
 30
0.0
 40
123.2251187331281983
 50
90.0193463797436948
 51
91.2751635269819559
  0
ARC
  5
12C99
  8
0
 10
3572.2400702237850965
 20
-103.7829808053578944
 30
0.0
 40
81.4271186051564229
 50
91.2751635269819559
 51
92.2518474953767793
  0
ARC
  5
12C9A
  8
0
 10
3567.6844551570661679
 20
12.0699393997450901
 30
0.0
 40
34.5153358655252589
 50
270.7145086694466727
 51
272.251847495376694
  0
ARC
  5
12C9B
  8
0
 10
3568.0505617886688015
 20
-17.2862858710394214
 30
0.0
 40
5.1568277935071647
 50
264.0609533362086836
 51
270.7145086694466727
  0
ARC
  5
12C9C
  8
0
 10
3567.628202742393114
 20
-21.3463075365572195
 30
0.0
 40
1.074896499567386
 50
255.8007901667876922
 51
264.0609533362086836
  0
ARC
  5
12C9D
  8
0
 10
3567.41269186876616
 20
-22.1980476098322583
 30
0.0
 40
0.19631463708994
 50
215.0465612627075132
 51
255.8007901667876922
  0
ARC
  5
12C9E
  8
0
 10
3566.6452969167708034
 20
-21.8628233639829617
 30
0.0
 40
1.017245638059957
 50
257.4961183196700745
 51
266.8984303295777067
  0
ARC
  5
12C9F
  8
0
 10
3568.3968739642859873
 20
10.4627202144981108
 30
0.0
 40
33.3902095091308695
 50
266.8984303295777067
 51
268.7125719638813166
  0
ARC
  5
12CA0
  8
0
 10
3530.0301791885081002
 20
-1696.7237391352280156
 30
0.0
 40
1674.22731507155504
 50
88.6529574394100166
 51
88.712571963881345
  0
ARC
  5
12CA1
  8
0
 10
3571.5761104190119113
 20
70.0860043211261967
 30
0.0
 40
93.0708301133810636
 50
268.6529574394099882
 51
269.8582977987979916
  0
ARC
  5
12CA2
  8
0
 10
3575.7483184868569879
 20
250.1179548794004859
 30
0.0
 40
273.1379767788682784
 50
269.0764771450433841
 51
269.4504638405732067
  0
ARC
  5
12CA3
  8
0
 10
3571.1661543219270243
 20
4731.1796529796220057
 30
0.0
 40
4756.0570717815689932
 50
270.0152417783850183
 51
270.0236418057245942
  0
ARC
  5
12CA4
  8
0
 10
3573.0493558452340039
 20
-2348.0137322530081292
 30
0.0
 40
2323.1365639349592129
 50
90.0152417783850467
 51
90.0587196445909086
  0
ARC
  5
12CA5
  8
0
 10
3570.640671318989007
 20
2.2629112959118549
 30
0.0
 40
27.1413138856027594
 50
267.5021532049673283
 51
270.0587196445908944
  0
ARC
  5
12CA6
  8
0
 10
3569.7787276766489413
 20
-17.4958832890773301
 30
0.0
 40
7.3637278272798321
 50
264.6300758168263769
 51
267.5021532049673283
  0
ARC
  5
12CA7
  8
0
 10
3569.3397313635700812
 20
-22.1661440305380388
 30
0.0
 40
2.6728800194602962
 50
258.8850188831884793
 51
264.6300758168263769
  0
ARC
  5
12CA8
  8
0
 10
3568.863116848494883
 20
-24.592110754111971
 30
0.0
 40
0.2005378222981645
 50
236.6314642910585064
 51
258.8850188831884793
  0
ARC
  5
12CA9
  8
0
 10
3569.8091174477399363
 20
-23.1557097482276291
 30
0.0
 40
1.9204695021847651
 50
233.3801042305649105
 51
236.6314642910585064
  0
ARC
  5
12CAA
  8
0
 10
3566.4760543730608333
 20
-27.8697020132367186
 30
0.0
 40
3.8536413920068182
 50
55.4139085581431985
 51
68.7936900518569416
  0
LINE
  5
12CAB
  8
0
 10
3566.0961664637270587
 20
-24.27701391704964
 30
0.0
 11
3573.1286334979281492
 21
-24.27701391704964
 31
0.0
  0
ARC
  5
12CAC
  8
0
 10
3566.0989992896497824
 20
-24.2166901141679212
 30
0.0
 40
0.0603902814766048
 50
180.3072080570586877
 51
267.3113463092856819
  0
LINE
  5
12CAD
  8
0
 10
3566.0386098762460279
 20
-24.2170139127496391
 30
0.0
 11
3566.0386098762460279
 21
-24.2020139170496407
 31
0.0
  0
LINE
  5
12CAE
  8
0
 10
3566.0386098762460279
 20
-24.2020139170496407
 30
0.0
 11
3566.2184853494268282
 21
-23.5295598959496388
 31
0.0
  0
ARC
  5
12CAF
  8
0
 10
3566.3613696777738369
 20
-23.5677764254942588
 30
0.0
 40
0.1479068437139775
 50
110.7297715565314036
 51
165.0258971706776094
  0
ARC
  5
12CB0
  8
0
 10
3566.3998852991139756
 20
-23.6695451032107087
 30
0.0
 40
0.2567200637348198
 50
92.0828535764833447
 51
110.7297715565314036
  0
ARC
  5
12CB1
  8
0
 10
3567.1730278883937899
 20
-32.8669899277677899
 30
0.0
 40
9.4863212406370963
 50
91.4329266241824001
 51
94.7313803172008448
  0
ARC
  5
12CB2
  8
0
 10
3569.0478681236231751
 20
-85.204657508775739
 30
0.0
 40
61.8570901540312619
 50
91.0208510750955071
 51
91.9566996008237254
  0
ARC
  5
12CB3
  8
0
 10
3567.9051944633920357
 20
-23.3990632031662891
 30
0.0
 40
0.0581918586717886
 50
45.7426708420631769
 51
76.1328363561356554
  0
ARC
  5
12CB4
  8
0
 10
3567.9149477357300384
 20
-23.3890537510300511
 30
0.0
 40
0.0442163281504448
 50
4.7142573769817711
 51
45.7426708420630419
  0
LINE
  5
12CB5
  8
0
 10
3567.9590144785620396
 20
-23.3854197654442117
 30
0.0
 11
3567.9604024081882017
 21
-23.4022501948578316
 31
0.0
  0
ARC
  5
12CB6
  8
0
 10
3568.0197190759081423
 20
-23.3973586167279493
 30
0.0
 40
0.0595180191709833
 50
184.714257376981891
 51
265.4184938758664885
  0
ARC
  5
12CB7
  8
0
 10
3566.3676671847438229
 20
-23.4112552139088415
 30
0.0
 40
0.0203242331553752
 50
199.4411744453528001
 51
254.5643202340646951
  0
ARC
  5
12CB8
  8
0
 10
3564.194830892680784
 20
-31.280543605468079
 30
0.0
 40
8.1434320923135424
 50
74.47519133618745
 51
74.5643202340647662
  0
ARC
  5
12CB9
  8
0
 10
3566.4874307361101273
 20
-22.9094792926568509
 30
0.0
 40
0.5367696673918518
 50
257.851111993924178
 51
262.9315213279454042
  0
ARC
  5
12CBA
  8
0
 10
3566.671014314832064
 20
-21.4503462161412415
 30
0.0
 40
2.0074057237641392
 50
262.8563435251952001
 51
265.9643414755618096
  0
ARC
  5
12CBB
  8
0
 10
3567.0674576681681174
 20
-15.0983457237764007
 30
0.0
 40
8.3717155628097277
 50
266.3173305016279073
 51
269.8351994617282799
  0
ARC
  5
12CBC
  8
0
 10
3567.129039476248181
 20
6.311584149317027
 30
0.0
 40
29.7817340002110598
 50
269.8351994617282799
 51
271.4953145363721774
  0
ARC
  5
12CBD
  8
0
 10
3567.5858088966010655
 20
-11.1864186370290195
 30
0.0
 40
12.2777704543639903
 50
271.4953145363721774
 51
272.0031193887435279
  0
ARC
  5
12CBE
  8
0
 10
3568.2337020122231479
 20
20.3250346638180801
 30
0.0
 40
43.7822675333195122
 50
269.7137479702066116
 51
270.6487156229507036
  0
ARC
  5
12CBF
  8
0
 10
3569.9155904924759852
 20
315.0908034520542742
 30
0.0
 40
338.5473081260730055
 50
269.799249278247828
 51
270.2542574219315838
  0
ARC
  5
12CC0
  8
0
 10
3581.8020683494378318
 20
666.985684262822133
 30
0.0
 40
690.5169393058419018
 50
269.1383418353622119
 51
269.2803011033009852
  0
ARC
  5
12CC1
  8
0
 10
3573.1426875354850381
 20
-109.4894020766281955
 30
0.0
 40
84.9123893196339026
 50
90.0094831425394375
 51
90.9128738478111131
  0
ARC
  5
12CC2
  8
0
 10
3573.2055132708669589
 20
-113.4322742444633008
 30
0.0
 40
88.8557619884181804
 50
90.9128738478111131
 51
91.764364726619803
  0
ARC
  5
12CC3
  8
0
 10
3571.2488758206500279
 20
-49.9127376521947426
 30
0.0
 40
25.3060966941922914
 50
91.764364726619803
 51
93.3401772910825969
  0
ARC
  5
12CC4
  8
0
 10
3570.3926126717210536
 20
-35.2414583204314411
 30
0.0
 40
10.6098514658749394
 50
93.3401772910825969
 51
96.1465977396788389
  0
ARC
  5
12CC5
  8
0
 10
3569.482786936111097
 20
-26.6012780835054095
 30
0.0
 40
1.922034122079916
 50
96.7586747048104741
 51
101.7181372548388936
  0
ARC
  5
12CC6
  8
0
 10
3569.1673754737739728
 20
-25.0522974310439217
 30
0.0
 40
0.3413257747374473
 50
102.6843816525388036
 51
111.5967351591017973
  0
ARC
  5
12CC7
  8
0
 10
3569.0659629458850759
 20
-24.7961159753814506
 30
0.0
 40
0.0658018392288964
 50
111.5967351591017973
 51
129.602077058553391
  0
ARC
  5
12CC8
  8
0
 10
3569.035934886836003
 20
-24.7588382331410699
 30
0.0
 40
0.0179491977629425
 50
131.6021639214708046
 51
155.0139968323294966
  0
ARC
  5
12CC9
  8
0
 10
3569.0277044418398873
 20
-24.7555838440191387
 30
0.0
 40
0.0091295938818868
 50
151.7066813725487862
 51
216.1122091841050974
  0
ARC
  5
12CCA
  8
0
 10
3569.0531189668931802
 20
-24.7356235146435992
 30
0.0
 40
0.0414409399772178
 50
217.6978493817950948
 51
246.1005118549032034
  0
ARC
  5
12CCB
  8
0
 10
3569.1333205047358206
 20
-24.5747079596181095
 30
0.0
 40
0.221201078762421
 50
243.9935222346310013
 51
254.2822048147536975
  0
ARC
  5
12CCC
  8
0
 10
3569.3853910280408854
 20
-23.6205791506722704
 30
0.0
 40
1.208042230204577
 50
255.0329234618214116
 51
262.9909624943200015
  0
ARC
  5
12CCD
  8
0
 10
3569.9854848713189313
 20
-18.7395720049290908
 30
0.0
 40
6.125800192684812
 50
262.9909624943200015
 51
265.9294747522120019
  0
ARC
  5
12CCE
  8
0
 10
3570.2217215397381551
 20
-15.4199551465230602
 30
0.0
 40
9.4538121893757392
 50
265.9294747522120019
 51
268.0524419387563739
  0
ARC
  5
12CCF
  8
0
 10
3568.4772123968141386
 20
-24.3568968978165188
 30
0.0
 40
0.0801188892217344
 50
4.0375589580339843
 51
85.5918806699069137
  0
LINE
  5
12CD0
  8
0
 10
3568.5571324396578348
 20
-24.3512556956314086
 30
0.0
 11
3568.5702515049288195
 21
-24.5004330126298591
 31
0.0
  0
ARC
  5
12CD1
  8
0
 10
3568.679429927127785
 20
-24.4870139170496302
 30
0.0
 40
0.1100000000000491
 50
187.007067720528795
 51
270.0000461491127908
  0
LINE
  5
12CD2
  8
0
 10
3568.6794300157271209
 20
-24.5970139170496402
 30
0.0
 11
3569.8735377440698358
 21
-24.5970129552506691
 31
0.0
  0
ARC
  5
12CD3
  8
0
 10
3569.8735376577378702
 20
-24.48982878812485
 30
0.0
 40
0.1071841671258579
 50
270.0000461491127908
 51
356.3774432029587729
  0
LINE
  5
12CD4
  8
0
 10
3569.9805076635088881
 20
-24.496601051249641
 30
0.0
 11
3569.9997190483281884
 21
-24.27701391704964
 31
0.0
  0
ARC
  5
12CD5
  8
0
 10
3569.4261213264549042
 20
-23.7612499430834099
 30
0.0
 40
1.007891018661268
 50
251.4348352461815068
 51
262.7991590458285032
  0
ARC
  5
12CD6
  8
0
 10
3570.0043028304830841
 20
-19.1850122403260812
 30
0.0
 40
5.6205090782601834
 50
262.7991590458285032
 51
266.0689515402900724
  0
ARC
  5
12CD7
  8
0
 10
3570.1956753319891504
 20
-16.4000996527004617
 30
0.0
 40
8.4119892510445293
 50
266.0689515402900724
 51
268.7891385579512757
  0
ARC
  5
12CD8
  8
0
 10
3570.7884437906991479
 20
11.6444588034870602
 30
0.0
 40
36.4628115820950072
 50
268.7891385579512757
 51
270.2085904730371908
  0
ARC
  5
12CD9
  8
0
 10
3571.6292352090940767
 20
-219.3037057668576892
 30
0.0
 40
194.4868834785833087
 50
89.7914095269628092
 51
90.2085904730371908
  0
ARC
  5
12CDA
  8
0
 10
3572.6210268236741285
 20
53.1211168609207007
 30
0.0
 40
77.9397445047753052
 50
269.7914095269628092
 51
270.3731591103139067
  0
ARC
  5
12CDB
  8
0
 10
3568.3835675825698672
 20
-24.6034666602010716
 30
0.0
 40
0.1987726414640164
 50
130.1257794175147069
 51
146.527826536048309
  0
ARC
  5
12CDC
  8
0
 10
3568.1374152409189264
 20
-24.4407138445324783
 30
0.0
 40
0.0963196395400974
 50
268.8450852304554815
 51
326.5278265360483942
  0
LINE
  5
12CDD
  8
0
 10
3568.1354738511281539
 20
-24.5370139170496415
 30
0.0
 11
3566.767162222728075
 21
-24.5370139170496415
 31
0.0
  0
ARC
  5
12CDE
  8
0
 10
3566.7671582503048739
 20
-24.4370053008536985
 30
0.0
 40
0.1000086162748401
 50
194.8501207475989077
 51
270.002275834383795
  0
ARC
  5
12CDF
  8
0
 10
3566.4291353604548931
 20
-24.5266312085511586
 30
0.0
 40
0.2496945112393096
 50
14.8501207475988792
 51
88.5750209262977393
  0
ARC
  5
12CE0
  8
0
 10
3568.6832545686511367
 20
-23.3956429183673116
 30
0.0
 40
0.0621644685367238
 50
288.1275035802210027
 51
353.905100713908098
  0
LINE
  5
12CE1
  8
0
 10
3568.7450676463299715
 20
-23.4022432650496413
 30
0.0
 11
3568.7492815421710475
 21
-23.3603668635556687
 31
0.0
  0
ARC
  5
12D42
  8
0
 10
3578.570521228546113
 20
-5.5469798465488793
 30
0.0
 40
17.7890036525467892
 50
270.8900139573390788
 51
273.9423484734821841
  0
ARC
  5
12D43
  8
0
 10
3581.2774761696750829
 20
-179.7966275736750958
 30
0.0
 40
156.4816689750668957
 50
90.8900139573391357
 51
91.7039426075910598
  0
ARC
  5
12D44
  8
0
 10
3575.2233466706220497
 20
38.136542459406563
 30
0.0
 40
61.536648244487111
 50
270.3041473119662896
 51
271.3046944909685863
  0
ARC
  5
12D45
  8
0
 10
3567.3839370541159042
 20
1514.9237710518079894
 30
0.0
 40
1538.3446841370209768
 50
270.2829275230208737
 51
270.3041473119662896
  0
ARC
  5
12D46
  8
0
 10
3574.9790490984069038
 20
-23.1532719871896191
 30
0.0
 40
0.2488886644000679
 50
241.9931892996706893
 51
270.2829275230208737
  0
ARC
  5
12D47
  8
0
 10
3574.9754736399240755
 20
-23.1599945186806693
 30
0.0
 40
0.2412744452667652
 50
224.8844120234653019
 51
241.9931892996706893
  0
ARC
  5
12D48
  8
0
 10
3572.6015160796400778
 20
-25.52439295037113
 30
0.0
 40
3.1092560264363018
 50
44.8844120234653374
 51
45.916347584298407
  0
ARC
  5
12D49
  8
0
 10
3574.6321108806341726
 20
-23.4277850016304292
 30
0.0
 40
0.1905096968380767
 50
45.916347584298407
 51
64.1620354764373246
  0
ARC
  5
12D4A
  8
0
 10
3574.5976905824268215
 20
-23.4770139170496392
 30
0.0
 40
0.2499999999999954
 50
61.9787695924204911
 51
86.2179257210561758
  0
ARC
  5
12D4B
  8
0
 10
3574.5814295709228645
 20
-24.1027301495914585
 30
0.0
 40
0.8757843831832715
 50
87.856827430497745
 51
90.7147872911290136
  0
LINE
  5
12D4C
  8
0
 10
3574.5705041011178764
 20
-23.2270139170496392
 30
0.0
 11
3573.1286334979281492
 21
-23.2270139170496392
 31
0.0
  0
ARC
  5
12D4D
  8
0
 10
3579.7347355900537877
 20
-22.5421956174840084
 30
0.0
 40
0.7539927708022235
 50
274.4748261220470908
 51
283.139824745797398
  0
ARC
  5
12D4E
  8
0
 10
3579.8859541771921613
 20
-23.2146883558992592
 30
0.0
 40
0.0649741177930709
 50
288.0993813900038845
 51
358.6121830772037242
  0
LINE
  5
12D4F
  8
0
 10
3579.950909235627023
 20
-23.2162620034496392
 30
0.0
 11
3579.9508614717278761
 21
-23.2009303640496398
 31
0.0
  0
LINE
  5
12D50
  8
0
 10
3579.9499540962251558
 20
-23.2009600629512107
 30
0.0
 11
3579.8743876196708698
 21
-22.9155235203624486
 31
0.0
  0
ARC
  5
12D51
  8
0
 10
3579.7732174913548988
 20
-22.9422743288245883
 30
0.0
 40
0.1046470287060796
 50
14.8108556695678502
 51
58.6177227144533433
  0
LINE
  5
12D52
  8
0
 10
3579.8277119697268063
 20
-22.8529359135496399
 30
0.0
 11
3579.0229198228280438
 21
-22.3208612210496504
 31
0.0
  0
ARC
  5
12D53
  8
0
 10
3578.6246250984008839
 20
-23.0150136476856204
 30
0.0
 40
0.8003038666101577
 50
60.1534132246045203
 51
69.5733289056378936
  0
ARC
  5
12D54
  8
0
 10
3575.2495661963607745
 20
-31.5227264610405911
 30
0.0
 40
9.9528546960879023
 50
68.4589223668377826
 51
70.7978474823073753
  0
ARC
  5
12D55
  8
0
 10
3574.5090805232662206
 20
-32.9652320339810387
 30
0.0
 40
11.5608390540557107
 50
69.6834409435070796
 51
74.3892339411915344
  0
ARC
  5
12D56
  8
0
 10
3576.0660489846900418
 20
-27.7749373112034306
 30
0.0
 40
6.1438828384525808
 50
75.3481675168025191
 51
85.6131956274415842
  0
ARC
  5
12D57
  8
0
 10
3575.0140144747201703
 20
-43.2773584156990765
 30
0.0
 40
21.6817891405415004
 50
85.9747510436660747
 51
89.9508502307647291
  0
LINE
  5
12D58
  8
0
 10
3575.0326136597068398
 20
-21.5955772525838015
 30
0.0
 11
3573.1286334979281492
 21
-21.6001960688567216
 31
0.0
  0
ARC
  5
12D59
  8
0
 10
3573.0870255485388043
 20
-145.5706296527486927
 30
0.0
 40
123.2251187331281983
 50
88.7248364730180441
 51
89.9806536202563336
  0
ARC
  5
12D5A
  8
0
 10
3574.0171967720712018
 20
-103.7829808053578944
 30
0.0
 40
81.4271186051564229
 50
87.7481525046232349
 51
88.7248364730180441
  0
ARC
  5
12D5B
  8
0
 10
3578.5728118387901304
 20
12.0699393997450901
 30
0.0
 40
34.5153358655252589
 50
267.7481525046231923
 51
269.2854913305532136
  0
ARC
  5
12D5C
  8
0
 10
3578.2067052071861326
 20
-17.2862858710394214
 30
0.0
 40
5.1568277935071647
 50
269.2854913305532136
 51
275.9390466637913164
  0
ARC
  5
12D5D
  8
0
 10
3578.62906425346182
 20
-21.3463075365572195
 30
0.0
 40
1.074896499567386
 50
275.9390466637913164
 51
284.1992098332123078
  0
ARC
  5
12D5E
  8
0
 10
3578.8445751270901383
 20
-22.1980476098322583
 30
0.0
 40
0.19631463708994
 50
284.1992098332123078
 51
324.9534387372924016
  0
ARC
  5
12D5F
  8
0
 10
3579.6119700790850402
 20
-21.8628233639829617
 30
0.0
 40
1.017245638059957
 50
273.1015696704222933
 51
282.5038816803299255
  0
ARC
  5
12D60
  8
0
 10
3577.8603930315689468
 20
10.4627202144981108
 30
0.0
 40
33.3902095091308695
 50
271.2874280361186834
 51
273.1015696704222933
  0
ARC
  5
12D61
  8
0
 10
3616.2270878073481981
 20
-1696.7237391352280156
 30
0.0
 40
1674.22731507155504
 50
91.287428036118655
 51
91.3470425605899834
  0
ARC
  5
12D62
  8
0
 10
3574.6811565768430228
 20
70.0860043211261967
 30
0.0
 40
93.0708301133810636
 50
270.1417022012018947
 51
271.3470425605900118
  0
ARC
  5
12D63
  8
0
 10
3570.5089485089988557
 20
250.1179548794004859
 30
0.0
 40
273.1379767788682784
 50
270.5495361594267933
 51
270.9235228549565022
  0
ARC
  5
12D64
  8
0
 10
3575.0911126739279098
 20
4731.1796529796220057
 30
0.0
 40
4756.0570717815689932
 50
269.9763581942755195
 51
269.9847582216149817
  0
ARC
  5
12D65
  8
0
 10
3573.2079111506218396
 20
-2348.0137322530081292
 30
0.0
 40
2323.1365639349592129
 50
89.9412803554090772
 51
89.9847582216149533
  0
ARC
  5
12D66
  8
0
 10
3575.6165956768668366
 20
2.2629112959118549
 30
0.0
 40
27.1413138856027594
 50
269.9412803554091056
 51
272.4978467950326717
  0
ARC
  5
12D67
  8
0
 10
3576.4785393192069023
 20
-17.4958832890773301
 30
0.0
 40
7.3637278272798321
 50
272.4978467950326717
 51
275.3699241831736231
  0
ARC
  5
12D68
  8
0
 10
3576.9175356322848529
 20
-22.1661440305380388
 30
0.0
 40
2.6728800194602962
 50
275.3699241831736231
 51
281.1149811168115207
  0
ARC
  5
12D69
  8
0
 10
3577.3941501473609605
 20
-24.592110754111971
 30
0.0
 40
0.2005378222981645
 50
281.1149811168115207
 51
303.368535708941522
  0
ARC
  5
12D6A
  8
0
 10
3576.4481495481159072
 20
-23.1557097482276291
 30
0.0
 40
1.9204695021847651
 50
303.368535708941522
 51
306.6198957694350042
  0
ARC
  5
12D6B
  8
0
 10
3579.7812126227941008
 20
-27.8697020132367186
 30
0.0
 40
3.8536413920068182
 50
111.2063099481430015
 51
124.5860914418567944
  0
LINE
  5
12D6C
  8
0
 10
3580.1611005321278753
 20
-24.27701391704964
 30
0.0
 11
3573.1286334979281492
 21
-24.27701391704964
 31
0.0
  0
ARC
  5
12D6D
  8
0
 10
3580.1582677062051516
 20
-24.2166901141679212
 30
0.0
 40
0.0603902814766048
 50
272.6886536907143181
 51
359.6927919429413123
  0
LINE
  5
12D6E
  8
0
 10
3580.2186571196089062
 20
-24.2170139127496391
 30
0.0
 11
3580.2186571196089062
 21
-24.2020139170496407
 31
0.0
  0
LINE
  5
12D6F
  8
0
 10
3580.2186571196089062
 20
-24.2020139170496407
 30
0.0
 11
3580.0387816464281059
 21
-23.5295598959496388
 31
0.0
  0
ARC
  5
12D70
  8
0
 10
3579.8958973180810972
 20
-23.5677764254942588
 30
0.0
 40
0.1479068437139775
 50
14.9741028293223408
 51
69.2702284434686106
  0
ARC
  5
12D71
  8
0
 10
3579.8573816967418679
 20
-23.6695451032107087
 30
0.0
 40
0.2567200637348198
 50
69.2702284434686106
 51
87.9171464235166411
  0
ARC
  5
12D72
  8
0
 10
3579.0842391074611442
 20
-32.8669899277677899
 30
0.0
 40
9.4863212406370963
 50
85.2686196827991552
 51
88.5670733758176283
  0
ARC
  5
12D73
  8
0
 10
3577.2093988722331233
 20
-85.204657508775739
 30
0.0
 40
61.8570901540312619
 50
88.0433003991762746
 51
88.9791489249044929
  0
ARC
  5
12D74
  8
0
 10
3578.3520725324628984
 20
-23.3990632031662891
 30
0.0
 40
0.0581918586717886
 50
103.867163643864302
 51
134.2573291579367947
  0
ARC
  5
12D75
  8
0
 10
3578.3423192601258052
 20
-23.3890537510300511
 30
0.0
 40
0.0442163281504448
 50
134.2573291579371073
 51
175.2857426230181943
  0
LINE
  5
12D76
  8
0
 10
3578.2982525172928945
 20
-23.3854197654442117
 30
0.0
 11
3578.2968645876671872
 21
-23.4022501948578316
 31
0.0
  0
ARC
  5
12D77
  8
0
 10
3578.2375479199467918
 20
-23.3973586167279493
 30
0.0
 40
0.0595180191709833
 50
274.5815061241335115
 51
355.2857426230178248
  0
ARC
  5
12D78
  8
0
 10
3579.8895998111111112
 20
-23.4112552139088415
 30
0.0
 40
0.0203242331553752
 50
285.4356797659352196
 51
340.5588255546472283
  0
ARC
  5
12D79
  8
0
 10
3582.06243610317415
 20
-31.280543605468079
 30
0.0
 40
8.1434320923135424
 50
105.4356797659352054
 51
105.5248086638124931
  0
ARC
  5
12D7A
  8
0
 10
3579.7698362597448067
 20
-22.9094792926568509
 30
0.0
 40
0.5367696673918518
 50
277.0684786720547095
 51
282.1488880060757083
  0
ARC
  5
12D7B
  8
0
 10
3579.5862526810237796
 20
-21.4503462161412415
 30
0.0
 40
2.0074057237641392
 50
274.0356585244381904
 51
277.1436564748047999
  0
ARC
  5
12D7C
  8
0
 10
3579.1898093276868167
 20
-15.0983457237764007
 30
0.0
 40
8.3717155628097277
 50
270.1648005382717201
 51
273.6826694983720927
  0
ARC
  5
12D7D
  8
0
 10
3579.1282275196072078
 20
6.311584149317027
 30
0.0
 40
29.7817340002110598
 50
268.5046854636278226
 51
270.1648005382717201
  0
ARC
  5
12D7E
  8
0
 10
3578.6714580992547781
 20
-11.1864186370290195
 30
0.0
 40
12.2777704543639903
 50
267.9968806112564721
 51
268.5046854636278226
  0
ARC
  5
12D7F
  8
0
 10
3578.0235649836317862
 20
20.3250346638180801
 30
0.0
 40
43.7822675333195122
 50
269.3512843770492964
 51
270.2862520297935021
  0
ARC
  5
12D80
  8
0
 10
3576.3416765033798583
 20
315.0908034520542742
 30
0.0
 40
338.5473081260730055
 50
269.7457425780684162
 51
270.200750721752172
  0
ARC
  5
12D81
  8
0
 10
3564.4551986464171023
 20
666.985684262822133
 30
0.0
 40
690.5169393058419018
 50
270.7196988966990148
 51
270.8616581646377881
  0
ARC
  5
12D82
  8
0
 10
3573.1145794603708055
 20
-109.4894020766281955
 30
0.0
 40
84.9123893196339026
 50
89.0871261521889011
 51
89.9905168574605625
  0
ARC
  5
12D83
  8
0
 10
3573.0517537249888846
 20
-113.4322742444633008
 30
0.0
 40
88.8557619884181804
 50
88.235635273380197
 51
89.0871261521889011
  0
ARC
  5
12D84
  8
0
 10
3575.0083911752049062
 20
-49.9127376521947426
 30
0.0
 40
25.3060966941922914
 50
86.6598227089174458
 51
88.235635273380197
  0
ARC
  5
12D85
  8
0
 10
3575.8646543241347899
 20
-35.2414583204314411
 30
0.0
 40
10.6098514658749394
 50
83.8534022603211753
 51
86.6598227089174458
  0
ARC
  5
12D86
  8
0
 10
3576.774480059743837
 20
-26.6012780835054095
 30
0.0
 40
1.922034122079916
 50
78.2818627451610496
 51
83.2413252951895259
  0
ARC
  5
12D87
  8
0
 10
3577.0898915220809613
 20
-25.0522974310439217
 30
0.0
 40
0.3413257747374473
 50
68.4032648408981316
 51
77.3156183474612106
  0
ARC
  5
12D88
  8
0
 10
3577.1913040499698582
 20
-24.7961159753814506
 30
0.0
 40
0.0658018392288964
 50
50.3979229414466019
 51
68.4032648408981316
  0
ARC
  5
12D89
  8
0
 10
3577.2213321090189311
 20
-24.7588382331410699
 30
0.0
 40
0.0179491977629425
 50
24.9860031676705212
 51
48.3978360785291599
  0
ARC
  5
12D8A
  8
0
 10
3577.2295625540150468
 20
-24.7555838440191387
 30
0.0
 40
0.0091295938818868
 50
323.8877908158947889
 51
28.293318627451189
  0
ARC
  5
12D8B
  8
0
 10
3577.2041480289622086
 20
-24.7356235146435992
 30
0.0
 40
0.0414409399772178
 50
293.8994881450968251
 51
322.3021506182049052
  0
ARC
  5
12D8C
  8
0
 10
3577.1239464911191135
 20
-24.5747079596181095
 30
0.0
 40
0.221201078762421
 50
285.7177951852463025
 51
296.0064777653689134
  0
ARC
  5
12D8D
  8
0
 10
3576.8718759678149581
 20
-23.6205791506722704
 30
0.0
 40
1.208042230204577
 50
277.0090375056799985
 51
284.9670765381786168
  0
ARC
  5
12D8E
  8
0
 10
3576.2717821245360028
 20
-18.7395720049290908
 30
0.0
 40
6.125800192684812
 50
274.0705252477879981
 51
277.0090375056799985
  0
ARC
  5
12D8F
  8
0
 10
3576.0355454561181432
 20
-15.4199551465230602
 30
0.0
 40
9.4538121893757392
 50
271.9475580612436261
 51
274.0705252477879981
  0
ARC
  5
12D90
  8
0
 10
3577.7800545990407954
 20
-24.3568968978165188
 30
0.0
 40
0.0801188892217344
 50
94.4081193300931005
 51
175.9624410419660023
  0
LINE
  5
12D91
  8
0
 10
3577.7001345561980088
 20
-24.3512556956314086
 30
0.0
 11
3577.6870154909261146
 21
-24.5004330126298591
 31
0.0
  0
ARC
  5
12D92
  8
0
 10
3577.5778370687280585
 20
-24.4870139170496302
 30
0.0
 40
0.1100000000000491
 50
269.9999538508872092
 51
352.992932279471006
  0
LINE
  5
12D93
  8
0
 10
3577.5778369801278131
 20
-24.5970139170496402
 30
0.0
 11
3576.3837292517850983
 21
-24.5970129552506691
 31
0.0
  0
ARC
  5
12D94
  8
0
 10
3576.3837293381170639
 20
-24.48982878812485
 30
0.0
 40
0.1071841671258579
 50
183.6225567970411134
 51
269.9999538508872092
  0
LINE
  5
12D95
  8
0
 10
3576.276759332346046
 20
-24.496601051249641
 30
0.0
 11
3576.2575479475281099
 21
-24.27701391704964
 31
0.0
  0
ARC
  5
12D96
  8
0
 10
3576.8311456694009394
 20
-23.7612499430834099
 30
0.0
 40
1.007891018661268
 50
277.2008409541714968
 51
288.5651647538185216
  0
ARC
  5
12D97
  8
0
 10
3576.25296416537185
 20
-19.1850122403260812
 30
0.0
 40
5.6205090782601834
 50
273.9310484597099276
 51
277.2008409541714968
  0
ARC
  5
12D98
  8
0
 10
3576.0615916638671479
 20
-16.4000996527004617
 30
0.0
 40
8.4119892510445293
 50
271.2108614420487243
 51
273.9310484597099276
  0
ARC
  5
12D99
  8
0
 10
3575.4688232051571504
 20
11.6444588034870602
 30
0.0
 40
36.4628115820950072
 50
269.7914095269628092
 51
271.2108614420487243
  0
ARC
  5
12D9A
  8
0
 10
3574.6280317867622216
 20
-219.3037057668576892
 30
0.0
 40
194.4868834785833087
 50
89.7914095269628092
 51
90.2085904730371908
  0
ARC
  5
12D9B
  8
0
 10
3573.6362401721821698
 20
53.1211168609207007
 30
0.0
 40
77.9397445047753052
 50
269.626840889686207
 51
270.2085904730371908
  0
ARC
  5
12D9C
  8
0
 10
3577.8736994132850668
 20
-24.6034666602010716
 30
0.0
 40
0.1987726414640164
 50
33.47217346395162
 51
49.8742205824852292
  0
ARC
  5
12D9D
  8
0
 10
3578.1198517549360076
 20
-24.4407138445324783
 30
0.0
 40
0.0963196395400974
 50
213.4721734639516058
 51
271.1549147695444049
  0
LINE
  5
12D9E
  8
0
 10
3578.1217931447281444
 20
-24.5370139170496415
 30
0.0
 11
3579.4901047731268591
 21
-24.5370139170496415
 31
0.0
  0
ARC
  5
12D9F
  8
0
 10
3579.4901087455500601
 20
-24.4370053008536985
 30
0.0
 40
0.1000086162748401
 50
269.9977241656163187
 51
345.1498792524010923
  0
ARC
  5
12DA0
  8
0
 10
3579.828131635400041
 20
-24.5266312085511586
 30
0.0
 40
0.2496945112393096
 50
91.4249790737022465
 51
165.1498792524010923
  0
ARC
  5
12DA1
  8
0
 10
3577.5740124272037974
 20
-23.3956429183673116
 30
0.0
 40
0.0621644685367238
 50
186.0948992860917883
 51
251.8724964197789973
  0
LINE
  5
12DA2
  8
0
 10
3577.5121993495249626
 20
-23.4022432650496413
 30
0.0
 11
3577.5079854536838866
 21
-23.3603668635556687
 31
0.0
  0
ATTDEF
  5
12E76
  8
DEFPOINTS
 10
3573.1126640602110456
 20
-24.5916726718217795
 30
0.0
 40
0.001
  1
K-4417T-2P
  3

  2
MODELNUMBER
 70
     0
1001
ACDBATTR
1070
     0
1070
     1
  0
ATTDEF
  5
12E77
  8
DEFPOINTS
 10
3573.1126640602110456
 20
-24.5933393384884518
 30
0.0
 40
0.001
  1
ESCALE/QUIET-CLOSE
  3

  2
TRADENAME
 70
     0
1001
ACDBATTR
1070
     0
1070
     1
  0
ATTDEF
  5
12E78
  8
DEFPOINTS
 10
3573.1126640602110456
 20
-24.5950060051551098
 30
0.0
 40
0.001
  1
TOILET SEAT
  3

  2
PRODUCT
 70
     0
1001
ACDBATTR
1070
     0
1070
     1
  0
ENDSEC
  0
EOF
