  0
SECTION
  2
HEADER
  9
$ACADVER
  1
AC1009
  9
$INSBASE
 10
4047.9486771267029326
 20
162.7757979819400873
 30
0.0
  9
$EXTMIN
 10
4034.643443044687956
 20
153.5974657047989922
 30
-0.0000000000000058
  9
$EXTMAX
 10
4061.4146927139981926
 20
162.7810962655003948
 30
0.0000000000000104
  9
$LIMMIN
 10
0.0
 20
0.0
  9
$LIMMAX
 10
11.6929133858000007
 20
8.2677165353999982
  9
$ORTHOMODE
 70
     0
  9
$REGENMODE
 70
     1
  9
$FILLMODE
 70
     1
  9
$QTEXTMODE
 70
     0
  9
$MIRRTEXT
 70
     0
  9
$DRAGMODE
 70
     2
  9
$LTSCALE
 40
0.6431102362
  9
$OSMODE
 70
  4095
  9
$ATTMODE
 70
     1
  9
$TEXTSIZE
 40
0.2
  9
$TRACEWID
 40
0.05
  9
$TEXTSTYLE
  7
STANDARD
  9
$CLAYER
  8
0
  9
$CELTYPE
  6
BYLAYER
  9
$CECOLOR
 62
   256
  9
$DIMSCALE
 40
1.0
  9
$DIMASZ
 40
0.1875
  9
$DIMEXO
 40
0.0625
  9
$DIMDLI
 40
0.4443307087
  9
$DIMRND
 40
0.0
  9
$DIMDLE
 40
0.0
  9
$DIMEXE
 40
0.125
  9
$DIMTP
 40
0.01
  9
$DIMTM
 40
0.01
  9
$DIMTXT
 40
2.0
  9
$DIMCEN
 40
0.1052362205
  9
$DIMTSZ
 40
0.0
  9
$DIMTOL
 70
     1
  9
$DIMLIM
 70
     0
  9
$DIMTIH
 70
     1
  9
$DIMTOH
 70
     1
  9
$DIMSE1
 70
     0
  9
$DIMSE2
 70
     0
  9
$DIMTAD
 70
     0
  9
$DIMZIN
 70
     0
  9
$DIMBLK
  1

  9
$DIMASO
 70
     1
  9
$DIMSHO
 70
     1
  9
$DIMPOST
  1
\X
  9
$DIMAPOST
  1

  9
$DIMALT
 70
     1
  9
$DIMALTD
 70
     2
  9
$DIMALTF
 40
25.3999999999999986
  9
$DIMLFAC
 40
1.0
  9
$DIMTOFL
 70
     0
  9
$DIMTVP
 40
0.0
  9
$DIMTIX
 70
     0
  9
$DIMSOXD
 70
     0
  9
$DIMSAH
 70
     0
  9
$DIMBLK1
  1

  9
$DIMBLK2
  1

  9
$DIMSTYLE
  2
STANDARD
  9
$DIMCLRD
 70
     0
  9
$DIMCLRE
 70
     0
  9
$DIMCLRT
 70
     0
  9
$DIMTFAC
 40
1.0
  9
$DIMGAP
 40
0.09
  9
$LUNITS
 70
     2
  9
$LUPREC
 70
     4
  9
$SKETCHINC
 40
0.1
  9
$FILLETRAD
 40
0.0
  9
$AUNITS
 70
     0
  9
$AUPREC
 70
     0
  9
$MENU
  1
.
  9
$ELEVATION
 40
0.0
  9
$PELEVATION
 40
0.0
  9
$THICKNESS
 40
0.0
  9
$LIMCHECK
 70
     0
  9
$BLIPMODE
 70
     0
  9
$CHAMFERA
 40
0.0
  9
$CHAMFERB
 40
0.0
  9
$SKPOLY
 70
     0
  9
$TDCREATE
 40
2458060.468368056230247
  9
$TDUPDATE
 40
2459091.7073148149065673
  9
$TDINDWG
 40
0.3965579861
  9
$TDUSRTIMER
 40
0.3965579861
  9
$USRTIMER
 70
     1
  9
$ANGBASE
 50
0.0
  9
$ANGDIR
 70
     0
  9
$PDMODE
 70
     0
  9
$PDSIZE
 40
0.3125
  9
$PLINEWID
 40
0.0
  9
$COORDS
 70
     1
  9
$SPLFRAME
 70
     0
  9
$SPLINETYPE
 70
     6
  9
$SPLINESEGS
 70
     8
  9
$ATTDIA
 70
     1
  9
$ATTREQ
 70
     1
  9
$HANDLING
 70
     1
  9
$HANDSEED
  5
FA48
  9
$SURFTAB1
 70
     6
  9
$SURFTAB2
 70
     6
  9
$SURFTYPE
 70
     6
  9
$SURFU
 70
     6
  9
$SURFV
 70
     6
  9
$UCSNAME
  2

  9
$UCSORG
 10
0.0
 20
0.0
 30
0.0
  9
$UCSXDIR
 10
1.0
 20
0.0
 30
0.0
  9
$UCSYDIR
 10
0.0
 20
1.0
 30
0.0
  9
$PUCSNAME
  2

  9
$PUCSORG
 10
0.0
 20
0.0
 30
0.0
  9
$PUCSXDIR
 10
1.0
 20
0.0
 30
0.0
  9
$PUCSYDIR
 10
0.0
 20
1.0
 30
0.0
  9
$USERI1
 70
     0
  9
$USERI2
 70
     0
  9
$USERI3
 70
     0
  9
$USERI4
 70
     0
  9
$USERI5
 70
     0
  9
$USERR1
 40
0.0
  9
$USERR2
 40
0.0
  9
$USERR3
 40
0.0
  9
$USERR4
 40
0.0
  9
$USERR5
 40
0.0
  9
$WORLDVIEW
 70
     1
  9
$SHADEDGE
 70
     3
  9
$SHADEDIF
 70
    70
  9
$TILEMODE
 70
     1
  9
$MAXACTVP
 70
    64
  9
$PLIMCHECK
 70
     0
  9
$PEXTMIN
 10
1.0000000000000000E+20
 20
1.0000000000000000E+20
 30
1.0000000000000000E+20
  9
$PEXTMAX
 10
-1.0000000000000000E+20
 20
-1.0000000000000000E+20
 30
-1.0000000000000000E+20
  9
$PLIMMIN
 10
0.0
 20
0.0
  9
$PLIMMAX
 10
12.0
 20
9.0
  9
$UNITMODE
 70
     0
  9
$VISRETAIN
 70
     1
  9
$PLINEGEN
 70
     0
  9
$PSLTSCALE
 70
     1
  0
ENDSEC
  0
SECTION
  2
TABLES
  0
TABLE
  2
VPORT
 70
     1
  0
VPORT
  2
*ACTIVE
 70
     0
 10
0.0
 20
0.0
 11
1.0
 21
1.0
 12
136.6637112738434041
 22
25.6096758391077799
 13
0.0
 23
0.0
 14
1.0
 24
1.0
 15
0.0
 25
0.0
 16
0.0
 26
0.0
 36
60.4960186965801583
 17
3911.3653564453120453
 27
132.5796051025390057
 37
0.0
 40
18.9497403872389008
 41
2.5522620904836191
 42
50.0
 43
0.0
 44
0.0
 50
0.0
 51
0.0
 71
     0
 72
   100
 73
     1
 74
     1
 75
     0
 76
     0
 77
     0
 78
     0
  0
ENDTAB
  0
TABLE
  2
LTYPE
 70
     2
  0
LTYPE
  2
CONTINUOUS
 70
     0
  3
Solid line
 72
    65
 73
     0
 40
0.0
  0
LTYPE
  2
PHANTOM2
 70
     0
  3
___ _ _ ___ _ _ ___ _ _ ___ _ _
 72
    65
 73
     6
 40
1.25
 49
0.625
 49
-0.125
 49
0.125
 49
-0.125
 49
0.125
 49
-0.125
  0
ENDTAB
  0
TABLE
  2
LAYER
 70
     2
  0
LAYER
  2
0
 70
     0
 62
   255
  6
CONTINUOUS
  0
LAYER
  2
DEFPOINTS
 70
     0
 62
     7
  6
CONTINUOUS
  0
ENDTAB
  0
TABLE
  2
STYLE
 70
     1
  0
STYLE
  2
STANDARD
 70
     0
 40
0.0
 41
0.8
 50
0.0
 71
     0
 42
0.2
  3
txt
  4

  0
ENDTAB
  0
TABLE
  2
VIEW
 70
     0
  0
ENDTAB
  0
TABLE
  2
UCS
 70
     0
  0
ENDTAB
  0
TABLE
  2
APPID
 70
    10
  0
APPID
  2
ACAD
 70
     0
  0
APPID
  2
ACAD_MLEADERVER
 70
     0
  0
APPID
  2
ACAD_EXEMPT_FROM_CAD_STANDARDS
 70
     0
  0
APPID
  2
ACAD_NAV_VCDISPLAY
 70
     0
  0
APPID
  2
ACAECLAYERSTANDARD
 70
     0
  0
APPID
  2
ACCMTRANSPARENCY
 70
     0
  0
APPID
  2
ACAD_DSTYLE_DIMJAG
 70
     0
  0
APPID
  2
ACAD_DSTYLE_DIMTALN
 70
     0
  0
APPID
  2
ACDBATTR
 70
     0
  0
APPID
  2
ACADANNOTATIVE
 70
     0
  0
ENDTAB
  0
TABLE
  2
DIMSTYLE
 70
     1
  0
DIMSTYLE
  2
STANDARD
 70
     0
  3

  4

  5

  6

  7

 40
1.0
 41
0.1875
 42
0.0625
 43
0.38
 44
0.125
 45
0.0
 46
0.0
 47
0.01
 48
0.01
140
0.15625
141
0.09
142
0.0
143
25.3999999999999986
144
1.0
145
0.0
146
1.0
147
0.09
 71
     1
 72
     0
 73
     1
 74
     1
 75
     0
 76
     0
 77
     0
 78
     4
170
     0
171
     2
172
     0
173
     0
174
     0
175
     0
176
     0
177
     0
178
     0
  0
ENDTAB
  0
ENDSEC
  0
SECTION
  2
BLOCKS
  0
BLOCK
  8
0
  2
$MODEL_SPACE
 70
     0
 10
0.0
 20
0.0
 30
0.0
  3
$MODEL_SPACE
  1

  0
ENDBLK
  5
21
  8
0
  0
BLOCK
 67
     1
  8
0
  2
$PAPER_SPACE
 70
     0
 10
0.0
 20
0.0
 30
0.0
  3
$PAPER_SPACE
  1

  0
ENDBLK
  5
1D
 67
     1
  8
0
  0
ENDSEC
  0
SECTION
  2
ENTITIES
  0
LINE
  5
F6F5
  8
0
 10
4034.7104881502777971
 20
162.7757979819400873
 30
0.0
 11
4034.7104881502777971
 21
162.4805223913402017
 31
0.0
  0
LINE
  5
F6F6
  8
0
 10
4035.3876535046779281
 20
162.4608373520401017
 30
0.0
 11
4035.3876535046779281
 21
153.7040401185400924
 31
0.0
  0
LINE
  5
F6F7
  8
0
 10
4035.3876535046779281
 20
153.6813097929401124
 30
0.0
 11
4035.3876535046779281
 21
153.6419397142400953
 31
0.0
  0
LINE
  5
F6F8
  8
0
 10
4036.5136377565791008
 20
162.4608373520401017
 30
0.0
 11
4036.5136377565791008
 21
161.2009948323392052
 31
0.0
  0
LINE
  5
F6F9
  8
0
 10
4036.5136377565791008
 20
160.4530042811410908
 30
0.0
 11
4036.5136377565791008
 21
158.2482389267391909
 31
0.0
  0
LINE
  5
F6FA
  8
0
 10
4036.5136377565791008
 20
157.5002483755411049
 30
0.0
 11
4036.5136377565791008
 21
155.2954625488391969
 31
0.0
  0
LINE
  5
F6FB
  8
0
 10
4036.5136377565791008
 20
154.5474719976411109
 30
0.0
 11
4036.5136377565791008
 21
153.7040401185400924
 31
0.0
  0
LINE
  5
F6FC
  8
0
 10
4036.5136377565791008
 20
153.6813097929401124
 30
0.0
 11
4036.5136377565791008
 21
153.6419397142400953
 31
0.0
  0
LINE
  5
F6FD
  8
0
 10
4037.1908031109787771
 20
162.7757979819400873
 30
0.0
 11
4037.1908031109787771
 21
162.4805223913402017
 31
0.0
  0
LINE
  5
F6FE
  8
0
 10
4035.4073385439778576
 20
153.6926749557401024
 30
0.0
 11
4035.3876535046779281
 21
153.7040401185400924
 31
0.0
  0
LINE
  5
F6FF
  8
0
 10
4036.4939527172778071
 20
153.6926749557401024
 30
0.0
 11
4036.5136377565791008
 21
153.6813097929401124
 31
0.0
  0
LINE
  5
F700
  8
0
 10
4035.4270235833791958
 20
153.6025696354400907
 30
0.0
 11
4036.4742676778791974
 21
153.6025696354400907
 31
0.0
  0
LINE
  5
F701
  8
0
 10
4059.4230865754789193
 20
153.6025696354400907
 30
0.0
 11
4060.4703306699780114
 21
153.6025696354400907
 31
0.0
  0
LINE
  5
F702
  8
0
 10
4060.5097007487788687
 20
153.6813097929401124
 30
0.0
 11
4059.3837164967781064
 21
153.6813097929401124
 31
0.0
  0
LINE
  5
F703
  8
0
 10
4036.5136377565791008
 20
153.6813097929401124
 30
0.0
 11
4035.3876535046779281
 21
153.6813097929401124
 31
0.0
  0
LINE
  5
F704
  8
0
 10
4060.4900157093788948
 20
153.6926749557401024
 30
0.0
 11
4059.4034015361789898
 21
153.6926749557401024
 31
0.0
  0
LINE
  5
F705
  8
0
 10
4036.4939527172778071
 20
153.6926749557401024
 30
0.0
 11
4035.4073385439778576
 21
153.6926749557401024
 31
0.0
  0
LINE
  5
F706
  8
0
 10
4035.3876535046779281
 20
153.7040401185400924
 30
0.0
 11
4036.5136377565791008
 21
153.7040401185400924
 31
0.0
  0
LINE
  5
F707
  8
0
 10
4059.3837164967781064
 20
153.7040401185400924
 30
0.0
 11
4060.5097007487788687
 21
153.7040401185400924
 31
0.0
  0
LINE
  5
F708
  8
0
 10
4036.5067873352691095
 20
154.555325540940089
 30
0.0
 11
4059.3905669180880977
 21
154.555325540940089
 31
0.0
  0
LINE
  5
F709
  8
0
 10
4036.5067873352691095
 20
155.287609005540105
 30
0.0
 11
4059.3905669180880977
 21
155.287609005540105
 31
0.0
  0
LINE
  5
F70A
  8
0
 10
4035.4073385439778576
 20
153.6926749557401024
 30
0.0
 11
4035.3876535046779281
 21
153.6813097929401124
 31
0.0
  0
LINE
  5
F70B
  8
0
 10
4036.4939527172778071
 20
153.6926749557401024
 30
0.0
 11
4036.5136377565791008
 21
153.7040401185400924
 31
0.0
  0
LINE
  5
F70C
  8
0
 10
4036.5068048626239943
 20
157.508081446440201
 30
0.0
 11
4059.3905493907332129
 21
157.5080814464400873
 31
0.0
  0
LINE
  5
F70D
  8
0
 10
4036.5067698096117965
 20
158.2403649110401034
 30
0.0
 11
4059.3905844437458654
 21
158.2403649110401034
 31
0.0
  0
LINE
  5
F70E
  8
0
 10
4036.5136377565791008
 20
159.048435777240087
 30
0.0
 11
4059.3837164967781064
 21
159.048435777240087
 31
0.0
  0
LINE
  5
F70F
  8
0
 10
4036.5136377565791008
 20
159.780719241740087
 30
0.0
 11
4059.3837164967781064
 21
159.780719241740087
 31
0.0
  0
LINE
  5
F710
  8
0
 10
4059.4034015361789898
 20
153.6926749557401024
 30
0.0
 11
4059.3837164967781064
 21
153.7040401185400924
 31
0.0
  0
LINE
  5
F711
  8
0
 10
4036.5068048626239943
 20
160.4608373520401869
 30
0.0
 11
4059.3905493907332129
 21
160.4608373520401017
 31
0.0
  0
LINE
  5
F712
  8
0
 10
4060.4900157093788948
 20
153.6926749557401024
 30
0.0
 11
4060.5097007487788687
 21
153.6813097929401124
 31
0.0
  0
LINE
  5
F713
  8
0
 10
4036.5067698095258493
 20
161.1931208165401017
 30
0.0
 11
4059.3905844438309032
 21
161.1931208165401017
 31
0.0
  0
LINE
  5
F714
  8
0
 10
4034.7301731896782258
 20
162.4608373520401017
 30
0.0
 11
4037.1711180715788032
 21
162.4608373520401017
 31
0.0
  0
LINE
  5
F715
  8
0
 10
4058.7262361817788587
 20
162.4608373520401017
 30
0.0
 11
4061.167181063678072
 21
162.4608373520401017
 31
0.0
  0
LINE
  5
F716
  8
0
 10
4061.1868661030780459
 20
162.7757979819400873
 30
0.0
 11
4058.7065511424780198
 21
162.7757979819400873
 31
0.0
  0
LINE
  5
F717
  8
0
 10
4037.1908031109787771
 20
162.7757979819400873
 30
0.0
 11
4034.7104881502777971
 21
162.7757979819400873
 31
0.0
  0
LINE
  5
F718
  8
0
 10
4059.4034015361789898
 20
153.6926749557401024
 30
0.0
 11
4059.3837164967781064
 21
153.6813097929401124
 31
0.0
  0
LINE
  5
F719
  8
0
 10
4060.4900157093788948
 20
153.6926749557401024
 30
0.0
 11
4060.5097007487788687
 21
153.7040401185400924
 31
0.0
  0
LINE
  5
F71A
  8
0
 10
4058.7065511424780198
 20
162.7757979819400873
 30
0.0
 11
4058.7065511424780198
 21
162.4805223913402017
 31
0.0
  0
LINE
  5
F71B
  8
0
 10
4059.3837164967781064
 20
162.4608373520401017
 30
0.0
 11
4059.3837164967781064
 21
161.2009948323405126
 31
0.0
  0
LINE
  5
F71C
  8
0
 10
4059.3837164967781064
 20
160.4530042811398118
 30
0.0
 11
4059.3837164967781064
 21
158.248238926740413
 31
0.0
  0
LINE
  5
F71D
  8
0
 10
4059.3837164967781064
 20
157.5002483755399112
 30
0.0
 11
4059.3837164967781064
 21
155.2954625488403906
 31
0.0
  0
LINE
  5
F71E
  8
0
 10
4059.3837164967781064
 20
154.5474719976398035
 30
0.0
 11
4059.3837164967781064
 21
153.7040401185400924
 31
0.0
  0
LINE
  5
F71F
  8
0
 10
4059.3837164967781064
 20
153.6813097929401124
 30
0.0
 11
4059.3837164967781064
 21
153.6419397142400953
 31
0.0
  0
LINE
  5
F720
  8
0
 10
4060.5097007487788687
 20
162.4608373520401017
 30
0.0
 11
4060.5097007487788687
 21
153.7040401185400924
 31
0.0
  0
LINE
  5
F721
  8
0
 10
4060.5097007487788687
 20
153.6813097929401124
 30
0.0
 11
4060.5097007487788687
 21
153.6419397142400953
 31
0.0
  0
LINE
  5
F722
  8
0
 10
4061.1868661030780459
 20
162.7757979819400873
 30
0.0
 11
4061.1868661030780459
 21
162.4805223913402017
 31
0.0
  0
ARC
  5
F723
  8
0
 10
4036.4742676778791974
 20
153.6419397142400953
 30
0.0
 40
0.0393700787
 50
270.0
 51
0.0
  0
ARC
  5
F724
  8
0
 10
4035.4270235833791958
 20
153.6419397142400953
 30
0.0
 40
0.0393700787
 50
180.0
 51
270.0
  0
ARC
  5
F725
  8
0
 10
4059.4230865754789193
 20
153.6419397142400953
 30
0.0
 40
0.0393700787
 50
180.0
 51
270.0
  0
ARC
  5
F726
  8
0
 10
4060.4703306699780114
 20
153.6419397142400953
 30
0.0
 40
0.0393700787
 50
270.0
 51
0.0
  0
ARC
  5
F727
  8
0
 10
4034.7301731896782258
 20
162.4805223913402017
 30
0.0
 40
0.0196850394
 50
180.0
 51
270.0
  0
ARC
  5
F728
  8
0
 10
4037.1711180715788032
 20
162.4805223913402017
 30
0.0
 40
0.0196850394
 50
270.0
 51
0.0
  0
ARC
  5
F729
  8
0
 10
4058.7262361817788587
 20
162.4805223913402017
 30
0.0
 40
0.0196850394
 50
180.0
 51
270.0
  0
ARC
  5
F72A
  8
0
 10
4061.167181063678072
 20
162.4805223913402017
 30
0.0
 40
0.0196850394
 50
270.0
 51
0.0
  0
ARC
  5
F72B
  8
0
 10
4036.9344709803181104
 20
154.921467273240097
 30
0.0
 40
0.5630036131089513
 50
138.3724468538794099
 51
221.6275531461205901
  0
ARC
  5
F72C
  8
0
 10
4036.9344709803181104
 20
157.8742436511402047
 30
0.0
 40
0.5630036131089513
 50
138.3724468538794099
 51
221.6275531461205901
  0
ARC
  5
F72D
  8
0
 10
4036.9344709803181104
 20
160.8269995567401054
 30
0.0
 40
0.5630036131089513
 50
138.3724468538806036
 51
221.6275531461205901
  0
ARC
  5
F72E
  8
0
 10
4058.9628832730390968
 20
154.921467273240097
 30
0.0
 40
0.5630036131089513
 50
318.3724468537924963
 51
41.6275531462075676
  0
ARC
  5
F72F
  8
0
 10
4058.9628832730390968
 20
157.8742436511402047
 30
0.0
 40
0.5630036131089513
 50
318.3724468537924963
 51
41.6275531462075676
  0
ARC
  5
F730
  8
0
 10
4058.9628832730390968
 20
160.8269995567401054
 30
0.0
 40
0.5630036131089513
 50
318.3724468537751022
 51
41.6275531462248765
  0
ATTDEF
  5
F732
  8
DEFPOINTS
 10
4047.9492095949981376
 20
162.7744277353772873
 30
0.0
 40
0.001
  1
K-45130T
  3

  2
MODELNUMBER
 70
     0
1001
ACDBATTR
1070
     0
1070
     1
  0
ATTDEF
  5
F733
  8
DEFPOINTS
 10
4047.9491528086828112
 20
162.7727610687105937
 30
0.0
 40
0.001
  1
STILLNESS
  3

  2
TRADENAME
 70
     0
1001
ACDBATTR
1070
     0
1070
     1
  0
ATTDEF
  5
F734
  8
DEFPOINTS
 10
4047.9492095949981376
 20
162.7710944020439001
 30
0.0
 40
0.001
  1
HOTELIER
  3

  2
PRODUCT
 70
     0
1001
ACDBATTR
1070
     0
1070
     1
  0
ENDSEC
  0
EOF
