  0
SECTION
  2
HEADER
  9
$ACADVER
  1
AC1009
  9
$INSBASE
 10
4580.2616685367447644
 20
190.6076349999077024
 30
0.0
  9
$EXTMIN
 10
4578.762812303642022
 20
172.0076349999048944
 30
0.0
  9
$EXTMAX
 10
4582.9387559950837385
 20
190.6138840065547981
 30
0.0
  9
$LIMMIN
 10
0.0
 20
0.0
  9
$LIMMAX
 10
11.6929133858000007
 20
8.2677165353999982
  9
$ORTHOMODE
 70
     0
  9
$REGENMODE
 70
     1
  9
$FILLMODE
 70
     1
  9
$QTEXTMODE
 70
     0
  9
$MIRRTEXT
 70
     0
  9
$DRAGMODE
 70
     2
  9
$LTSCALE
 40
0.6431102362
  9
$OSMODE
 70
  4095
  9
$ATTMODE
 70
     1
  9
$TEXTSIZE
 40
0.2
  9
$TRACEWID
 40
0.05
  9
$TEXTSTYLE
  7
STANDARD
  9
$CLAYER
  8
0
  9
$CELTYPE
  6
BYLAYER
  9
$CECOLOR
 62
   256
  9
$DIMSCALE
 40
1.0
  9
$DIMASZ
 40
0.1875
  9
$DIMEXO
 40
0.0625
  9
$DIMDLI
 40
0.4443307087
  9
$DIMRND
 40
0.0
  9
$DIMDLE
 40
0.0
  9
$DIMEXE
 40
0.125
  9
$DIMTP
 40
0.01
  9
$DIMTM
 40
0.01
  9
$DIMTXT
 40
2.0
  9
$DIMCEN
 40
0.1052362205
  9
$DIMTSZ
 40
0.0
  9
$DIMTOL
 70
     1
  9
$DIMLIM
 70
     0
  9
$DIMTIH
 70
     1
  9
$DIMTOH
 70
     1
  9
$DIMSE1
 70
     0
  9
$DIMSE2
 70
     0
  9
$DIMTAD
 70
     0
  9
$DIMZIN
 70
     0
  9
$DIMBLK
  1

  9
$DIMASO
 70
     1
  9
$DIMSHO
 70
     1
  9
$DIMPOST
  1
\X
  9
$DIMAPOST
  1

  9
$DIMALT
 70
     1
  9
$DIMALTD
 70
     2
  9
$DIMALTF
 40
25.3999999999999986
  9
$DIMLFAC
 40
1.0
  9
$DIMTOFL
 70
     0
  9
$DIMTVP
 40
0.0
  9
$DIMTIX
 70
     0
  9
$DIMSOXD
 70
     0
  9
$DIMSAH
 70
     0
  9
$DIMBLK1
  1

  9
$DIMBLK2
  1

  9
$DIMSTYLE
  2
STANDARD
  9
$DIMCLRD
 70
     0
  9
$DIMCLRE
 70
     0
  9
$DIMCLRT
 70
     0
  9
$DIMTFAC
 40
1.0
  9
$DIMGAP
 40
0.09
  9
$LUNITS
 70
     2
  9
$LUPREC
 70
     4
  9
$SKETCHINC
 40
0.1
  9
$FILLETRAD
 40
0.0
  9
$AUNITS
 70
     0
  9
$AUPREC
 70
     0
  9
$MENU
  1
.
  9
$ELEVATION
 40
0.0
  9
$PELEVATION
 40
0.0
  9
$THICKNESS
 40
0.0
  9
$LIMCHECK
 70
     0
  9
$BLIPMODE
 70
     0
  9
$CHAMFERA
 40
0.0
  9
$CHAMFERB
 40
0.0
  9
$SKPOLY
 70
     0
  9
$TDCREATE
 40
2458060.468368056230247
  9
$TDUPDATE
 40
2460094.4886689819395542
  9
$TDINDWG
 40
0.4161181713
  9
$TDUSRTIMER
 40
0.4161181713
  9
$USRTIMER
 70
     1
  9
$ANGBASE
 50
0.0
  9
$ANGDIR
 70
     0
  9
$PDMODE
 70
     0
  9
$PDSIZE
 40
0.3125
  9
$PLINEWID
 40
0.0
  9
$COORDS
 70
     1
  9
$SPLFRAME
 70
     0
  9
$SPLINETYPE
 70
     6
  9
$SPLINESEGS
 70
     8
  9
$ATTDIA
 70
     1
  9
$ATTREQ
 70
     1
  9
$HANDLING
 70
     1
  9
$HANDSEED
  5
C6DB
  9
$SURFTAB1
 70
     6
  9
$SURFTAB2
 70
     6
  9
$SURFTYPE
 70
     6
  9
$SURFU
 70
     6
  9
$SURFV
 70
     6
  9
$UCSNAME
  2

  9
$UCSORG
 10
0.0
 20
0.0
 30
0.0
  9
$UCSXDIR
 10
1.0
 20
0.0
 30
0.0
  9
$UCSYDIR
 10
0.0
 20
1.0
 30
0.0
  9
$PUCSNAME
  2

  9
$PUCSORG
 10
0.0
 20
0.0
 30
0.0
  9
$PUCSXDIR
 10
1.0
 20
0.0
 30
0.0
  9
$PUCSYDIR
 10
0.0
 20
1.0
 30
0.0
  9
$USERI1
 70
     0
  9
$USERI2
 70
     0
  9
$USERI3
 70
     0
  9
$USERI4
 70
     0
  9
$USERI5
 70
     0
  9
$USERR1
 40
0.0
  9
$USERR2
 40
0.0
  9
$USERR3
 40
0.0
  9
$USERR4
 40
0.0
  9
$USERR5
 40
0.0
  9
$WORLDVIEW
 70
     1
  9
$SHADEDGE
 70
     3
  9
$SHADEDIF
 70
    70
  9
$TILEMODE
 70
     1
  9
$MAXACTVP
 70
    64
  9
$PLIMCHECK
 70
     0
  9
$PEXTMIN
 10
1.0000000000000000E+20
 20
1.0000000000000000E+20
 30
1.0000000000000000E+20
  9
$PEXTMAX
 10
-1.0000000000000000E+20
 20
-1.0000000000000000E+20
 30
-1.0000000000000000E+20
  9
$PLIMMIN
 10
0.0
 20
0.0
  9
$PLIMMAX
 10
12.0
 20
9.0
  9
$UNITMODE
 70
     0
  9
$VISRETAIN
 70
     1
  9
$PLINEGEN
 70
     0
  9
$PSLTSCALE
 70
     1
  0
ENDSEC
  0
SECTION
  2
TABLES
  0
TABLE
  2
VPORT
 70
     1
  0
VPORT
  2
*ACTIVE
 70
     0
 10
0.0
 20
0.0
 11
1.0
 21
1.0
 12
777.306716766550835
 22
55.3154973064799691
 13
0.0
 23
0.0
 14
1.0
 24
1.0
 15
0.0
 25
0.0
 16
0.0
 26
0.0
 36
17.1152628219792007
 17
3803.5440673828129547
 27
125.9952621967499056
 37
0.0
 40
18.763028984815179
 41
2.4474358974358972
 42
50.0
 43
0.0
 44
0.0
 50
0.0
 51
0.0
 71
     0
 72
   100
 73
     1
 74
     1
 75
     0
 76
     0
 77
     0
 78
     0
  0
ENDTAB
  0
TABLE
  2
LTYPE
 70
     2
  0
LTYPE
  2
CONTINUOUS
 70
     0
  3
Solid line
 72
    65
 73
     0
 40
0.0
  0
LTYPE
  2
PHANTOM2
 70
     0
  3
___ _ _ ___ _ _ ___ _ _ ___ _ _
 72
    65
 73
     6
 40
1.25
 49
0.625
 49
-0.125
 49
0.125
 49
-0.125
 49
0.125
 49
-0.125
  0
ENDTAB
  0
TABLE
  2
LAYER
 70
     2
  0
LAYER
  2
0
 70
     0
 62
   255
  6
CONTINUOUS
  0
LAYER
  2
DEFPOINTS
 70
     0
 62
     7
  6
CONTINUOUS
  0
ENDTAB
  0
TABLE
  2
STYLE
 70
     1
  0
STYLE
  2
STANDARD
 70
     0
 40
0.0
 41
0.8
 50
0.0
 71
     0
 42
0.2
  3
txt
  4

  0
ENDTAB
  0
TABLE
  2
VIEW
 70
     0
  0
ENDTAB
  0
TABLE
  2
UCS
 70
     0
  0
ENDTAB
  0
TABLE
  2
APPID
 70
     9
  0
APPID
  2
ACAD
 70
     0
  0
APPID
  2
ACAD_MLEADERVER
 70
     0
  0
APPID
  2
ACAD_EXEMPT_FROM_CAD_STANDARDS
 70
     0
  0
APPID
  2
ACAD_NAV_VCDISPLAY
 70
     0
  0
APPID
  2
ACAECLAYERSTANDARD
 70
     0
  0
APPID
  2
ACCMTRANSPARENCY
 70
     0
  0
APPID
  2
ACAD_DSTYLE_DIMJAG
 70
     0
  0
APPID
  2
ACAD_DSTYLE_DIMTALN
 70
     0
  0
APPID
  2
ACDBATTR
 70
     0
  0
ENDTAB
  0
TABLE
  2
DIMSTYLE
 70
     1
  0
DIMSTYLE
  2
STANDARD
 70
     0
  3

  4

  5

  6

  7

 40
1.0
 41
0.1875
 42
0.0625
 43
0.38
 44
0.125
 45
0.0
 46
0.0
 47
0.01
 48
0.01
140
0.15625
141
0.09
142
0.0
143
25.3999999999999986
144
1.0
145
0.0
146
1.0
147
0.09
 71
     1
 72
     0
 73
     1
 74
     1
 75
     0
 76
     0
 77
     0
 78
     4
170
     0
171
     2
172
     0
173
     0
174
     0
175
     0
176
     0
177
     0
178
     0
  0
ENDTAB
  0
ENDSEC
  0
SECTION
  2
BLOCKS
  0
BLOCK
  8
0
  2
$MODEL_SPACE
 70
     0
 10
0.0
 20
0.0
 30
0.0
  3
$MODEL_SPACE
  1

  0
ENDBLK
  5
21
  8
0
  0
BLOCK
 67
     1
  8
0
  2
$PAPER_SPACE
 70
     0
 10
0.0
 20
0.0
 30
0.0
  3
$PAPER_SPACE
  1

  0
ENDBLK
  5
1D
 67
     1
  8
0
  0
BLOCK
  8
0
  2
_FILLED
 70
     0
 10
0.0
 20
0.0
 30
0.0
  3
_FILLED
  1

  0
SOLID
  5
BEBC
  8
0
  6
BYBLOCK
 62
     0
 10
0.0
 20
0.0
 30
0.0
 11
-1.0
 21
0.1666666667
 31
0.0
 12
-1.0
 22
-0.1666666667
 32
0.0
 13
-1.0
 23
-0.1666666667
 33
0.0
  0
ENDBLK
  5
BEBD
  8
0
  6
BYBLOCK
 62
     0
  0
ENDSEC
  0
SECTION
  2
ENTITIES
  0
ATTDEF
  5
3930
  8
DEFPOINTS
 10
4580.2603712212558094
 20
190.6128840065547081
 30
0.0
 40
0.001
  1
K-45210W
  3

  2
MODELNUMBER
 70
     0
1001
ACDBATTR
1070
     0
1070
     1
  0
ATTDEF
  5
3931
  8
DEFPOINTS
 10
4580.2603712212558094
 20
190.6112173398880998
 30
0.0
 40
0.001
  1
HYDRORAIL-R/BEAM
  3

  2
TRADENAME
 70
     0
1001
ACDBATTR
1070
     0
1070
     1
  0
ATTDEF
  5
3932
  8
DEFPOINTS
 10
4580.2603712212558094
 20
190.6095506732214062
 30
0.0
 40
0.001
  1
SHOWER COLUMN 
  3

  2
PRODUCT
 70
     0
1001
ACDBATTR
1070
     0
1070
     1
  0
LINE
  5
C581
  8
0
 10
4579.8046661207854413
 20
172.0076349999077081
 30
0.0
 11
4580.7186656767844397
 21
172.0076349999077081
 31
0.0
  0
LINE
  5
C582
  8
0
 10
4580.8676096815843266
 20
190.0932885331077102
 30
0.0
 11
4580.8747330076848812
 21
190.1056264958077122
 31
0.0
  0
LINE
  5
C583
  8
0
 10
4578.7673248837836582
 20
190.2834446850077086
 30
0.0
 11
4578.762812303642022
 21
190.6076349999077024
 31
0.0
  0
LINE
  5
C584
  8
0
 10
4579.7029801034841512
 20
189.1819369035077045
 30
0.0
 11
4579.6891781263848316
 21
189.9726516456076979
 31
0.0
  0
LINE
  5
C585
  8
0
 10
4579.7696661207837678
 20
188.1076349999077024
 30
0.0
 11
4579.7696661207837678
 21
172.1076349999077024
 31
0.0
  0
LINE
  5
C586
  8
0
 10
4579.7696661207837678
 20
172.0976349999077115
 30
0.0
 11
4579.7696661207837678
 21
172.0426349999077047
 31
0.0
  0
LINE
  5
C587
  8
0
 10
4579.7731661207835714
 20
188.4570457621040873
 30
0.0
 11
4579.7731661207835714
 21
189.142634999907699
 31
0.0
  0
LINE
  5
C588
  8
0
 10
4580.7501661207843426
 20
188.4558743594112968
 30
0.0
 11
4580.7501661207843426
 21
189.142634999907699
 31
0.0
  0
LINE
  5
C589
  8
0
 10
4580.7536661207832367
 20
188.1076349999077024
 30
0.0
 11
4580.7536661207832367
 21
172.1076349999077024
 31
0.0
  0
LINE
  5
C58A
  8
0
 10
4580.7536661207832367
 20
172.0976349999077115
 30
0.0
 11
4580.7536661207832367
 21
172.0426349999077047
 31
0.0
  0
LINE
  5
C58B
  8
0
 10
4580.8203521380846723
 20
189.1819369035077045
 30
0.0
 11
4580.834154115183992
 21
189.9726516456076979
 31
0.0
  0
LINE
  5
C58C
  8
0
 10
4582.9363601614713843
 20
188.4843027241815889
 30
0.0
 11
4582.9301707044469367
 21
188.4685760266671082
 31
0.0
  0
LINE
  5
C58D
  8
0
 10
4581.5506661207846264
 20
188.4983603846077074
 30
0.0
 11
4581.5506661207846264
 21
187.7163833338809127
 31
0.0
  0
LINE
  5
C58E
  8
0
 10
4581.5706661207841535
 20
187.727634999907707
 30
0.0
 11
4581.5706661207841535
 21
188.4876349999076979
 31
0.0
  0
LINE
  5
C58F
  8
0
 10
4581.5906661207836805
 20
187.717251566807704
 30
0.0
 11
4581.5906661207836805
 21
188.4980184330077009
 31
0.0
  0
LINE
  5
C590
  8
0
 10
4581.7560073577842559
 20
190.2834446850077086
 30
0.0
 11
4581.7628123035656245
 21
190.6076349999077024
 31
0.0
  0
LINE
  5
C591
  8
0
 10
4579.6557225599835874
 20
190.0932885331077102
 30
0.0
 11
4579.6485992338848519
 21
190.1056264958077122
 31
0.0
  0
LINE
  5
C592
  8
0
 10
4580.0220454835844066
 20
188.5372556371077053
 30
0.0
 11
4580.021383629084994
 21
188.5379174916076863
 31
0.0
  0
LINE
  5
C593
  8
0
 10
4582.9363600260448948
 20
187.7309676226454087
 30
0.0
 11
4582.9301706256846956
 21
187.746693913707702
 31
0.0
  0
LINE
  5
C594
  8
0
 10
4581.5706661207841535
 20
187.727634999907707
 30
0.0
 11
4581.5506661207846264
 21
187.727634999907707
 31
0.0
  0
LINE
  5
C595
  8
0
 10
4582.7951583735375607
 20
187.753235265007703
 30
0.0
 11
4582.903755995784195
 21
187.753235265007703
 31
0.0
  0
LINE
  5
C596
  8
0
 10
4582.8976399240837054
 20
187.7687702728076999
 30
0.0
 11
4582.7629028406408906
 21
187.7687702728076999
 31
0.0
  0
LINE
  5
C597
  8
0
 10
4581.5706661207841535
 20
187.7976341117077084
 30
0.0
 11
4581.5906661207836805
 21
187.7976341537076905
 31
0.0
  0
LINE
  5
C598
  8
0
 10
4581.6256661207526122
 20
187.682251566907695
 30
0.0
 11
4581.6687722538836169
 21
187.6814885975076947
 31
0.0
  0
LINE
  5
C599
  8
0
 10
4581.5906661285844166
 20
188.4176358460076983
 30
0.0
 11
4581.5706661207841535
 21
188.4176358892077019
 31
0.0
  0
LINE
  5
C59A
  8
0
 10
4582.8976399240837054
 20
188.4464943963077133
 30
0.0
 11
4582.7629109013932975
 21
188.4464943963077133
 31
0.0
  0
LINE
  5
C59B
  8
0
 10
4582.903755995784195
 20
188.4620347348077019
 30
0.0
 11
4582.7951583735375607
 21
188.4620347348077019
 31
0.0
  0
LINE
  5
C59C
  8
0
 10
4581.5506661207846264
 20
188.4876349999076979
 30
0.0
 11
4581.5706661207841535
 21
188.4876349999076979
 31
0.0
  0
LINE
  5
C59D
  8
0
 10
4581.6545629345837369
 20
188.5330384641077046
 30
0.0
 11
4581.625666120785354
 21
188.533018433207701
 31
0.0
  0
LINE
  5
C59E
  8
0
 10
4579.7429793626843093
 20
189.142634999907699
 30
0.0
 11
4580.7803528788854237
 21
189.142634999907699
 31
0.0
  0
LINE
  5
C59F
  8
0
 10
4580.8996978138848135
 20
190.1201911149076977
 30
0.0
 11
4579.6236333950837434
 21
190.1201911700077005
 31
0.0
  0
LINE
  5
C5A0
  8
0
 10
4578.8556009065059698
 20
190.1858777648077989
 30
0.0
 11
4581.6677398591837118
 21
190.1858787704076974
 31
0.0
  0
LINE
  5
C5A1
  8
0
 10
4581.7628123035656245
 20
190.6076349999077024
 30
0.0
 11
4578.762812303642022
 21
190.6076349999077024
 31
0.0
  0
ARC
  5
C5A2
  8
0
 10
4579.8046661207854413
 20
172.0426349999077047
 30
0.0
 40
0.035
 50
180.0
 51
270.0
  0
ARC
  5
C5A3
  8
0
 10
4580.7186661207788347
 20
172.0426349999096942
 30
0.0
 40
0.0350000000048023
 50
269.9992731699989008
 51
359.999999996754525
  0
ARC
  5
C5A4
  8
0
 10
4579.4392162025842481
 20
189.9682885443077112
 30
0.0
 40
0.25
 50
0.9999999369987035
 51
29.9999970342226909
  0
ARC
  5
C5A5
  8
0
 10
4578.8673096532847921
 20
190.2851899256077104
 30
0.0
 40
0.1
 50
181.0000002195997979
 51
263.2710345339261266
  0
ARC
  5
C5A6
  8
0
 10
4579.6919005045847371
 20
190.1306264949076876
 30
0.0
 40
0.05
 50
192.0465614737020985
 51
209.9999987853730943
  0
ARC
  5
C5A7
  8
0
 10
4579.7429740119041526
 20
189.1826350001738035
 30
0.0
 40
0.0400000006240453
 50
181.0000005067934978
 51
270.0076644283897167
  0
ARC
  5
C5A8
  8
0
 10
4580.2616661213296538
 20
188.1076349997098021
 30
0.0
 40
0.6435269810552271
 50
319.8657930813097892
 51
40.6152621677273089
  0
ARC
  5
C5A9
  8
0
 10
4580.2616661207848665
 20
188.1076349999077024
 30
0.0
 40
0.5065
 50
346.2572557758230118
 51
193.7427442241769029
  0
ARC
  5
C5AA
  8
0
 10
4580.2616661207848665
 20
188.1086509376926017
 30
0.0
 40
0.4920010489110596
 50
359.8816892996094907
 51
180.118310700388804
  0
ARC
  5
C5AB
  8
0
 10
4580.8314317369840865
 20
190.1306264949076876
 30
0.0
 40
0.05
 50
330.0000012146268773
 51
347.953375924391878
  0
ARC
  5
C5AC
  8
0
 10
4580.7803582296646709
 20
189.1826350001738035
 30
0.0
 40
0.0400000006240257
 50
269.9923355715582147
 51
358.9999994932260279
  0
ARC
  5
C5AD
  8
0
 10
4580.2616661207848665
 20
202.1032172586077138
 30
0.0
 40
12.0
 50
273.0478141018227234
 51
276.7289654162781858
  0
ARC
  5
C5AE
  8
0
 10
4580.2616661197853318
 20
202.103217254213007
 30
0.0
 40
11.9999999954053091
 50
263.2710345362871749
 51
266.9521809749280123
  0
ARC
  5
C5AF
  8
0
 10
4581.5847390021908723
 20
184.8713675124209885
 30
0.0
 40
2.811377260507737
 50
73.4631029447175905
 51
88.2871498720898842
  0
ARC
  5
C5B0
  8
0
 10
4581.4800018931846353
 20
184.8318628855076895
 30
0.0
 40
2.850272488099999
 50
89.29172781117596
 51
104.7635294320301966
  0
ARC
  5
C5B1
  8
0
 10
4581.6256661331835858
 20
188.498018420607707
 30
0.0
 40
0.0350000124
 50
90.0000202341852855
 51
179.9999809903997061
  0
ARC
  5
C5B2
  8
0
 10
4581.6256661249835815
 20
187.7172515711077097
 30
0.0
 40
0.0350000042
 50
180.0000069284998858
 51
269.9999930714787979
  0
ARC
  5
C5B3
  8
0
 10
4581.515667776868213
 20
188.4983567300103005
 30
0.0
 40
0.0349983441085062
 50
0.0059829403628738
 51
90.7082597868976563
  0
ARC
  5
C5B4
  8
0
 10
4581.5156649542150262
 20
187.7169202453893888
 30
0.0
 40
0.0350052843894843
 50
269.2965010393364764
 51
359.1211621256454123
  0
ARC
  5
C5B5
  8
0
 10
4581.5803346912825873
 20
191.3630943042846866
 30
0.0
 40
2.8310291221786139
 50
271.5024403925763181
 51
286.5117914868778257
  0
ARC
  5
C5B6
  8
0
 10
4581.4800018931846353
 20
191.3834071143076869
 30
0.0
 40
2.850272488099999
 50
255.1636997919019905
 51
270.7082721888240258
  0
ARC
  5
C5B7
  8
0
 10
4581.0841160389845754
 20
189.9682885443077112
 30
0.0
 40
0.25
 50
150.0000029657772984
 51
179.0000000629995895
  0
ARC
  5
C5B8
  8
0
 10
4581.6560225882849409
 20
190.2851899256075967
 30
0.0
 40
0.0999999999999793
 50
276.7289598825125267
 51
358.9999997804114855
  0
ARC
  5
C5B9
  8
0
 10
4582.5451209515849769
 20
188.1076349376077133
 30
0.0
 40
0.5643837412
 50
47.3547102299091023
 51
106.4871137200879048
  0
ARC
  5
C5BA
  8
0
 10
4582.5451209515849769
 20
188.1076350622076916
 30
0.0
 40
0.5643837412
 50
253.512886280292804
 51
312.6452897700909261
  0
ARC
  5
C5BB
  8
0
 10
4582.9037559901844361
 20
187.718240597007707
 30
0.0
 40
0.0350000048
 50
312.6452951232843134
 51
21.3232489795867792
  0
ARC
  5
C5BC
  8
0
 10
4582.9037559909847914
 20
188.4970294030077014
 30
0.0
 40
0.0350000041
 50
338.6773600313990755
 51
47.3547056462975178
  0
ARC
  5
C5BD
  8
0
 10
4582.9037605895564411
 20
188.4970310560391056
 30
0.0
 40
0.0349963215329245
 50
269.9924791026654134
 51
338.6721013513738967
  0
ARC
  5
C5BE
  8
0
 10
4582.8976298461248007
 20
188.4815123214534935
 30
0.0
 40
0.0350179265960195
 50
270.0164893975651239
 51
338.3201970621071837
  0
ARC
  5
C5BF
  8
0
 10
4582.9037604901086524
 20
187.7182387980707858
 30
0.0
 40
0.0349964672254964
 50
21.3286714968344988
 51
90.007358053350373
  0
ARC
  5
C5C0
  8
0
 10
4582.8976416484638321
 20
187.7337667656578901
 30
0.0
 40
0.0350035071922678
 50
21.6730744421619193
 51
90.0028225636381904
  0
ARC
  5
C5C1
  8
0
 10
4580.2617304871428132
 20
188.1076349999077024
 30
0.0
 40
0.6435269816
 50
139.3935420210221992
 51
220.125315343502308
  0
ARC
  5
C5C2
  8
0
 10
4580.2612459433894401
 20
188.1060141233770935
 30
0.0
 40
0.6012030643814473
 50
324.990606463301674
 51
215.1487471510887985
  0
ARC
  5
C5C3
  8
0
 10
4580.2474810310177418
 20
188.1056984647441936
 30
0.0
 40
0.7089106610290187
 50
162.7812181606971933
 51
191.3253623903383129
  0
ARC
  5
C5C4
  8
0
 10
4579.9806946340549985
 20
188.2035637404005968
 30
0.0
 40
0.4253584444022576
 50
119.2020504166840027
 51
164.7353752612247888
  0
ARC
  5
C5C5
  8
0
 10
4580.01358540966703
 20
188.0405545022454987
 30
0.0
 40
0.467121250808194
 50
189.1239830350293118
 51
238.5217044812447114
  0
ARC
  5
C5C6
  8
0
 10
4579.9881202595042851
 20
188.0899651845064966
 30
0.0
 40
0.6538080290279173
 50
159.5648904541085926
 51
179.1340578761819984
  0
ARC
  5
C5C7
  8
0
 10
4579.7397821157082944
 20
188.1680340180818973
 30
0.0
 40
0.3940738425392312
 50
137.1740134535515097
 51
157.5943431496505127
  0
ARC
  5
C5C8
  8
0
 10
4579.6497591251190897
 20
188.2514720947748117
 30
0.0
 40
0.2713299975741124
 50
110.7581370462772981
 51
137.1740134535515097
  0
ARC
  5
C5C9
  8
0
 10
4579.622547970553569
 20
188.3232639338131094
 30
0.0
 40
0.1945542521512327
 50
86.1004315161895732
 51
110.7581370462772981
  0
ARC
  5
C5CA
  8
0
 10
3363.358347437762859
 20
216.9680088306243135
 30
0.0
 40
1216.3371063382389821
 50
358.6400322773711764
 51
358.6431013801372956
  0
ARC
  5
C5CB
  8
0
 10
4579.9030252598613515
 20
188.1209374121409894
 30
0.0
 40
0.5504141642452282
 50
162.5503025376831943
 51
175.4102273891807897
  0
ARC
  5
C5CC
  8
0
 10
4579.7982548392010358
 20
188.1538702998863073
 30
0.0
 40
0.4405896854595328
 50
149.1609307239635029
 51
162.5503025376831943
  0
ARC
  5
C5CD
  8
0
 10
4579.7182334577937581
 20
188.2016466030098911
 30
0.0
 40
0.3473909911420434
 50
134.2352713090843963
 51
149.1609307239635029
  0
ARC
  5
C5CE
  8
0
 10
4579.652750081094382
 20
188.2689017504550861
 30
0.0
 40
0.253522319680481
 50
120.7749071867412027
 51
134.2352713090843963
  0
ARC
  5
C5CF
  8
0
 10
4579.6412999339763701
 20
188.2881286910451024
 30
0.0
 40
0.2311441804941169
 50
104.5354812654315992
 51
120.7749071867412027
  0
ARC
  5
C5D0
  8
0
 10
4579.6277780328591689
 20
188.3402807503725001
 30
0.0
 40
0.1772676633283897
 50
83.6739381740610071
 51
104.5354812654315992
  0
ARC
  5
C5D1
  8
0
 10
4580.8242446604399447
 20
188.0635640398724888
 30
0.0
 40
1.436619126419912
 50
174.3706213870570139
 51
178.5528289762899874
  0
ARC
  5
C5D2
  8
0
 10
4579.9024275379942992
 20
188.1278101402679965
 30
0.0
 40
0.5136290455190896
 50
154.1908827489064038
 51
171.4145803288145942
  0
ARC
  5
C5D3
  8
0
 10
4579.7575267419369993
 20
188.1978863700504121
 30
0.0
 40
0.3526727822721668
 50
132.8042487270907941
 51
154.1908827489064038
  0
ARC
  5
C5D4
  8
0
 10
4579.6883048050585785
 20
188.2682285969102054
 30
0.0
 40
0.2540457145234098
 50
115.0592378182112014
 51
132.1300073034090019
  0
ARC
  5
C5D5
  8
0
 10
4579.6666463323990683
 20
188.313785179914305
 30
0.0
 40
0.2036040584076582
 50
88.5333949137318967
 51
114.9680483976926979
  0
ARC
  5
C5D6
  8
0
 10
4577.3841225099840813
 20
188.2148989479024124
 30
0.0
 40
2.0221930298315458
 50
356.7383921555471034
 51
359.1495004341834942
  0
ARC
  5
C5D7
  8
0
 10
4579.8759644159235904
 20
188.1370585202089956
 30
0.0
 40
0.472299184304154
 50
157.9400828120213873
 51
174.1883849014139116
  0
ARC
  5
C5D8
  8
0
 10
4579.8591878398801782
 20
188.1438571135419977
 30
0.0
 40
0.4541974060747941
 50
141.1308630768673993
 51
157.9400828120213873
  0
ARC
  5
C5D9
  8
0
 10
4579.695605333579806
 20
188.2757061330935926
 30
0.0
 40
0.2440940973812885
 50
119.7684744854737033
 51
141.1308630768673993
  0
ARC
  5
C5DA
  8
0
 10
4579.6922622140191379
 20
188.2815510038089997
 30
0.0
 40
0.2373606761054764
 50
101.4786809672539931
 51
119.7684744854737033
  0
ARC
  5
C5DB
  8
0
 10
4579.6773864629558375
 20
188.3548071671453101
 30
0.0
 40
0.1626093989496063
 50
84.5619191303688069
 51
101.4786809672539931
  0
ARC
  5
C5DC
  8
0
 10
4580.7412625021370332
 20
188.0660595982654968
 30
0.0
 40
1.3034134935317701
 50
173.4964017188067089
 51
178.5146352839365989
  0
ARC
  5
C5DD
  8
0
 10
4579.9572432153736372
 20
188.1280357216510026
 30
0.0
 40
0.5181355665816313
 50
156.1094357906443122
 51
170.4844411589976971
  0
ARC
  5
C5DE
  8
0
 10
4579.8201990518709863
 20
188.1887383365223911
 30
0.0
 40
0.3682492423140864
 50
138.4663391636798053
 51
156.1094357906443122
  0
ARC
  5
C5DF
  8
0
 10
4579.7538477139678434
 20
188.247510570426698
 30
0.0
 40
0.2796113524496822
 50
118.788585448887801
 51
138.4663391636798053
  0
ARC
  5
C5E0
  8
0
 10
4579.7128157658198688
 20
188.322182641331807
 30
0.0
 40
0.1944084244367169
 50
105.4999679040805063
 51
118.788585448887801
  0
ARC
  5
C5E1
  8
0
 10
4579.7271272936823152
 20
188.2705768267738051
 30
0.0
 40
0.2479619483722747
 50
98.1178579226812246
 51
105.4999679040805063
  0
ARC
  5
C5E2
  8
0
 10
4580.219734997031992
 20
188.0856350568494122
 30
0.0
 40
0.7383359531105855
 50
166.4027939174362132
 51
178.8971325604348124
  0
ARC
  5
C5E3
  8
0
 10
4579.9486341391848327
 20
188.1356886790721035
 30
0.0
 40
0.4633116392732855
 50
146.4500439382771901
 51
164.5371350446806957
  0
ARC
  5
C5E4
  8
0
 10
4579.831830065874783
 20
188.2131461503707044
 30
0.0
 40
0.3231586821086841
 50
120.555555601881295
 51
146.4500439382771901
  0
ARC
  5
C5E5
  8
0
 10
4580.1466783495270647
 20
188.1526410924732886
 30
0.0
 40
0.814005345966996
 50
183.7187119877389989
 51
194.5372556910448054
  0
ARC
  5
C5E6
  8
0
 10
4579.7678992239016225
 20
188.0785622039884117
 30
0.0
 40
0.4293948999365169
 50
197.6571341941132118
 51
217.6462876401276958
  0
ARC
  5
C5E7
  8
0
 10
4579.7094109002337063
 20
188.033444810503795
 30
0.0
 40
0.3555270232895176
 50
217.6462876401276958
 51
231.252399414844092
  0
ARC
  5
C5E8
  8
0
 10
4579.6769695197972396
 20
187.9930202203489955
 30
0.0
 40
0.3036946911612856
 50
231.252399414844092
 51
246.0599893013936139
  0
ARC
  5
C5E9
  8
0
 10
4579.630952711194368
 20
187.8893728560906027
 30
0.0
 40
0.1902913279317562
 50
246.0599893013936139
 51
259.5852783700431132
  0
ARC
  5
C5EA
  8
0
 10
4579.644278418139038
 20
187.9618740005344932
 30
0.0
 40
0.2640069328689633
 50
259.5852783700431132
 51
270.5732988128597754
  0
ARC
  5
C5EB
  8
0
 10
4580.2049870029213707
 20
188.1510337356749005
 30
0.0
 40
0.8536914254284592
 50
183.4375325963380021
 51
190.7121320869082979
  0
ARC
  5
C5EC
  8
0
 10
4579.8153507555471151
 20
188.0892363238353937
 30
0.0
 40
0.459507669501286
 50
192.1715327791096115
 51
206.5551871264800923
  0
ARC
  5
C5ED
  8
0
 10
4579.8174176244720002
 20
188.0902693135452921
 30
0.0
 40
0.4618183003439286
 50
206.5551871264800923
 51
220.8495944607086017
  0
ARC
  5
C5EE
  8
0
 10
4579.6709155606049535
 20
187.9635906654534949
 30
0.0
 40
0.2681424510506806
 50
220.8495944607086017
 51
241.7719951389198059
  0
ARC
  5
C5EF
  8
0
 10
4579.6697829248050766
 20
187.9614807855147944
 30
0.0
 40
0.265747778377998
 50
241.7719951389198059
 51
256.1231514281047907
  0
ARC
  5
C5F0
  8
0
 10
4579.6528873074130388
 20
187.8930902705481003
 30
0.0
 40
0.1953011714723847
 50
256.1231514281047907
 51
275.546804652693595
  0
ARC
  5
C5F1
  8
0
 10
4579.993691875285549
 20
188.1251106978837129
 30
0.0
 40
0.6061348709711502
 50
182.3888589326467979
 51
193.5458047664731112
  0
ARC
  5
C5F2
  8
0
 10
4579.8993963967450327
 20
188.1040339913595858
 30
0.0
 40
0.5095282681166114
 50
193.725241765690896
 51
205.4859138556334983
  0
ARC
  5
C5F3
  8
0
 10
4579.8045653025637876
 20
188.0588304946367941
 30
0.0
 40
0.4044745078812728
 50
205.4859138556334983
 51
225.4914263748891017
  0
ARC
  5
C5F4
  8
0
 10
4579.7026364962312073
 20
187.9551380297118044
 30
0.0
 40
0.2590729644143197
 50
225.4914263748891017
 51
248.8112795288465975
  0
ARC
  5
C5F5
  8
0
 10
4579.6948042627136601
 20
187.9349335295596859
 30
0.0
 40
0.2374034995328321
 50
248.8112795288465975
 51
261.7727898215956088
  0
ARC
  5
C5F6
  8
0
 10
4579.6889884903866914
 20
187.8947101886568021
 30
0.0
 40
0.1967618907905567
 50
261.7727898215956088
 51
272.020768291041577
  0
ARC
  5
C5F7
  8
0
 10
4579.9054983353198622
 20
188.1076146226544097
 30
0.0
 40
0.5025184658963767
 50
180.8857737922535875
 51
193.2598177945864961
  0
ARC
  5
C5F8
  8
0
 10
4579.9330405770560901
 20
188.1141922142141993
 30
0.0
 40
0.5308351210586465
 50
193.2689865080398022
 51
209.1576077360770967
  0
ARC
  5
C5F9
  8
0
 10
4579.777307637238664
 20
188.0273071680564101
 30
0.0
 40
0.3525046419197712
 50
209.1576077360770967
 51
231.7440882322910909
  0
ARC
  5
C5FA
  8
0
 10
4579.7166615355117756
 20
187.9503942787989956
 30
0.0
 40
0.2545580126333871
 50
231.7440882322910909
 51
251.1656236041038994
  0
ARC
  5
C5FB
  8
0
 10
4579.703267469030834
 20
187.9111267096853055
 30
0.0
 40
0.2130689417709165
 50
251.1656236041038994
 51
267.9913871152692764
  0
ARC
  5
C5FC
  8
0
 10
4580.0459676223481438
 20
188.1253519235733052
 30
0.0
 40
0.6082156715561128
 50
182.4034255769794868
 51
193.3149933417412001
  0
ARC
  5
C5FD
  8
0
 10
4579.9570761038366982
 20
188.1060149836750952
 30
0.0
 40
0.517262943321313
 50
193.4983101563020966
 51
204.6981724080009997
  0
ARC
  5
C5FE
  8
0
 10
4579.8613489330591619
 20
188.0619891038670914
 30
0.0
 40
0.4118970602370694
 50
204.6981724080009997
 51
220.1209299437047946
  0
ARC
  5
C5FF
  8
0
 10
4579.7833215224891319
 20
187.9962351935276104
 30
0.0
 40
0.3098585698269033
 50
220.1209299437047946
 51
240.4452409115561977
  0
ARC
  5
C600
  8
0
 10
4579.7332865316839161
 20
187.9079955245373981
 30
0.0
 40
0.2084202166843367
 50
240.4452409115561977
 51
257.8420541792472136
  0
ARC
  5
C601
  8
0
 10
4580.1004387417324324
 20
188.1137895577612937
 30
0.0
 40
0.6190599680760688
 50
181.2906104120305883
 51
192.9571662933475125
  0
ARC
  5
C602
  8
0
 10
4580.0671628294167022
 20
188.1237978167474978
 30
0.0
 40
0.5891269704118234
 50
194.6316212185994061
 51
207.4144458097042047
  0
ARC
  5
C603
  8
0
 10
4579.8171089124962236
 20
187.9941021821387892
 30
0.0
 40
0.3074393437683811
 50
207.4144458097042047
 51
226.9667581439960031
  0
ARC
  5
C604
  8
0
 10
4579.8274035518543315
 20
188.0051289980063132
 30
0.0
 40
0.322524776068881
 50
226.9667581439960031
 51
240.9687008842938951
  0
ARC
  5
C605
  8
0
 10
4582.4525765801236048
 20
188.107636322258486
 30
0.0
 40
0.3717247322533434
 50
151.7811840682450963
 51
207.3709704799379949
  0
ARC
  5
C606
  8
0
 10
4582.5960064856271856
 20
188.1065750869184967
 30
0.0
 40
0.5030755187200452
 50
159.4213277197200114
 51
199.7308268284938038
  0
ARC
  5
C607
  8
0
 10
4582.5156661207847719
 20
188.1076349999077024
 30
0.0
 40
0.4132196222999946
 50
56.5221031680758585
 51
303.4766614910502085
  0
ARC
  5
C608
  8
0
 10
4582.7629028406408906
 20
187.7337702728077033
 30
0.0
 40
0.035
 50
90.0
 51
123.4766614910501943
  0
ARC
  5
C609
  8
0
 10
4582.7629109013932975
 20
188.4814943963077098
 30
0.0
 40
0.035
 50
236.5221031680758017
 51
270.0
  0
ARC
  5
C60A
  8
0
 10
4582.5156661207847719
 20
188.1076349999077024
 30
0.0
 40
0.4443204281999977
 50
54.3310479759574605
 51
305.6689520240424827
  0
ARC
  5
C60B
  8
0
 10
4582.7951583735375607
 20
187.7182352650077064
 30
0.0
 40
0.035
 50
90.0
 51
125.6689520240424969
  0
ARC
  5
C60C
  8
0
 10
4582.7951583735375607
 20
188.4970347348076984
 30
0.0
 40
0.035
 50
234.3310479759574037
 51
270.0
  0
LINE
  5
C60D
  8
0
 10
4582.7844389877700451
 20
187.7515533497177955
 30
0.0
 11
4582.75282279736075
 21
187.7672873241023126
 31
0.0
  0
LINE
  5
C60E
  8
0
 10
4582.7844389877700451
 20
188.4637166500976093
 30
0.0
 11
4582.7528304967881922
 21
188.4479774536818013
 31
0.0
  0
LINE
  5
C60F
  8
0
 10
4580.7536661207832367
 20
172.1076349999077024
 30
0.0
 11
4579.7696661207837678
 21
172.1076349999077024
 31
0.0
  0
ARC
  5
C610
  8
0
 10
4580.7436661207848374
 20
172.0976349999077115
 30
0.0
 40
0.01
 50
359.9999999999789111
 51
90.0
  0
ARC
  5
C611
  8
0
 10
4579.7796661207839861
 20
172.0976349999077115
 30
0.0
 40
0.01
 50
90.0
 51
180.0000000000406999
  0
ENDSEC
  0
EOF
