  0
SECTION
  2
HEADER
  9
$ACADVER
  1
AC1009
  9
$INSBASE
 10
3338.1806360335381214
 20
195.801498057019586
 30
0.0
  9
$EXTMIN
 10
3328.2104485675640717
 20
188.1927197909745928
 30
0.0
  9
$EXTMAX
 10
3341.8787976386911396
 20
199.0838430483896957
 30
0.0
  9
$LIMMIN
 10
0.0
 20
0.0
  9
$LIMMAX
 10
11.6929133858000007
 20
8.2677165353999982
  9
$ORTHOMODE
 70
     0
  9
$REGENMODE
 70
     1
  9
$FILLMODE
 70
     1
  9
$QTEXTMODE
 70
     0
  9
$MIRRTEXT
 70
     0
  9
$DRAGMODE
 70
     2
  9
$LTSCALE
 40
0.6431102362
  9
$OSMODE
 70
  4095
  9
$ATTMODE
 70
     1
  9
$TEXTSIZE
 40
0.2
  9
$TRACEWID
 40
0.05
  9
$TEXTSTYLE
  7
STANDARD
  9
$CLAYER
  8
0
  9
$CELTYPE
  6
BYLAYER
  9
$CECOLOR
 62
   256
  9
$DIMSCALE
 40
1.0
  9
$DIMASZ
 40
0.1875
  9
$DIMEXO
 40
0.0625
  9
$DIMDLI
 40
0.4443307087
  9
$DIMRND
 40
0.0
  9
$DIMDLE
 40
0.0
  9
$DIMEXE
 40
0.125
  9
$DIMTP
 40
0.01
  9
$DIMTM
 40
0.01
  9
$DIMTXT
 40
2.0
  9
$DIMCEN
 40
0.1052362205
  9
$DIMTSZ
 40
0.0
  9
$DIMTOL
 70
     1
  9
$DIMLIM
 70
     0
  9
$DIMTIH
 70
     1
  9
$DIMTOH
 70
     1
  9
$DIMSE1
 70
     0
  9
$DIMSE2
 70
     0
  9
$DIMTAD
 70
     0
  9
$DIMZIN
 70
     0
  9
$DIMBLK
  1

  9
$DIMASO
 70
     1
  9
$DIMSHO
 70
     1
  9
$DIMPOST
  1
\X
  9
$DIMAPOST
  1

  9
$DIMALT
 70
     1
  9
$DIMALTD
 70
     2
  9
$DIMALTF
 40
25.3999999999999986
  9
$DIMLFAC
 40
1.0
  9
$DIMTOFL
 70
     0
  9
$DIMTVP
 40
0.0
  9
$DIMTIX
 70
     0
  9
$DIMSOXD
 70
     0
  9
$DIMSAH
 70
     0
  9
$DIMBLK1
  1

  9
$DIMBLK2
  1

  9
$DIMSTYLE
  2
STANDARD
  9
$DIMCLRD
 70
     0
  9
$DIMCLRE
 70
     0
  9
$DIMCLRT
 70
     0
  9
$DIMTFAC
 40
1.0
  9
$DIMGAP
 40
0.09
  9
$LUNITS
 70
     2
  9
$LUPREC
 70
     4
  9
$SKETCHINC
 40
0.1
  9
$FILLETRAD
 40
0.0
  9
$AUNITS
 70
     0
  9
$AUPREC
 70
     0
  9
$MENU
  1
.
  9
$ELEVATION
 40
0.0
  9
$PELEVATION
 40
0.0
  9
$THICKNESS
 40
0.0
  9
$LIMCHECK
 70
     0
  9
$BLIPMODE
 70
     0
  9
$CHAMFERA
 40
0.0
  9
$CHAMFERB
 40
0.0
  9
$SKPOLY
 70
     0
  9
$TDCREATE
 40
2458060.468368056230247
  9
$TDUPDATE
 40
2459412.3012962960638106
  9
$TDINDWG
 40
0.4254121528
  9
$TDUSRTIMER
 40
0.4254121528
  9
$USRTIMER
 70
     1
  9
$ANGBASE
 50
0.0
  9
$ANGDIR
 70
     0
  9
$PDMODE
 70
     0
  9
$PDSIZE
 40
0.3125
  9
$PLINEWID
 40
0.0
  9
$COORDS
 70
     1
  9
$SPLFRAME
 70
     0
  9
$SPLINETYPE
 70
     6
  9
$SPLINESEGS
 70
     8
  9
$ATTDIA
 70
     1
  9
$ATTREQ
 70
     1
  9
$HANDLING
 70
     1
  9
$HANDSEED
  5
886E
  9
$SURFTAB1
 70
     6
  9
$SURFTAB2
 70
     6
  9
$SURFTYPE
 70
     6
  9
$SURFU
 70
     6
  9
$SURFV
 70
     6
  9
$UCSNAME
  2

  9
$UCSORG
 10
0.0
 20
0.0
 30
0.0
  9
$UCSXDIR
 10
1.0
 20
0.0
 30
0.0
  9
$UCSYDIR
 10
0.0
 20
1.0
 30
0.0
  9
$PUCSNAME
  2

  9
$PUCSORG
 10
0.0
 20
0.0
 30
0.0
  9
$PUCSXDIR
 10
1.0
 20
0.0
 30
0.0
  9
$PUCSYDIR
 10
0.0
 20
1.0
 30
0.0
  9
$USERI1
 70
     0
  9
$USERI2
 70
     0
  9
$USERI3
 70
     0
  9
$USERI4
 70
     0
  9
$USERI5
 70
     0
  9
$USERR1
 40
0.0
  9
$USERR2
 40
0.0
  9
$USERR3
 40
0.0
  9
$USERR4
 40
0.0
  9
$USERR5
 40
0.0
  9
$WORLDVIEW
 70
     1
  9
$SHADEDGE
 70
     3
  9
$SHADEDIF
 70
    70
  9
$TILEMODE
 70
     1
  9
$MAXACTVP
 70
    64
  9
$PLIMCHECK
 70
     0
  9
$PEXTMIN
 10
1.0000000000000000E+20
 20
1.0000000000000000E+20
 30
1.0000000000000000E+20
  9
$PEXTMAX
 10
-1.0000000000000000E+20
 20
-1.0000000000000000E+20
 30
-1.0000000000000000E+20
  9
$PLIMMIN
 10
0.0
 20
0.0
  9
$PLIMMAX
 10
12.0
 20
9.0
  9
$UNITMODE
 70
     0
  9
$VISRETAIN
 70
     1
  9
$PLINEGEN
 70
     0
  9
$PSLTSCALE
 70
     1
  0
ENDSEC
  0
SECTION
  2
TABLES
  0
TABLE
  2
VPORT
 70
     1
  0
VPORT
  2
*ACTIVE
 70
     0
 10
0.0
 20
0.0
 11
1.0
 21
1.0
 12
265.3634456400454837
 22
3.9186015060431698
 13
0.0
 23
0.0
 14
1.0
 24
1.0
 15
0.0
 25
0.0
 16
0.0
 26
0.0
 36
95.5902297660485658
 17
3089.811279296875
 27
197.161570589386713
 37
0.0
 40
42.8950418787394412
 41
2.0416666666666661
 42
50.0
 43
0.0
 44
0.0
 50
0.0
 51
0.0
 71
     0
 72
   100
 73
     1
 74
     1
 75
     0
 76
     0
 77
     0
 78
     0
  0
ENDTAB
  0
TABLE
  2
LTYPE
 70
     2
  0
LTYPE
  2
CONTINUOUS
 70
     0
  3
Solid line
 72
    65
 73
     0
 40
0.0
  0
LTYPE
  2
PHANTOM2
 70
     0
  3
___ _ _ ___ _ _ ___ _ _ ___ _ _
 72
    65
 73
     6
 40
1.25
 49
0.625
 49
-0.125
 49
0.125
 49
-0.125
 49
0.125
 49
-0.125
  0
ENDTAB
  0
TABLE
  2
LAYER
 70
     2
  0
LAYER
  2
0
 70
     0
 62
   255
  6
CONTINUOUS
  0
LAYER
  2
DEFPOINTS
 70
     0
 62
     7
  6
CONTINUOUS
  0
ENDTAB
  0
TABLE
  2
STYLE
 70
     1
  0
STYLE
  2
STANDARD
 70
     0
 40
0.0
 41
0.8
 50
0.0
 71
     0
 42
0.2
  3
txt
  4

  0
ENDTAB
  0
TABLE
  2
VIEW
 70
     0
  0
ENDTAB
  0
TABLE
  2
UCS
 70
     0
  0
ENDTAB
  0
TABLE
  2
APPID
 70
     9
  0
APPID
  2
ACAD
 70
     0
  0
APPID
  2
ACAD_MLEADERVER
 70
     0
  0
APPID
  2
ACAD_EXEMPT_FROM_CAD_STANDARDS
 70
     0
  0
APPID
  2
ACAD_NAV_VCDISPLAY
 70
     0
  0
APPID
  2
ACAECLAYERSTANDARD
 70
     0
  0
APPID
  2
ACCMTRANSPARENCY
 70
     0
  0
APPID
  2
ACAD_DSTYLE_DIMJAG
 70
     0
  0
APPID
  2
ACAD_DSTYLE_DIMTALN
 70
     0
  0
APPID
  2
ACDBATTR
 70
     0
  0
ENDTAB
  0
TABLE
  2
DIMSTYLE
 70
     1
  0
DIMSTYLE
  2
STANDARD
 70
     0
  3

  4

  5

  6

  7

 40
1.0
 41
0.1875
 42
0.0625
 43
0.38
 44
0.125
 45
0.0
 46
0.0
 47
0.01
 48
0.01
140
0.15625
141
0.09
142
0.0
143
25.3999999999999986
144
1.0
145
0.0
146
1.0
147
0.09
 71
     1
 72
     0
 73
     1
 74
     1
 75
     0
 76
     0
 77
     0
 78
     4
170
     0
171
     2
172
     0
173
     0
174
     0
175
     0
176
     0
177
     0
178
     0
  0
ENDTAB
  0
ENDSEC
  0
SECTION
  2
BLOCKS
  0
BLOCK
  8
0
  2
$MODEL_SPACE
 70
     0
 10
0.0
 20
0.0
 30
0.0
  3
$MODEL_SPACE
  1

  0
ENDBLK
  5
21
  8
0
  0
BLOCK
 67
     1
  8
0
  2
$PAPER_SPACE
 70
     0
 10
0.0
 20
0.0
 30
0.0
  3
$PAPER_SPACE
  1

  0
ENDBLK
  5
1D
 67
     1
  8
0
  0
BLOCK
  8
0
  2
_FILLED
 70
     0
 10
0.0
 20
0.0
 30
0.0
  3
_FILLED
  1

  0
SOLID
  5
7FAE
  8
0
  6
BYBLOCK
 62
     0
 10
0.0
 20
0.0
 30
0.0
 11
-1.0
 21
0.1666666667
 31
0.0
 12
-1.0
 22
-0.1666666667
 32
0.0
 13
-1.0
 23
-0.1666666667
 33
0.0
  0
ENDBLK
  5
7FAF
  8
0
  6
BYBLOCK
 62
     0
  0
ENDSEC
  0
SECTION
  2
ENTITIES
  0
ATTDEF
  5
3930
  8
DEFPOINTS
 10
3338.1826093509421298
 20
195.8055468326654136
 30
0.0
 40
0.001
  1
K-45366T-4
  3

  2
MODELNUMBER
 70
     0
1001
ACDBATTR
1070
     0
1070
     1
  0
ATTDEF
  5
3931
  8
DEFPOINTS
 10
3338.1826093509421298
 20
195.8038801659988053
 30
0.0
 40
0.001
  1
OBLA
  3

  2
TRADENAME
 70
     0
1001
ACDBATTR
1070
     0
1070
     1
  0
ATTDEF
  5
3932
  8
DEFPOINTS
 10
3338.1826093509421298
 20
195.8022134993321117
 30
0.0
 40
0.001
  1
VALVE TRIM
  3

  2
PRODUCT
 70
     0
1001
ACDBATTR
1070
     0
1070
     1
  0
ARC
  5
879A
  8
0
 10
3335.8815564995620662
 20
193.8539771044171971
 30
0.0
 40
0.0393700786748603
 50
179.9999998480791987
 51
268.0000003728375191
  0
ARC
  5
879B
  8
0
 10
3335.9759116236100454
 20
193.8351096139074059
 30
0.0
 40
0.0196850402866432
 50
272.0000009515164265
 51
0.013034695651388
  0
ARC
  5
879C
  8
0
 10
3336.0152815950618788
 20
193.872795456109202
 30
0.0
 40
0.0196847880362358
 50
91.1454415215531242
 51
179.9996123006606012
  0
LINE
  5
879D
  8
0
 10
3337.6619420561369225
 20
194.7680334901216099
 30
0.0
 11
3336.468037866036866
 21
194.7680334901216099
 31
0.0
  0
LINE
  5
879E
  8
0
 10
3336.468037866036866
 20
194.7680334901216099
 30
0.0
 11
3336.4483525947371163
 21
194.748348178071609
 31
0.0
  0
LINE
  5
879F
  8
0
 10
3336.4483525947371163
 20
194.748348178071609
 30
0.0
 11
3336.4483525431369344
 21
193.8231518729716072
 31
0.0
  0
LINE
  5
87A0
  8
0
 10
3336.4483525431369344
 20
193.8231518729716072
 30
0.0
 11
3336.4680377867371135
 21
193.8034665886713981
 31
0.0
  0
LINE
  5
87A1
  8
0
 10
3336.4680377867371135
 20
193.8034665886713981
 30
0.0
 11
3337.7000018689368517
 21
193.8034665609216063
 31
0.0
  0
LINE
  5
87A2
  8
0
 10
3336.0148880883871243
 20
193.8924763105756028
 30
0.0
 11
3336.4483525474847738
 21
193.9011043557925973
 31
0.0
  0
LINE
  5
87A3
  8
0
 10
3336.0148880882879894
 20
194.6791062284216025
 30
0.0
 11
3336.4483525903901864
 21
194.6703956943925959
 31
0.0
  0
LINE
  5
87A4
  8
0
 10
3335.9955966633870048
 20
194.7364729326205008
 30
0.0
 11
3335.9955980185309272
 21
194.3947586298145893
 31
0.0
  0
LINE
  5
87A5
  8
0
 10
3335.9955980185309272
 20
194.3947586298145893
 30
0.0
 11
3335.99240358263296
 21
194.285791452220991
 31
0.0
  0
LINE
  5
87A6
  8
0
 10
3335.99240358263296
 20
194.285791452220991
 30
0.0
 11
3335.9955979657338503
 21
194.1767660811308076
 31
0.0
  0
LINE
  5
87A7
  8
0
 10
3335.9955979657338503
 20
194.1767660811308076
 30
0.0
 11
3335.9955966633870048
 21
193.8351140922308105
 31
0.0
  0
ARC
  5
87A8
  8
0
 10
3336.0152817027437777
 20
194.6987873321039899
 30
0.0
 40
0.0196850393572801
 50
180.2234793965450876
 51
268.854259325574219
  0
ARC
  5
87A9
  8
0
 10
3335.9759116240079493
 20
194.736472925930002
 30
0.0
 40
0.0196850393791323
 50
0.0000194732655176
 51
88.0000001156733447
  0
LINE
  5
87AA
  8
0
 10
3335.8801825038872266
 20
193.8146310089215945
 30
0.0
 11
3335.9168565058880631
 21
193.8133503245734062
 31
0.0
  0
LINE
  5
87AB
  8
0
 10
3335.9168565058880631
 20
193.8133503245734062
 30
0.0
 11
3335.9765986219540537
 21
193.8154365652156912
 31
0.0
  0
LINE
  5
87AC
  8
0
 10
3335.8421864208871739
 20
193.85397710452159
 30
0.0
 11
3335.8421864207871295
 21
194.7175227990215944
 31
0.0
  0
LINE
  5
87AD
  8
0
 10
3335.9765986217871614
 20
194.7561459737216012
 30
0.0
 11
3335.9168565058880631
 21
194.7582322143215947
 31
0.0
  0
LINE
  5
87AE
  8
0
 10
3335.9168565058880631
 20
194.7582322143215947
 30
0.0
 11
3335.8801825038872266
 21
194.7569515300216096
 31
0.0
  0
ARC
  5
87AF
  8
0
 10
3335.8815565673339734
 20
194.7176052825219017
 30
0.0
 40
0.039370232951653
 50
92.0000904762856067
 51
180.1200389113128892
  0
LINE
  5
87B0
  8
0
 10
3335.9955966633870048
 20
194.4401675182209885
 30
0.0
 11
3335.8421864207871295
 21
194.4401675182209885
 31
0.0
  0
LINE
  5
87B1
  8
0
 10
3335.9955966633870048
 20
194.1314152510780104
 30
0.0
 11
3335.8421864207871295
 21
194.1314152510780104
 31
0.0
  0
LINE
  5
87B2
  8
0
 10
3336.4680379195369824
 20
193.8034665609216063
 30
0.0
 11
3336.468037866036866
 21
194.7680334901216099
 31
0.0
  0
LINE
  5
87B3
  8
0
 10
3337.8004689037370554
 20
199.0359543692215993
 30
0.0
 11
3338.1806360335381214
 21
199.0692145924215879
 31
0.0
  0
LINE
  5
87B4
  8
0
 10
3338.1806360335381214
 20
199.0692145924215879
 30
0.0
 11
3338.1806360335381214
 21
192.5337815216176125
 31
0.0
  0
LINE
  5
87B5
  8
0
 10
3338.1806360335381214
 20
192.5337815216176125
 30
0.0
 11
3337.8023224333869621
 21
192.5668796277215904
 31
0.0
  0
ARC
  5
87B6
  8
0
 10
3169.6618428331257746
 20
187.8632334593856115
 30
0.0
 40
168.1431213622645089
 50
2.0112532324419661
 51
2.024591440364206
  0
ARC
  5
87B7
  8
0
 10
3387.5489839195001878
 20
196.4851863557776994
 30
0.0
 40
49.9218044660825129
 50
183.1242830102339951
 51
183.3880619767323026
  0
ARC
  5
87B8
  8
0
 10
3374.4482088480021957
 20
195.6923142787545089
 30
0.0
 40
36.7970739991438478
 50
183.3611998485633023
 51
184.8440970668445118
  0
ARC
  5
87B9
  8
0
 10
3337.8021665458259122
 20
192.5866321033684017
 30
0.0
 40
0.0196622590539376
 50
184.7770783717851941
 51
258.6429450679573279
  0
ARC
  5
87BA
  8
0
 10
3337.8045641195240023
 20
192.6031863262925867
 30
0.0
 40
0.0363758370056159
 50
260.0752943256163121
 51
266.4668692022555092
  0
ARC
  5
87BB
  8
0
 10
3281.0207691788041302
 20
192.0500558026782869
 30
0.0
 40
56.7063476837412779
 50
1.771918947442759
 51
2.7472821962182201
  0
ARC
  5
87BC
  8
0
 10
3376.3992552429599527
 20
195.8563593974508876
 30
0.0
 40
38.7525984446793075
 50
180.0374282435244027
 51
181.6093032075648068
  0
ARC
  5
87BD
  8
0
 10
3379.6355205899849352
 20
193.4756215585645975
 30
0.0
 40
42.0548689807743514
 50
176.7221496236934115
 51
176.7892791099438909
  0
ARC
  5
87BE
  8
0
 10
3297.3381624974231272
 20
197.9301060111571076
 30
0.0
 40
40.3633762958113778
 50
357.0889620957245256
 51
359.8286180180941187
  0
ARC
  5
87BF
  8
0
 10
3356.2402733468511542
 20
197.4864710372004026
 30
0.0
 40
18.5417269688515702
 50
178.8469205333751972
 51
179.0021532597249063
  0
ARC
  5
87C0
  8
0
 10
3382.2023639125268346
 20
195.3581272532155992
 30
0.0
 40
44.5703146621826889
 50
175.2898752511354985
 51
176.7826319229077114
  0
ARC
  5
87C1
  8
0
 10
3337.8021831348128217
 20
199.0163441120328969
 30
0.0
 40
0.0196850393748545
 50
94.9958127104927854
 51
175.1692121369007111
  0
ARC
  5
87C2
  8
0
 10
3336.0664628051367799
 20
197.7975610491216116
 30
0.0
 40
0.0118110235999947
 50
89.9999999999739515
 51
180.0000038808605041
  0
LINE
  5
87C3
  8
0
 10
3336.0664628051367799
 20
197.8093720727216009
 30
0.0
 11
3337.701358224636806
 21
197.8093720728215033
 31
0.0
  0
LINE
  5
87C4
  8
0
 10
3336.0303865647370003
 20
197.7896870334215862
 30
0.0
 11
3336.0546517815369043
 21
197.7896870334215862
 31
0.0
  0
LINE
  5
87C5
  8
0
 10
3336.0546517815369043
 20
197.7975610483215974
 30
0.0
 11
3336.0546517815369043
 21
195.8920492381215865
 31
0.0
  0
LINE
  5
87C6
  8
0
 10
3335.9939784058369696
 20
197.71018204662019
 30
0.0
 11
3336.0113722747369138
 21
197.7750968491216099
 31
0.0
  0
ARC
  5
87C7
  8
0
 10
3336.030386564663786
 20
197.7700019942357983
 30
0.0
 40
0.0196850391858075
 50
89.9999997883804639
 51
165.0000245857322057
  0
LINE
  5
87C8
  8
0
 10
3336.0113722747369138
 20
197.7750968491216099
 30
0.0
 11
3336.0113722747369138
 21
195.9145134381215883
 31
0.0
  0
ARC
  5
87C9
  8
0
 10
3335.9179212582280343
 20
197.730561514348409
 30
0.0
 40
0.0787401575268547
 50
270.7224490384746218
 51
344.999988439600088
  0
ARC
  5
87CA
  8
0
 10
3335.9290891212967836
 20
196.8448051443778866
 30
0.0
 40
0.8070866134103393
 50
90.7223544673190645
 51
113.2611129421199934
  0
LINE
  5
87CB
  8
0
 10
3334.3845587906371293
 20
197.809372057821605
 30
0.0
 11
3335.5110256874381776
 21
197.8093720728215885
 31
0.0
  0
LINE
  5
87CC
  8
0
 10
3335.5110256874381776
 20
197.8093720728215885
 30
0.0
 11
3335.8894227211371799
 21
196.9594784200216111
 31
0.0
  0
LINE
  5
87CD
  8
0
 10
3335.9404785532369715
 20
196.719279615121593
 30
0.0
 11
3335.9404785532369715
 21
195.8802382145215972
 31
0.0
  0
LINE
  5
87CE
  8
0
 10
3335.9404785532369715
 20
195.8802382145215972
 30
0.0
 11
3335.3992777658381783
 21
195.8802382145215972
 31
0.0
  0
ARC
  5
87CF
  8
0
 10
3335.3498438679621358
 20
196.7192618656974048
 30
0.0
 40
0.5906346855427432
 50
0.001721820816093
 51
23.9982781852137705
  0
LINE
  5
87D0
  8
0
 10
3334.8971714665381114
 20
194.7385059310215922
 30
0.0
 11
3334.3845529276368325
 21
194.7385059399215947
 31
0.0
  0
LINE
  5
87D1
  8
0
 10
3334.8971714665381114
 20
196.8363878161216007
 30
0.0
 11
3334.8971714665381114
 21
194.7385059310215922
 31
0.0
  0
LINE
  5
87D2
  8
0
 10
3334.9562265847380331
 20
194.7975610498216099
 30
0.0
 11
3334.9562265847380331
 21
195.362372866221591
 31
0.0
  0
ARC
  5
87D3
  8
0
 10
3335.3348963563339566
 20
195.6945695738328936
 30
0.0
 40
0.199382114004701
 50
85.6764846915542648
 51
117.6278325104027971
  0
ARC
  5
87D4
  8
0
 10
3335.4121242526498463
 20
195.5499990698743034
 30
0.0
 40
0.363283705656803
 50
117.845651928062594
 51
141.1403498200618003
  0
ARC
  5
87D5
  8
0
 10
3335.6122596245031673
 20
195.3330321996805026
 30
0.0
 40
0.6566888334493778
 50
137.3526215582971872
 51
177.4391886986869054
  0
LINE
  5
87D6
  8
0
 10
3334.8971714666381558
 20
196.8363878161216007
 30
0.0
 11
3335.9287506325172217
 21
196.8363878161216007
 31
0.0
  0
LINE
  5
87D7
  8
0
 10
3335.3499273721381542
 20
196.8363878161216007
 30
0.0
 11
3335.3499273721099598
 21
195.893384301531114
 31
0.0
  0
ARC
  5
87D8
  8
0
 10
3335.2676513928299755
 20
194.9027258945756103
 30
0.0
 40
0.9940691203522865
 50
79.5281797207162811
 51
85.2523772234932693
  0
LINE
  5
87D9
  8
0
 10
3335.4335822058369558
 20
195.8802382145215972
 30
0.0
 11
3335.433342649540009
 21
195.8828890562421066
 31
0.0
  0
ARC
  5
87DA
  8
0
 10
3335.5467777658382147
 20
195.997951242721598
 30
0.0
 40
0.1887130282000008
 50
218.5917723444995033
 51
321.4082276555005251
  0
ARC
  5
87DB
  8
0
 10
3334.8971714665381114
 20
194.7975610491216116
 30
0.0
 40
0.0590551180999963
 50
270.0
 51
0.0000000000016284
  0
ARC
  5
87DC
  8
0
 10
3334.3846240645839316
 20
194.7976126606920957
 30
0.0
 40
0.0591067635783837
 50
186.3480096950659117
 51
269.9310426161852092
  0
ARC
  5
87DD
  8
0
 10
3334.3846204821152241
 20
197.7502800794896132
 30
0.0
 40
0.0590920169930841
 50
90.0655406674730159
 51
173.7707977390051042
  0
ARC
  5
87DE
  8
0
 10
3340.10611926417414
 20
197.5019271956857096
 30
0.0
 40
5.7858535733866958
 50
177.476316280146392
 51
180.64050423610351
  0
ARC
  5
87DF
  8
0
 10
3369.1881053029751456
 20
196.779659935273088
 30
0.0
 40
34.8736784975565399
 50
178.9195486713068135
 51
179.8929700676411869
  0
LINE
  5
87E0
  8
0
 10
3334.314487651538002
 20
196.8448047908213141
 30
0.0
 11
3334.314487651538002
 21
195.6846921646215947
 31
0.0
  0
ARC
  5
87E1
  8
0
 10
3374.4218797055950745
 20
195.7378907131731012
 30
0.0
 40
40.1074273353882589
 50
180.0759972255634978
 51
181.3271691619767978
  0
ARC
  5
87E2
  8
0
 10
3334.5197087021138032
 20
194.8072710725074899
 30
0.0
 40
0.1945042811334526
 50
179.5064474810394017
 51
184.7757541409702071
  0
ARC
  5
87E3
  8
0
 10
3336.0664628051367799
 20
195.8920492382216025
 30
0.0
 40
0.0118110235999947
 50
179.9999961191394959
 51
270.0000000000259774
  0
LINE
  5
87E4
  8
0
 10
3336.0664628051367799
 20
195.8802382146216132
 30
0.0
 11
3337.6494535709371121
 21
195.8802382145215972
 31
0.0
  0
LINE
  5
87E5
  8
0
 10
3336.0303865647370003
 20
195.8999232539215996
 30
0.0
 11
3336.0546517815369043
 21
195.8999232539215996
 31
0.0
  0
LINE
  5
87E6
  8
0
 10
3335.9939784058369696
 20
195.9794282407229957
 30
0.0
 11
3336.0113722747369138
 21
195.9145134382216042
 31
0.0
  0
ARC
  5
87E7
  8
0
 10
3336.030386564663786
 20
195.9196082931073875
 30
0.0
 40
0.0196850391858075
 50
194.9999754142677091
 51
270.0000002116195787
  0
ARC
  5
87E8
  8
0
 10
3335.9179212582280343
 20
195.9590487729948904
 30
0.0
 40
0.0787401575268547
 50
15.00001156039988
 51
73.3528051227762319
  0
ENDSEC
  0
EOF
