  0
SECTION
  2
HEADER
  9
$ACADVER
  1
AC1009
  9
$INSBASE
 10
3471.0189894227460172
 20
159.8479726568164097
 30
0.0
  9
$EXTMIN
 10
3465.1974589843771355
 20
145.8342598821820104
 30
-0.0000000349181948
  9
$EXTMAX
 10
3476.868716138947093
 20
202.507925605175501
 30
0.0000000814935746
  9
$LIMMIN
 10
0.0
 20
0.0
  9
$LIMMAX
 10
11.6929133858000007
 20
8.2677165353999982
  9
$ORTHOMODE
 70
     0
  9
$REGENMODE
 70
     1
  9
$FILLMODE
 70
     1
  9
$QTEXTMODE
 70
     0
  9
$MIRRTEXT
 70
     0
  9
$DRAGMODE
 70
     2
  9
$LTSCALE
 40
0.6431102362
  9
$OSMODE
 70
  2039
  9
$ATTMODE
 70
     1
  9
$TEXTSIZE
 40
0.2
  9
$TRACEWID
 40
0.05
  9
$TEXTSTYLE
  7
STANDARD
  9
$CLAYER
  8
0
  9
$CELTYPE
  6
BYLAYER
  9
$CECOLOR
 62
   256
  9
$DIMSCALE
 40
1.0
  9
$DIMASZ
 40
0.1875
  9
$DIMEXO
 40
0.0625
  9
$DIMDLI
 40
0.4443307087
  9
$DIMRND
 40
0.0
  9
$DIMDLE
 40
0.0
  9
$DIMEXE
 40
0.125
  9
$DIMTP
 40
0.01
  9
$DIMTM
 40
0.01
  9
$DIMTXT
 40
2.0
  9
$DIMCEN
 40
0.1052362205
  9
$DIMTSZ
 40
0.0
  9
$DIMTOL
 70
     1
  9
$DIMLIM
 70
     0
  9
$DIMTIH
 70
     1
  9
$DIMTOH
 70
     1
  9
$DIMSE1
 70
     0
  9
$DIMSE2
 70
     0
  9
$DIMTAD
 70
     0
  9
$DIMZIN
 70
     0
  9
$DIMBLK
  1

  9
$DIMASO
 70
     1
  9
$DIMSHO
 70
     1
  9
$DIMPOST
  1
\X
  9
$DIMAPOST
  1

  9
$DIMALT
 70
     1
  9
$DIMALTD
 70
     2
  9
$DIMALTF
 40
25.3999999999999986
  9
$DIMLFAC
 40
1.0
  9
$DIMTOFL
 70
     0
  9
$DIMTVP
 40
0.0
  9
$DIMTIX
 70
     0
  9
$DIMSOXD
 70
     0
  9
$DIMSAH
 70
     0
  9
$DIMBLK1
  1

  9
$DIMBLK2
  1

  9
$DIMSTYLE
  2
STANDARD
  9
$DIMCLRD
 70
     0
  9
$DIMCLRE
 70
     0
  9
$DIMCLRT
 70
     0
  9
$DIMTFAC
 40
1.0
  9
$DIMGAP
 40
0.09
  9
$LUNITS
 70
     2
  9
$LUPREC
 70
     4
  9
$SKETCHINC
 40
0.1
  9
$FILLETRAD
 40
0.0
  9
$AUNITS
 70
     0
  9
$AUPREC
 70
     0
  9
$MENU
  1
.
  9
$ELEVATION
 40
0.0
  9
$PELEVATION
 40
0.0
  9
$THICKNESS
 40
0.0
  9
$LIMCHECK
 70
     0
  9
$BLIPMODE
 70
     0
  9
$CHAMFERA
 40
0.0
  9
$CHAMFERB
 40
0.0
  9
$SKPOLY
 70
     0
  9
$TDCREATE
 40
2458060.468368056230247
  9
$TDUPDATE
 40
2459116.3793287030421197
  9
$TDINDWG
 40
0.5645325231
  9
$TDUSRTIMER
 40
0.5645325231
  9
$USRTIMER
 70
     1
  9
$ANGBASE
 50
0.0
  9
$ANGDIR
 70
     0
  9
$PDMODE
 70
     0
  9
$PDSIZE
 40
0.3125
  9
$PLINEWID
 40
0.0
  9
$COORDS
 70
     1
  9
$SPLFRAME
 70
     0
  9
$SPLINETYPE
 70
     6
  9
$SPLINESEGS
 70
     8
  9
$ATTDIA
 70
     1
  9
$ATTREQ
 70
     1
  9
$HANDLING
 70
     1
  9
$HANDSEED
  5
16112
  9
$SURFTAB1
 70
     6
  9
$SURFTAB2
 70
     6
  9
$SURFTYPE
 70
     6
  9
$SURFU
 70
     6
  9
$SURFV
 70
     6
  9
$UCSNAME
  2

  9
$UCSORG
 10
0.0
 20
0.0
 30
0.0
  9
$UCSXDIR
 10
1.0
 20
0.0
 30
0.0
  9
$UCSYDIR
 10
0.0
 20
1.0
 30
0.0
  9
$PUCSNAME
  2

  9
$PUCSORG
 10
0.0
 20
0.0
 30
0.0
  9
$PUCSXDIR
 10
1.0
 20
0.0
 30
0.0
  9
$PUCSYDIR
 10
0.0
 20
1.0
 30
0.0
  9
$USERI1
 70
     0
  9
$USERI2
 70
     0
  9
$USERI3
 70
     0
  9
$USERI4
 70
     0
  9
$USERI5
 70
     0
  9
$USERR1
 40
0.0
  9
$USERR2
 40
0.0
  9
$USERR3
 40
0.0
  9
$USERR4
 40
0.0
  9
$USERR5
 40
0.0
  9
$WORLDVIEW
 70
     1
  9
$SHADEDGE
 70
     3
  9
$SHADEDIF
 70
    70
  9
$TILEMODE
 70
     1
  9
$MAXACTVP
 70
    64
  9
$PLIMCHECK
 70
     0
  9
$PEXTMIN
 10
1.0000000000000000E+20
 20
1.0000000000000000E+20
 30
1.0000000000000000E+20
  9
$PEXTMAX
 10
-1.0000000000000000E+20
 20
-1.0000000000000000E+20
 30
-1.0000000000000000E+20
  9
$PLIMMIN
 10
0.0
 20
0.0
  9
$PLIMMAX
 10
12.0
 20
9.0
  9
$UNITMODE
 70
     0
  9
$VISRETAIN
 70
     1
  9
$PLINEGEN
 70
     0
  9
$PSLTSCALE
 70
     1
  0
ENDSEC
  0
SECTION
  2
TABLES
  0
TABLE
  2
VPORT
 70
     1
  0
VPORT
  2
*ACTIVE
 70
     0
 10
0.0
 20
0.0
 11
1.0
 21
1.0
 12
167.3399723272868869
 22
-21.0904188322090285
 13
0.0
 23
0.0
 14
1.0
 24
1.0
 15
0.0
 25
0.0
 16
0.0
 26
0.0
 36
96.5995694866707311
 17
3303.693115234375
 27
195.2615115758877096
 37
0.0
 40
57.1452912352514275
 41
2.6486111111111108
 42
50.0
 43
0.0
 44
0.0
 50
0.0
 51
0.0
 71
     0
 72
   100
 73
     1
 74
     1
 75
     0
 76
     0
 77
     0
 78
     0
  0
ENDTAB
  0
TABLE
  2
LTYPE
 70
     2
  0
LTYPE
  2
CONTINUOUS
 70
     0
  3
Solid line
 72
    65
 73
     0
 40
0.0
  0
LTYPE
  2
PHANTOM2
 70
     0
  3
___ _ _ ___ _ _ ___ _ _ ___ _ _
 72
    65
 73
     6
 40
1.25
 49
0.625
 49
-0.125
 49
0.125
 49
-0.125
 49
0.125
 49
-0.125
  0
ENDTAB
  0
TABLE
  2
LAYER
 70
     2
  0
LAYER
  2
0
 70
     0
 62
   255
  6
CONTINUOUS
  0
LAYER
  2
DEFPOINTS
 70
     0
 62
     7
  6
CONTINUOUS
  0
ENDTAB
  0
TABLE
  2
STYLE
 70
     1
  0
STYLE
  2
STANDARD
 70
     0
 40
0.0
 41
0.8
 50
0.0
 71
     0
 42
0.2
  3
txt
  4

  0
ENDTAB
  0
TABLE
  2
VIEW
 70
     0
  0
ENDTAB
  0
TABLE
  2
UCS
 70
     0
  0
ENDTAB
  0
TABLE
  2
APPID
 70
     9
  0
APPID
  2
ACAD
 70
     0
  0
APPID
  2
ACAD_MLEADERVER
 70
     0
  0
APPID
  2
ACAD_EXEMPT_FROM_CAD_STANDARDS
 70
     0
  0
APPID
  2
ACAD_NAV_VCDISPLAY
 70
     0
  0
APPID
  2
ACAECLAYERSTANDARD
 70
     0
  0
APPID
  2
ACCMTRANSPARENCY
 70
     0
  0
APPID
  2
ACAD_DSTYLE_DIMJAG
 70
     0
  0
APPID
  2
ACAD_DSTYLE_DIMTALN
 70
     0
  0
APPID
  2
ACDBATTR
 70
     0
  0
ENDTAB
  0
TABLE
  2
DIMSTYLE
 70
     1
  0
DIMSTYLE
  2
STANDARD
 70
     0
  3

  4

  5

  6

  7

 40
1.0
 41
0.1875
 42
0.0625
 43
0.38
 44
0.125
 45
0.0
 46
0.0
 47
0.01
 48
0.01
140
0.15625
141
0.09
142
0.0
143
25.3999999999999986
144
1.0
145
0.0
146
1.0
147
0.09
 71
     1
 72
     0
 73
     1
 74
     1
 75
     0
 76
     0
 77
     0
 78
     4
170
     0
171
     2
172
     0
173
     0
174
     0
175
     0
176
     0
177
     0
178
     0
  0
ENDTAB
  0
ENDSEC
  0
SECTION
  2
BLOCKS
  0
BLOCK
  8
0
  2
$MODEL_SPACE
 70
     0
 10
0.0
 20
0.0
 30
0.0
  3
$MODEL_SPACE
  1

  0
ENDBLK
  5
21
  8
0
  0
BLOCK
 67
     1
  8
0
  2
$PAPER_SPACE
 70
     0
 10
0.0
 20
0.0
 30
0.0
  3
$PAPER_SPACE
  1

  0
ENDBLK
  5
1D
 67
     1
  8
0
  0
BLOCK
  8
0
  2
_FILLED
 70
     0
 10
0.0
 20
0.0
 30
0.0
  3
_FILLED
  1

  0
SOLID
  5
9E2C
  8
0
  6
BYBLOCK
 62
     0
 10
0.0
 20
0.0
 30
0.0
 11
-1.0
 21
0.1666666667
 31
0.0
 12
-1.0
 22
-0.1666666667
 32
0.0
 13
-1.0
 23
-0.1666666667
 33
0.0
  0
ENDBLK
  5
9E2D
  8
0
  6
BYBLOCK
 62
     0
  0
BLOCK
  8
0
  2
A$C6B0F1CD5
 70
     2
 10
0.0
 20
0.0
 30
0.0
  3
A$C6B0F1CD5
  1

  0
ATTDEF
  5
B779
  8
DEFPOINTS
 10
0.0005209962714616
 20
0.000347009907216
 30
0.0
 40
0.001
  1
BATH FAUCET
  3

  2
PRODUCT
 70
     0
1001
ACDBATTR
1070
     0
1070
     1
  0
ATTDEF
  5
B77A
  8
DEFPOINTS
 10
0.0005209962714616
 20
0.0020136765738812
 30
0.0
 40
0.001
  1
SINGULIER
  3

  2
TRADENAME
 70
     0
1001
ACDBATTR
1070
     0
1070
     1
  0
ATTDEF
  5
B77B
  8
DEFPOINTS
 10
0.0005209962714616
 20
0.0036803432405463
 30
0.0
 40
0.001
  1
K-10873W
  3

  2
MODELNUMBER
 70
     0
1001
ACDBATTR
1070
     0
1070
     1
  0
ENDBLK
  5
B77F
  8
0
  0
ENDSEC
  0
SECTION
  2
ENTITIES
  0
ATTDEF
  5
15107
  8
DEFPOINTS
 10
3471.0194803975800824
 20
159.8519459345830001
 30
0.0
 40
0.001
  1
K-45372T-C4DPR
  3

  2
MODELNUMBER
 70
     0
1001
ACDBATTR
1070
     0
1070
     1
  0
ATTDEF
  5
15108
  8
DEFPOINTS
 10
3471.0194803975800824
 20
159.8502792679163065
 30
0.0
 40
0.001
  1
STRAYT
  3

  2
TRADENAME
 70
     0
1001
ACDBATTR
1070
     0
1070
     1
  0
ATTDEF
  5
15109
  8
DEFPOINTS
 10
3471.0194803975800824
 20
159.8486126012496129
 30
0.0
 40
0.001
  1
BATH AND SHOWER FAUCET
  3

  2
PRODUCT
 70
     0
1001
ACDBATTR
1070
     0
1070
     1
  0
LINE
  5
15A34
  8
0
 10
3471.9048161944469939
 20
202.5054529698871875
 30
0.0
 11
3470.1331626511459945
 21
202.5054529698871875
 31
0.0
  0
ARC
  5
15A35
  8
0
 10
3470.1331626511459945
 20
202.4857679304872136
 30
0.0
 40
0.0196850394000023
 50
90.0
 51
179.9999997089531121
  0
LINE
  5
15A36
  8
0
 10
3470.1134776117469301
 20
202.4857679305870874
 30
0.0
 11
3470.1134776079461517
 21
201.7377364344870898
 31
0.0
  0
ARC
  5
15A37
  8
0
 10
3470.1331626472460812
 20
201.7377364343871875
 30
0.0
 40
0.0196850393000041
 50
179.9999997089547037
 51
270.0000113508278901
  0
LINE
  5
15A38
  8
0
 10
3470.1134776117469301
 20
201.7180513950872012
 30
0.0
 11
3471.9245012337460139
 21
201.7180513950872012
 31
0.0
  0
LINE
  5
15A39
  8
0
 10
3471.9245012337460139
 20
201.7180513950872012
 30
0.0
 11
3471.9245012337460139
 21
199.4688702927871873
 31
0.0
  0
LINE
  5
15A3A
  8
0
 10
3471.9245012337460139
 20
199.0476104503258057
 30
0.0
 11
3471.9245012337460139
 21
196.2145462013533859
 31
0.0
  0
LINE
  5
15A3B
  8
0
 10
3471.9245012337460139
 20
191.5745038055069926
 30
0.0
 11
3471.9245012337460139
 21
186.7574214738870921
 31
0.0
  0
LINE
  5
15A3C
  8
0
 10
3471.9245012337460139
 20
184.8676576942870895
 30
0.0
 11
3471.9245012337460139
 21
163.1353742297870895
 31
0.0
  0
LINE
  5
15A3D
  8
0
 10
3471.9245012337460139
 20
163.1078151746870901
 30
0.0
 11
3471.9245011968778272
 21
162.3755317100871025
 31
0.0
  0
LINE
  5
15A3E
  8
0
 10
3471.9245012337460139
 20
162.2908860407870861
 30
0.0
 11
3471.9245012337460139
 21
161.401122261259701
 31
0.0
  0
ARC
  5
15A3F
  8
0
 10
3471.8969421786728162
 20
161.401122261259701
 30
0.0
 40
0.027559055072536
 50
269.9999999429132913
 51
0.0000000000016284
  0
LINE
  5
15A40
  8
0
 10
3471.8969421786459861
 20
161.3735632061871001
 30
0.0
 11
3470.1410366668460483
 21
161.3735632079369964
 31
0.0
  0
ARC
  5
15A41
  8
0
 10
3470.1410366668728784
 20
161.4011222630645079
 30
0.0
 40
0.0275590551274636
 50
180.0000037522003993
 51
269.9999999429132913
  0
LINE
  5
15A42
  8
0
 10
3470.1134776117469301
 20
161.401122261259701
 30
0.0
 11
3470.1134776117469301
 21
162.2908860407870861
 31
0.0
  0
LINE
  5
15A43
  8
0
 10
3470.1134776117469301
 20
162.3755317100871025
 30
0.0
 11
3470.1134776117469301
 21
163.1078151746870901
 31
0.0
  0
LINE
  5
15A44
  8
0
 10
3470.1134776117469301
 20
163.1353742297870895
 30
0.0
 11
3470.1134776117469301
 21
184.8676576942870895
 31
0.0
  0
LINE
  5
15A45
  8
0
 10
3470.1134776117469301
 20
186.7574214738870921
 30
0.0
 11
3470.1134776117469301
 21
199.0476104502870953
 31
0.0
  0
LINE
  5
15A46
  8
0
 10
3470.1134776117469301
 20
199.4688702927871873
 30
0.0
 11
3470.1134776117469301
 21
201.7180513950872012
 31
0.0
  0
LINE
  5
15A47
  8
0
 10
3470.1134776117469301
 20
196.6393112376871102
 30
0.0
 11
3470.0741075329460728
 21
196.6393112376871102
 31
0.0
  0
ARC
  5
15A48
  8
0
 10
3470.0741075329460728
 20
196.5605710802871045
 30
0.0
 40
0.0787401573999986
 50
90.0
 51
180.0000000727669942
  0
LINE
  5
15A49
  8
0
 10
3469.9953673755458112
 20
196.5605710801872021
 30
0.0
 11
3469.9953673777458789
 21
194.8282876155871008
 31
0.0
  0
ARC
  5
15A4A
  8
0
 10
3470.0741075353457745
 20
194.8282876156870884
 30
0.0
 40
0.0787401576000022
 50
180.0000000727669942
 51
269.999998253604474
  0
LINE
  5
15A4B
  8
0
 10
3470.0741075329460728
 20
194.7495474580871075
 30
0.0
 11
3470.1134776117469301
 21
194.7495474568870861
 31
0.0
  0
LINE
  5
15A4C
  8
0
 10
3469.9366588596458314
 20
186.7574214738870921
 30
0.0
 11
3473.0977295802458684
 21
186.7574214738870921
 31
0.0
  0
ARC
  5
15A4D
  8
0
 10
3473.0977245984900037
 20
186.7377314527307135
 30
0.0
 40
0.0196900217866772
 50
0.0144963589150384
 51
89.9855036410980063
  0
LINE
  5
15A4E
  8
0
 10
3473.1174146196458423
 20
186.7377364344870898
 30
0.0
 11
3473.1174146196458423
 21
185.6235632061871001
 31
0.0
  0
ARC
  5
15A4F
  8
0
 10
3473.0977295802458684
 20
185.6235632061871001
 30
0.0
 40
0.0196850394000032
 50
270.0
 51
359.9999999999951115
  0
LINE
  5
15A50
  8
0
 10
3473.0977295802458684
 20
185.6038781667870978
 30
0.0
 11
3472.1802822260469839
 21
185.6038781667870126
 31
0.0
  0
ARC
  5
15A51
  8
0
 10
3472.1802822260469839
 20
185.5202540663061086
 30
0.0
 40
0.0836241004808915
 50
90.0
 51
127.5463196069499929
  0
ARC
  5
15A52
  8
0
 10
3472.1752779845101031
 20
185.5267648157633005
 30
0.0
 40
0.0754123837394696
 50
127.5463196069499929
 51
180.1920129355825111
  0
LINE
  5
15A53
  8
0
 10
3472.0887032850191645
 20
184.8869991823787871
 30
0.0
 11
3472.1210020273028931
 21
186.7383358500516977
 31
0.0
  0
ARC
  5
15A54
  8
0
 10
3472.1013155714681488
 20
186.7377255612063891
 30
0.0
 40
0.0196959131753852
 50
1.7756258647373591
 51
89.9871584903744974
  0
ARC
  5
15A55
  8
0
 10
3472.0690212437461923
 20
184.8873427336870918
 30
0.0
 40
0.0196850393999989
 50
270.0
 51
358.9999999999917009
  0
LINE
  5
15A56
  8
0
 10
3472.0690212437461923
 20
184.8676576942870895
 30
0.0
 11
3469.9689576018458865
 21
184.8676576942872032
 31
0.0
  0
ARC
  5
15A57
  8
0
 10
3469.9689576018458865
 20
184.8873357335255037
 30
0.0
 40
0.0196780392382685
 50
181.0311130633895971
 51
270.0
  0
LINE
  5
15A58
  8
0
 10
3469.9492827490598756
 20
184.8869816203904008
 30
0.0
 11
3469.9169768183460292
 21
186.7373928831871979
 31
0.0
  0
ARC
  5
15A59
  8
0
 10
3469.9366588596458314
 20
186.7377364344870898
 30
0.0
 40
0.019685039399995
 50
89.9999999999739515
 51
181.0000000001058993
  0
ARC
  5
15A5A
  8
0
 10
3470.1410366668460483
 20
162.3755317100871025
 30
0.0
 40
0.0275590550999992
 50
180.439116256189493
 51
270.0
  0
LINE
  5
15A5B
  8
0
 10
3470.1410366668460483
 20
162.3479726549871032
 30
0.0
 11
3471.8969421786459861
 21
162.3479726549871884
 31
0.0
  0
ARC
  5
15A5C
  8
0
 10
3471.8969422047148328
 20
162.3755316471498986
 30
0.0
 40
0.027558992162687
 50
269.9999458009282876
 51
0.0001308480252951
  0
ARC
  5
15A5D
  8
0
 10
3471.8969974229348736
 20
162.2909412850763999
 30
0.0
 40
0.0275038662926226
 50
359.8849155710057062
 51
90.1150844289910538
  0
LINE
  5
15A5E
  8
0
 10
3471.8969421786459861
 20
162.3184450958871992
 30
0.0
 11
3470.1410366668460483
 21
162.3184450958871992
 31
0.0
  0
ARC
  5
15A5F
  8
0
 10
3470.1410366806640013
 20
162.2908860310236889
 30
0.0
 40
0.0275590689173447
 50
89.9689225135218607
 51
179.9999796442822912
  0
LINE
  5
15A60
  8
0
 10
3470.2414303676459895
 20
162.3184450958871992
 30
0.0
 11
3470.2414303676459895
 21
162.3479726549871032
 31
0.0
  0
LINE
  5
15A61
  8
0
 10
3471.796548477846045
 20
162.3184450958871992
 30
0.0
 11
3471.796548477846045
 21
162.3479726549871032
 31
0.0
  0
LINE
  5
15A62
  8
0
 10
3470.1410366668460483
 20
161.3440356470871109
 30
0.0
 11
3471.8969421786459861
 21
161.3440356470871109
 31
0.0
  0
ARC
  5
15A63
  8
0
 10
3471.8969422047148328
 20
161.3164766549244007
 30
0.0
 40
0.027558992162687
 50
359.9998691518558189
 51
90.0000541990716272
  0
LINE
  5
15A64
  8
0
 10
3471.9245011968778272
 20
161.3164765919871115
 30
0.0
 11
3471.9245012337460139
 21
161.1471852534922959
 31
0.0
  0
ARC
  5
15A65
  8
0
 10
3472.5150524149507874
 20
161.1471852534922959
 30
0.0
 40
0.5905511812051323
 50
180.0
 51
269.9999999898125225
  0
ARC
  5
15A66
  8
0
 10
3470.1410366668460483
 20
161.3164765919871115
 30
0.0
 40
0.0275590550999976
 50
90.0
 51
180.0000000000032117
  0
LINE
  5
15A67
  8
0
 10
3470.1134776117469301
 20
161.3164765919871115
 30
0.0
 11
3470.1134776117469301
 21
161.1471852533871072
 31
0.0
  0
ARC
  5
15A68
  8
0
 10
3469.522926430645839
 20
161.1471852533871072
 30
0.0
 40
0.5905511810999644
 50
270.0
 51
0.0000000000032569
  0
LINE
  5
15A69
  8
0
 10
3469.522926430645839
 20
160.5566340722870962
 30
0.0
 11
3466.68828076134605
 21
160.5566340722872951
 31
0.0
  0
LINE
  5
15A6A
  8
0
 10
3466.68828076134605
 20
160.5566340722872951
 30
0.0
 11
3466.68828076134605
 21
159.1393112376871102
 31
0.0
  0
LINE
  5
15A6B
  8
0
 10
3466.68828076134605
 20
159.1393112376871102
 30
0.0
 11
3469.5229264306672121
 21
159.1393112375870942
 31
0.0
  0
ARC
  5
15A6C
  8
0
 10
3469.522926430645839
 20
158.5487600564871116
 30
0.0
 40
0.5905511811000004
 50
0.0
 51
89.9999999979677057
  0
POLYLINE
  5
15A6D
  8
0
 66
     1
 10
0.0
 20
0.0
 30
0.0
  0
VERTEX
  5
1610F
  8
0
 10
3470.1134776117469301
 20
158.5487600564871116
 30
0.0
  0
VERTEX
  5
16110
  8
0
 10
3470.1134776117469301
 20
158.3794687179870948
 30
0.0
  0
SEQEND
  5
16111
  8
0
  0
ARC
  5
15A6E
  8
0
 10
3470.1410366668460483
 20
158.3794687179870948
 30
0.0
 40
0.0275590550999994
 50
180.0
 51
270.0
  0
LINE
  5
15A6F
  8
0
 10
3470.1410366668460483
 20
158.3519096628870955
 30
0.0
 11
3471.8969421786459861
 21
158.3519096628872092
 31
0.0
  0
ARC
  5
15A70
  8
0
 10
3471.8969421786459861
 20
158.3794687179872085
 30
0.0
 40
0.0275590550999994
 50
270.0
 51
359.9999999999445777
  0
LINE
  5
15A71
  8
0
 10
3471.9245012337460139
 20
158.3125395840870908
 30
0.0
 11
3471.9245012337460139
 21
158.3400986391870902
 31
0.0
  0
LINE
  5
15A72
  8
0
 10
3471.9245012337460139
 20
158.3400986391870902
 30
0.0
 11
3471.4474664184458561
 21
158.3400986391870902
 31
0.0
  0
LINE
  5
15A73
  8
0
 10
3470.1134776117469301
 20
158.3400986391870902
 30
0.0
 11
3470.1134776117469301
 21
158.3125395840870908
 31
0.0
  0
LINE
  5
15A74
  8
0
 10
3470.1134776117469301
 20
158.3125395840870908
 30
0.0
 11
3471.9245012337460139
 21
158.3125395840870908
 31
0.0
  0
ARC
  5
15A75
  8
0
 10
3471.8516889688289666
 20
158.3597974399270072
 30
0.0
 40
0.019711057032964
 50
203.596997787501806
 51
267.9793795338428026
  0
ARC
  5
15A76
  8
0
 10
3471.4611280415651891
 20
158.3541109819487076
 30
0.0
 40
0.0207290071934694
 50
186.1072496056125942
 51
217.4935500978974119
  0
ARC
  5
15A77
  8
0
 10
3471.4475104777179695
 20
158.3436642930354026
 30
0.0
 40
0.00356592604875
 50
217.4935500978986909
 51
269.292056383130614
  0
LINE
  5
15A78
  8
0
 10
3470.1134776117469301
 20
158.3400986391870902
 30
0.0
 11
3470.5904807642459673
 21
158.3400986391870902
 31
0.0
  0
ARC
  5
15A79
  8
0
 10
3470.5887839735560192
 20
158.3468549082153913
 30
0.0
 40
0.0069660799471842
 50
284.0978717724660214
 51
343.7523084125677997
  0
LINE
  5
15A7A
  8
0
 10
3470.5954718361258529
 20
158.3449058663804863
 30
0.0
 11
3470.5974621672457943
 21
158.3519055641870921
 31
0.0
  0
LINE
  5
15A7B
  8
0
 10
3470.6043066231459306
 20
158.3519096628870955
 30
0.0
 11
3470.6043066231459306
 21
158.3125395840870908
 31
0.0
  0
LINE
  5
15A7C
  8
0
 10
3470.5623257666461541
 20
158.3400986391870902
 30
0.0
 11
3470.5623257666461541
 21
158.3125395840870908
 31
0.0
  0
ARC
  5
15A7D
  8
0
 10
3470.1862912176220561
 20
158.3597965333217132
 30
0.0
 40
0.0197094653789967
 50
271.9634122260769118
 51
336.403857024738727
  0
LINE
  5
15A7E
  8
0
 10
3471.4756530788458804
 20
158.3125395840870908
 30
0.0
 11
3471.4756530788458804
 21
158.3400986391870902
 31
0.0
  0
LINE
  5
15A7F
  8
0
 10
3471.4336722223461038
 20
158.3519096628872092
 30
0.0
 11
3471.4336722223461038
 21
158.3125395840870908
 31
0.0
  0
ARC
  5
15A80
  8
0
 10
3471.8969421786459861
 20
158.2849805289870915
 30
0.0
 40
0.0275590551000011
 50
0.0
 51
90.0
  0
ARC
  5
15A81
  8
0
 10
3471.7670209448160676
 20
156.895216686549702
 30
0.0
 40
0.1574802520625894
 50
269.9999906970771804
 51
0.0000228984141159
  0
ARC
  5
15A82
  8
0
 10
3470.2709579271468101
 20
156.895216749887112
 30
0.0
 40
0.1574803153999991
 50
180.0000001455306915
 51
269.9999998180833245
  0
LINE
  5
15A83
  8
0
 10
3470.1134776117469301
 20
156.8952167494871048
 30
0.0
 11
3470.1134776082158169
 21
158.2849805289870915
 31
0.0
  0
ARC
  5
15A84
  8
0
 10
3470.1410395731518292
 20
158.2849805290570941
 30
0.0
 40
0.027561964936139
 50
90.8325797698980466
 51
180.0000001455306915
  0
ARC
  5
15A85
  8
0
 10
3470.2709579281017795
 20
157.5054529669806982
 30
0.0
 40
0.1574803179063942
 50
90.0000006754003863
 51
179.9999989425714944
  0
LINE
  5
15A86
  8
0
 10
3470.2709579262459556
 20
157.6629332848870888
 30
0.0
 11
3471.7670209187458568
 21
157.6629333025229016
 31
0.0
  0
ARC
  5
15A87
  8
0
 10
3471.7670209467428322
 20
157.5054530523875087
 30
0.0
 40
0.1574802501354998
 50
359.9999699840479934
 51
90.0000101859562847
  0
LINE
  5
15A88
  8
0
 10
3470.2709576736810959
 20
156.7377364344874024
 30
0.0
 11
3471.7670209187458568
 21
156.7377364344870898
 31
0.0
  0
LINE
  5
15A89
  8
0
 10
3470.5465484778469545
 20
156.7377364344870898
 30
0.0
 11
3470.5465484778469545
 21
156.5369490328870938
 31
0.0
  0
LINE
  5
15A8A
  8
0
 10
3470.5465484778469545
 20
156.5369490328870938
 30
0.0
 11
3471.4914303676459895
 21
156.5369490328870938
 31
0.0
  0
LINE
  5
15A8B
  8
0
 10
3471.4914303676459895
 20
156.5369490328870938
 30
0.0
 11
3471.4914303676459895
 21
156.7377364344870898
 31
0.0
  0
ARC
  5
15A8C
  8
0
 10
3470.6390681629459323
 20
156.5172639935871075
 30
0.0
 40
0.0196850394000041
 50
0.0000000000097707
 51
90.0
  0
LINE
  5
15A8D
  8
0
 10
3470.6587532023459062
 20
156.5172639935871075
 30
0.0
 11
3470.6587532023459062
 21
156.4778939147871029
 31
0.0
  0
ARC
  5
15A8E
  8
0
 10
3470.6390681629459323
 20
156.4778939147871029
 30
0.0
 40
0.0196850393999046
 50
336.4136308151869912
 51
0.0000000000097707
  0
LINE
  5
15A8F
  8
0
 10
3470.5907900172460359
 20
156.4700198990871058
 30
0.0
 11
3471.4471835992458182
 21
156.4700198990871058
 31
0.0
  0
ARC
  5
15A90
  8
0
 10
3471.3989106825461022
 20
156.5172639935871075
 30
0.0
 40
0.0196850394000041
 50
90.0
 51
179.9999999999901945
  0
LINE
  5
15A91
  8
0
 10
3471.3792256431461283
 20
156.5172639935871075
 30
0.0
 11
3471.3792256431461283
 21
156.4778939147871029
 31
0.0
  0
ARC
  5
15A92
  8
0
 10
3471.3989106825461022
 20
156.4778939147871029
 30
0.0
 40
0.0196850393999046
 50
179.9999999999901945
 51
203.5863691848130941
  0
ARC
  5
15A93
  8
0
 10
3470.5907900183901802
 20
156.4503348592589873
 30
0.0
 40
0.019685040522375
 50
89.9847836676035939
 51
182.6563056436498016
  0
LINE
  5
15A94
  8
0
 10
3470.5711261292699419
 20
156.4494225619692997
 30
0.0
 11
3470.6218240683829208
 21
155.3566662139463119
 31
0.0
  0
ARC
  5
15A95
  8
0
 10
3470.7004796200358214
 20
155.3603154028764948
 30
0.0
 40
0.0787401573895335
 50
182.6563071447583013
 51
270.0001300395387034
  0
LINE
  5
15A96
  8
0
 10
3470.7004797987460734
 20
155.2815752454870903
 30
0.0
 11
3471.3374992253438904
 21
155.2815766912779907
 31
0.0
  0
ARC
  5
15A97
  8
0
 10
3471.3374990466331838
 20
155.3603171061901094
 30
0.0
 40
0.0787404149123748
 50
270.0001300395387034
 51
357.3424608219007155
  0
LINE
  5
15A98
  8
0
 10
3471.4161547770459038
 20
155.3566662139870971
 30
0.0
 11
3471.4668762137489466
 21
156.4494214720407115
 31
0.0
  0
ARC
  5
15A99
  8
0
 10
3471.4472116889619429
 20
156.4503342225783058
 30
0.0
 40
0.0196856965495519
 50
357.3424608218991239
 51
90.0817559450601948
  0
ARC
  5
15A9A
  8
0
 10
3589.4280186043138201
 20
149.653177208910904
 30
0.0
 40
118.7825381173158945
 50
177.2840768009336045
 51
181.2701454268182886
  0
ARC
  5
15A9B
  8
0
 10
3474.0546531657828382
 20
147.095136052560207
 30
0.0
 40
3.3808179084279151
 50
181.2701454268182886
 51
195.7398075785459071
  0
ARC
  5
15A9C
  8
0
 10
3471.3238727041848506
 20
146.3255007053076895
 30
0.0
 40
0.5436537437757085
 50
195.7398075785459071
 51
222.3260833087242077
  0
ARC
  5
15A9D
  8
0
 10
3471.1832493403048829
 20
146.1974262190555862
 30
0.0
 40
0.3534485795520339
 50
222.3260833087242077
 51
260.2152198190441936
  0
ARC
  5
15A9E
  8
0
 10
3471.1732620529428459
 20
146.1395142783077006
 30
0.0
 40
0.2946817624692572
 50
260.2152198190441936
 51
285.6020376303579269
  0
ARC
  5
15A9F
  8
0
 10
3471.0535641051910716
 20
146.4158502371369082
 30
0.0
 40
0.5944420715111693
 50
289.5536872238891988
 51
331.8280120091529284
  0
ARC
  5
15AA0
  8
0
 10
3465.9520708892150651
 20
149.1951587230651057
 30
0.0
 40
6.4038851184550127
 50
331.4563511395807041
 51
343.477432339851191
  0
ARC
  5
15AA1
  8
0
 10
3402.9195534072227929
 20
167.276532375903713
 30
0.0
 40
71.9782949965719325
 50
343.9480827646443117
 51
351.2344465485202818
  0
ARC
  5
15AA2
  8
0
 10
3399.256977239806929
 20
168.4405991002674057
 30
0.0
 40
75.7778020292881536
 50
350.7865840017788059
 51
352.6716047808441203
  0
ARC
  5
15AA3
  8
0
 10
3433.6760353159470469
 20
164.2151297690035108
 30
0.0
 40
41.1014003030776678
 50
352.3936238816435207
 51
358.2360190617454805
  0
ARC
  5
15AA4
  8
0
 10
3435.8282421061439891
 20
163.7528229435465903
 30
0.0
 40
38.9379945686105273
 50
358.8184891218372172
 51
5.882134608367414
  0
ARC
  5
15AA5
  8
0
 10
3537.536331991420866
 20
174.3134035511511115
 30
0.0
 40
63.3169100316777929
 50
180.4053594875558133
 51
185.9560570206579087
  0
ARC
  5
15AA6
  8
0
 10
4303.5482554829632136
 20
172.0307909125862125
 30
0.0
 40
829.3292782455029055
 50
179.0646309900652966
 51
179.8732490666143065
  0
ARC
  5
15AA7
  8
0
 10
-26031.7614341640401108
 20
533.3163185059247553
 30
0.0
 40
29507.6600928981315519
 50
359.3057584817473753
 51
359.3247549059996118
  0
ARC
  5
15AA8
  8
0
 10
3546.8246889433439719
 20
174.9009567248677115
 30
0.0
 40
73.0974804575888157
 50
179.3057584817474037
 51
184.5148830375439104
  0
ARC
  5
15AA9
  8
0
 10
3397.021428180447856
 20
161.2835689345334913
 30
0.0
 40
77.3334180982353416
 50
2.652220328978999
 51
5.8359464039878164
  0
ARC
  5
15AAA
  8
0
 10
3440.8467046959372055
 20
163.8101738538030929
 30
0.0
 40
33.4418498001644124
 50
355.0442801111412905
 51
1.802477045268214
  0
ARC
  5
15AAB
  8
0
 10
3431.0707545615541676
 20
164.5545089084029939
 30
0.0
 40
43.2456776021385991
 50
353.7222190709372853
 51
355.1806789665782276
  0
ARC
  5
15AAC
  8
0
 10
3407.9206149479191481
 20
167.2081348524066868
 30
0.0
 40
66.5472517018527014
 50
351.1299868178614929
 51
353.6307209211641975
  0
ARC
  5
15AAD
  8
0
 10
3384.8860202310179375
 20
170.6761406203742979
 30
0.0
 40
89.8411993664840338
 50
346.8569873016024872
 51
351.2098639473796879
  0
ARC
  5
15AAE
  8
0
 10
3438.4494530718561691
 20
158.0173802233530864
 30
0.0
 40
34.8027657928604128
 50
342.112943717506198
 51
347.1002914392971093
  0
ARC
  5
15AAF
  8
0
 10
3460.9749850824018722
 20
150.2121019286259127
 30
0.0
 40
10.9805316911776902
 50
340.1922822496309209
 51
344.7722948867141781
  0
ARC
  5
15AB0
  8
0
 10
3469.3619587631869763
 20
147.3586396517812886
 30
0.0
 40
2.128662835312507
 50
330.7602249738951059
 51
335.9514755442102114
  0
ARC
  5
15AB1
  8
0
 10
3068.5351021081428371
 20
162.6240643829530939
 30
0.0
 40
402.7908908339716731
 50
358.3273607679108181
 51
358.9554755639240966
  0
ARC
  5
15AB2
  8
0
 10
3558.2008841054512231
 20
148.3251587093371029
 30
0.0
 40
87.0836204058941519
 50
178.3273607679107897
 51
179.8445915862864979
  0
ARC
  5
15AB3
  8
0
 10
3494.3221658689940341
 20
148.3727379124183017
 30
0.0
 40
23.2053484644001706
 50
179.5342650330362915
 51
183.422729446121906
  0
ARC
  5
15AB4
  8
0
 10
3480.9308858573208454
 20
147.4710039841513094
 30
0.0
 40
9.7846373838259169
 50
182.8334364834491907
 51
186.2809416568042025
  0
ARC
  5
15AB5
  8
0
 10
3474.1796975575020952
 20
146.883393469703492
 30
0.0
 40
3.0136510678999779
 50
189.2200065221285001
 51
190.7967161878966067
  0
LINE
  5
15AB6
  8
0
 10
3465.4085127071739407
 20
160.5458779986228137
 30
0.0
 11
3466.6132371165458608
 21
160.5563914692870924
 31
0.0
  0
ARC
  5
15AB7
  8
0
 10
3466.6134776116427929
 20
160.5288334608318053
 30
0.0
 40
0.0275590578198293
 50
359.9750323545338233
 51
90.5000000009295746
  0
ARC
  5
15AB8
  8
0
 10
3466.6134776117460206
 20
159.1671118463870869
 30
0.0
 40
0.0275590551000005
 50
269.5000000000085265
 51
0.0
  0
LINE
  5
15AB9
  8
0
 10
3466.6132371166740995
 20
159.1395538406515016
 30
0.0
 11
3465.4085127072457908
 21
159.1500673112969082
 31
0.0
  0
ARC
  5
15ABA
  8
0
 10
3465.4087532023199856
 20
159.1776253171059068
 30
0.0
 40
0.0275590551733579
 50
180.0000000388953936
 51
269.5000000000085265
  0
LINE
  5
15ABB
  8
0
 10
3465.381194147145834
 20
159.1776253170870916
 30
0.0
 11
3465.3811941462358845
 21
160.5183199928870863
 31
0.0
  0
ARC
  5
15ABC
  8
0
 10
3465.4087532013732016
 20
160.5183199929057878
 30
0.0
 40
0.0275590551374121
 50
90.4999980338245962
 51
180.0000000388953936
  0
LINE
  5
15ABD
  8
0
 10
3466.6410366668460483
 20
160.4716300644871012
 30
0.0
 11
3466.68828076134605
 21
160.4716300644871012
 31
0.0
  0
LINE
  5
15ABE
  8
0
 10
3466.6410366668460483
 20
160.3493826395871054
 30
0.0
 11
3466.68828076134605
 21
160.3493826395871054
 31
0.0
  0
LINE
  5
15ABF
  8
0
 10
3466.6410366668460483
 20
160.3360299679870877
 30
0.0
 11
3466.68828076134605
 21
160.3360299679870877
 31
0.0
  0
LINE
  5
15AC0
  8
0
 10
3466.6410366668460483
 20
160.1506301352870878
 30
0.0
 11
3466.68828076134605
 21
160.1506301352870878
 31
0.0
  0
LINE
  5
15AC1
  8
0
 10
3466.68828076134605
 20
160.1375762106870866
 30
0.0
 11
3466.6410366668460483
 21
160.1375762106870866
 31
0.0
  0
LINE
  5
15AC2
  8
0
 10
3466.6410366668460483
 20
160.5288214514870901
 30
0.0
 11
3466.6410366668460483
 21
159.1671118463870869
 31
0.0
  0
LINE
  5
15AC3
  8
0
 10
3466.6410366668460483
 20
159.2243152453870891
 30
0.0
 11
3466.68828076134605
 21
159.2243152453870891
 31
0.0
  0
LINE
  5
15AC4
  8
0
 10
3466.6410366668460483
 20
159.2455323674871011
 30
0.0
 11
3466.68828076134605
 21
159.2455323674871011
 31
0.0
  0
LINE
  5
15AC5
  8
0
 10
3466.6410366668460483
 20
159.3017148516871089
 30
0.0
 11
3466.68828076134605
 21
159.3017148516871089
 31
0.0
  0
LINE
  5
15AC6
  8
0
 10
3466.6410366668460483
 20
159.3285992489871035
 30
0.0
 11
3466.68828076134605
 21
159.3285992489871035
 31
0.0
  0
LINE
  5
15AC7
  8
0
 10
3466.68828076134605
 20
159.4907360234871021
 30
0.0
 11
3466.6410366668460483
 21
159.4907360234871021
 31
0.0
  0
LINE
  5
15AC8
  8
0
 10
3466.6410366668460483
 20
159.4768100419871075
 30
0.0
 11
3466.68828076134605
 21
159.4768100419871075
 31
0.0
  0
LINE
  5
15AC9
  8
0
 10
3466.6410366668460483
 20
159.7072588366870889
 30
0.0
 11
3466.68828076134605
 21
159.7072588366870889
 31
0.0
  0
LINE
  5
15ACA
  8
0
 10
3466.68828076134605
 20
159.6966003518870991
 30
0.0
 11
3466.6410366668460483
 21
159.6966003518870991
 31
0.0
  0
LINE
  5
15ACB
  8
0
 10
3466.6410366668460483
 20
159.9099773561871132
 30
0.0
 11
3466.68828076134605
 21
159.9099773561871132
 31
0.0
  0
LINE
  5
15ACC
  8
0
 10
3466.68828076134605
 20
159.9191534447870993
 30
0.0
 11
3466.6410366668460483
 21
159.9191534447870993
 31
0.0
  0
LINE
  5
15ACD
  8
0
 10
3465.3811941462358845
 20
160.5183199928870863
 30
0.0
 11
3466.6410366668460483
 21
160.5288214514870901
 31
0.0
  0
ARC
  5
15ACE
  8
0
 10
3465.4087583880509555
 20
160.3981116346967042
 30
0.0
 40
0.0275729770003296
 50
181.4422660983678952
 51
269.4894762566976283
  0
LINE
  5
15ACF
  8
0
 10
3465.4085127072457908
 20
160.3705397522508918
 30
0.0
 11
3466.5935520772459313
 21
160.3601980702871117
 31
0.0
  0
ARC
  5
15AD0
  8
0
 10
3466.5937925721550528
 20
160.3877560762157941
 30
0.0
 40
0.0275590552915932
 50
269.500000344913019
 51
359.9999997325102186
  0
ARC
  5
15AD1
  8
0
 10
3466.5937594454408099
 20
160.5286478709898859
 30
0.0
 40
0.0275921836390165
 50
0.0197170065286746
 51
88.3394866186722538
  0
LINE
  5
15AD2
  8
0
 10
3466.6213516274460744
 20
160.5286573661963985
 30
0.0
 11
3466.6213516274460744
 21
160.3877560760871006
 31
0.0
  0
ARC
  5
15AD3
  8
0
 10
3474.3538749805311454
 20
161.1872321276647142
 30
0.0
 40
7.773807193615677
 50
185.907073390939189
 51
186.6133503410229082
  0
ARC
  5
15AD4
  8
0
 10
3465.409731551682853
 20
160.1502474156874882
 30
0.0
 40
1.230249612551285
 50
1.4233478222378619
 51
6.613350341022878
  0
ARC
  5
15AD5
  8
0
 10
3474.3720713218040146
 20
160.3729366206588907
 30
0.0
 40
7.7348563342352312
 50
181.4233478222377869
 51
181.8011774713959881
  0
LINE
  5
15AD6
  8
0
 10
3465.381194147145834
 20
159.2967915525871092
 30
0.0
 11
3466.6410366668460483
 21
159.2967915525871092
 31
0.0
  0
LINE
  5
15AD7
  8
0
 10
3466.68828076134605
 20
159.2967915525871092
 30
0.0
 11
3469.5229264306608457
 21
159.2967915525871092
 31
0.0
  0
ARC
  5
15AD8
  8
0
 10
3469.5229264306608457
 20
158.5487600566015089
 30
0.0
 40
0.7480314959856376
 50
359.9999999912405997
 51
90.0
  0
LINE
  5
15AD9
  8
0
 10
3470.2709579266461333
 20
158.5487600564871116
 30
0.0
 11
3470.2709579266461333
 21
158.3519096628870955
 31
0.0
  0
LINE
  5
15ADA
  8
0
 10
3466.68828076134605
 20
160.3991537572871096
 30
0.0
 11
3469.522926430645839
 21
160.3991537572871096
 31
0.0
  0
ARC
  5
15ADB
  8
0
 10
3469.522926430645839
 20
161.1471852533871072
 30
0.0
 40
0.7480314960999995
 50
270.0
 51
359.9999999970003728
  0
LINE
  5
15ADC
  8
0
 10
3470.2709579267470872
 20
161.1471852533479989
 30
0.0
 11
3470.2709579267561821
 21
161.3440356470871109
 31
0.0
  0
LINE
  5
15ADD
  8
0
 10
3466.9929340671460523
 20
160.5566340722870962
 30
0.0
 11
3466.9929340671460523
 21
160.8322246234882016
 31
0.0
  0
ARC
  5
15ADE
  8
0
 10
3467.0819815487448068
 20
160.8322246234882016
 30
0.0
 40
0.0890474815989125
 50
89.9999999992965058
 51
180.0
  0
LINE
  5
15ADF
  8
0
 10
3467.0819815487470805
 20
160.9212721050870982
 30
0.0
 11
3469.0504854857467762
 21
160.9212721050631103
 31
0.0
  0
ARC
  5
15AE0
  8
0
 10
3469.0504854857458668
 20
160.8322246234631052
 30
0.0
 40
0.089047481599998
 50
0.0000000154669611
 51
89.9999999992965058
  0
LINE
  5
15AE1
  8
0
 10
3469.1395329673459855
 20
160.8322246234870931
 30
0.0
 11
3469.1395329674210188
 21
160.5566340722870962
 31
0.0
  0
LINE
  5
15AE2
  8
0
 10
3469.1395329678030066
 20
159.1393112376871102
 30
0.0
 11
3469.1395329678780399
 21
158.8637206864860048
 31
0.0
  0
ARC
  5
15AE3
  8
0
 10
3469.0504854862028878
 20
158.8637206864619884
 30
0.0
 40
0.089047481674875
 50
269.9999997062548118
 51
0.0000000154669611
  0
LINE
  5
15AE4
  8
0
 10
3469.0504854857458668
 20
158.7746732047870921
 30
0.0
 11
3467.0819815487470805
 21
158.7746732148796127
 31
0.0
  0
ARC
  5
15AE5
  8
0
 10
3467.0819815492031921
 20
158.8637206969362126
 30
0.0
 40
0.0890474820565466
 50
180.0000067239282942
 51
269.9999997062548118
  0
LINE
  5
15AE6
  8
0
 10
3466.9929340671460523
 20
158.8637206864860048
 30
0.0
 11
3466.9929340348039659
 21
159.1393112376871102
 31
0.0
  0
LINE
  5
15AE7
  8
0
 10
3467.0422693916461867
 20
160.5566340722870962
 30
0.0
 11
3467.0422693916461867
 21
160.8322246234858994
 31
0.0
  0
ARC
  5
15AE8
  8
0
 10
3467.0819815486470361
 20
160.8322246234858994
 30
0.0
 40
0.0397121570012473
 50
89.9999998575306961
 51
180.0
  0
LINE
  5
15AE9
  8
0
 10
3467.0819815487470805
 20
160.8719367804870899
 30
0.0
 11
3469.0504854857458668
 21
160.8719367755919905
 31
0.0
  0
ARC
  5
15AEA
  8
0
 10
3469.0504854856471866
 20
160.8322246183932975
 30
0.0
 40
0.0397121571987533
 50
0.0000073492947767
 51
89.9999998575306961
  0
LINE
  5
15AEB
  8
0
 10
3469.0901976428458511
 20
160.8322246234870931
 30
0.0
 11
3469.0901976781960911
 21
160.5566340722870962
 31
0.0
  0
LINE
  5
15AEC
  8
0
 10
3469.0901978599949871
 20
159.1393112376871102
 30
0.0
 11
3469.0901978953452272
 21
158.8637206864871985
 31
0.0
  0
ARC
  5
15AED
  8
0
 10
3469.0504857433379584
 20
158.8637206813932892
 30
0.0
 40
0.0397121520069982
 50
269.9996283524724845
 51
0.0000073492947767
  0
LINE
  5
15AEE
  8
0
 10
3469.0504854857458668
 20
158.8240085293871005
 30
0.0
 11
3467.0819815487470805
 21
158.8240085293871005
 31
0.0
  0
ARC
  5
15AEF
  8
0
 10
3467.0819815487470805
 20
158.8637206864871985
 30
0.0
 40
0.0397121570999985
 50
179.9999999981988879
 51
270.0
  0
LINE
  5
15AF0
  8
0
 10
3467.0422693916461867
 20
158.8637206864883922
 30
0.0
 11
3467.0422693916548269
 21
159.1393112376746046
 31
0.0
  0
LINE
  5
15AF1
  8
0
 10
3471.7670209188459012
 20
161.3440356470871109
 30
0.0
 11
3471.7670209187458568
 21
161.1471852537671055
 31
0.0
  0
ARC
  5
15AF2
  8
0
 10
3472.5150524148461955
 20
161.1471852533871072
 30
0.0
 40
0.7480314960999978
 50
179.9999999708932137
 51
270.0
  0
LINE
  5
15AF3
  8
0
 10
3472.5150524148461955
 20
160.3991537572871096
 30
0.0
 11
3475.3496980841459845
 21
160.3991537572871096
 31
0.0
  0
LINE
  5
15AF4
  8
0
 10
3472.5150504586931675
 20
160.5566340722903931
 30
0.0
 11
3475.3496980841459845
 21
160.5566340722870962
 31
0.0
  0
LINE
  5
15AF5
  8
0
 10
3475.3496980841459845
 20
160.5566340722870962
 30
0.0
 11
3475.3496980841459845
 21
159.1393112376871102
 31
0.0
  0
LINE
  5
15AF6
  8
0
 10
3475.3496980841459845
 20
159.1393112376871102
 30
0.0
 11
3472.5150524148261866
 21
159.1393112375870942
 31
0.0
  0
ARC
  5
15AF7
  8
0
 10
3472.5150524148461955
 20
158.5487600564871116
 30
0.0
 40
0.5905511811000004
 50
90.0000000020322943
 51
180.0000000068004056
  0
LINE
  5
15AF8
  8
0
 10
3471.9245012337460139
 20
158.5487600564171089
 30
0.0
 11
3471.9245012337660228
 21
158.3794687179870948
 31
0.0
  0
LINE
  5
15AF9
  8
0
 10
3471.7670209187458568
 20
157.6629333025229016
 30
0.0
 11
3471.7670209188459012
 21
158.3125395840870908
 31
0.0
  0
LINE
  5
15AFA
  8
0
 10
3471.7670209188459012
 20
158.3519096627871079
 30
0.0
 11
3471.7670209188459012
 21
158.5487600565870991
 31
0.0
  0
ARC
  5
15AFB
  8
0
 10
3472.5150524148461955
 20
158.5487600565870991
 30
0.0
 40
0.7480314959999986
 50
90.0
 51
180.0
  0
LINE
  5
15AFC
  8
0
 10
3472.5150524148461955
 20
159.2967915525871092
 30
0.0
 11
3475.3496980841459845
 21
159.2967915525871092
 31
0.0
  0
LINE
  5
15AFD
  8
0
 10
3470.2709578378430706
 20
157.6629332848870888
 30
0.0
 11
3470.2709578378430706
 21
158.3125395840870908
 31
0.0
  0
LINE
  5
15AFE
  8
0
 10
3475.0450445252799909
 20
160.5566340722870962
 30
0.0
 11
3475.0450447784460266
 21
160.8322246234882016
 31
0.0
  0
ARC
  5
15AFF
  8
0
 10
3474.955996864665849
 20
160.8322241913060964
 30
0.0
 40
0.0890479137812122
 50
0.0002780773894917
 51
89.9998848172639754
  0
LINE
  5
15B00
  8
0
 10
3474.9559970436807816
 20
160.9212721050870982
 30
0.0
 11
3472.9874931066801764
 21
160.9212721050631103
 31
0.0
  0
ARC
  5
15B01
  8
0
 10
3472.9874931066810859
 20
160.8322246234631052
 30
0.0
 40
0.089047481599998
 50
90.0000000007034942
 51
179.999999984532991
  0
LINE
  5
15B02
  8
0
 10
3472.8984456250809671
 20
160.8322246234870931
 30
0.0
 11
3472.8984456250059338
 21
160.5566340722870962
 31
0.0
  0
LINE
  5
15B03
  8
0
 10
3472.8984456246239461
 20
159.1393112376871102
 30
0.0
 11
3472.8984456245489127
 21
158.8637206864860048
 31
0.0
  0
ARC
  5
15B04
  8
0
 10
3472.9874931062240648
 20
158.8637206864619884
 30
0.0
 40
0.089047481674875
 50
179.999999984532991
 51
270.0000002937453019
  0
LINE
  5
15B05
  8
0
 10
3472.9874931066810859
 20
158.7746732047870921
 30
0.0
 11
3474.9559970436807816
 21
158.7746732148796127
 31
0.0
  0
ARC
  5
15B06
  8
0
 10
3474.9559968642079184
 20
158.863721129118403
 30
0.0
 40
0.0890479142389161
 50
270.0001154771848064
 51
359.9997151986725044
  0
LINE
  5
15B07
  8
0
 10
3475.0450447784460266
 20
158.8637206864860048
 30
0.0
 11
3475.0450445576220773
 21
159.1393112376871102
 31
0.0
  0
LINE
  5
15B08
  8
0
 10
3474.9957092007812207
 20
160.5566340722870962
 30
0.0
 11
3474.9957092007812207
 21
160.8322246234858994
 31
0.0
  0
ARC
  5
15B09
  8
0
 10
3474.9559970437790071
 20
160.8322246234858994
 30
0.0
 40
0.0397121570012473
 50
0.0
 51
90.0000001424693181
  0
LINE
  5
15B0A
  8
0
 10
3474.9559970436807816
 20
160.8719367804870899
 30
0.0
 11
3472.9874931066810859
 21
160.8719367755919905
 31
0.0
  0
ARC
  5
15B0B
  8
0
 10
3472.9874931067788566
 20
160.8322246183932975
 30
0.0
 40
0.0397121571987533
 50
90.0000001424693181
 51
179.9999926507051953
  0
LINE
  5
15B0C
  8
0
 10
3472.9477809495811016
 20
160.8322246234870931
 30
0.0
 11
3472.9477809142308615
 21
160.5566340722870962
 31
0.0
  0
LINE
  5
15B0D
  8
0
 10
3472.9477807324319656
 20
159.1393112376871102
 30
0.0
 11
3472.9477806970821803
 21
158.8637206864871985
 31
0.0
  0
ARC
  5
15B0E
  8
0
 10
3472.9874928490889943
 20
158.8637206813932892
 30
0.0
 40
0.0397121520069982
 50
179.9999926507051953
 51
270.0003716475275155
  0
LINE
  5
15B0F
  8
0
 10
3472.9874931066810859
 20
158.8240085293871005
 30
0.0
 11
3474.9559970436789627
 21
158.8240085293871005
 31
0.0
  0
ARC
  5
15B10
  8
0
 10
3474.9559970436807816
 20
158.8637206864871985
 30
0.0
 40
0.0397121570999985
 50
270.0
 51
0.0000000018010591
  0
LINE
  5
15B11
  8
0
 10
3474.9957092007812207
 20
158.8637206864883922
 30
0.0
 11
3474.9957092007721258
 21
159.1393112376746046
 31
0.0
  0
LINE
  5
15B12
  8
0
 10
3475.3496980841459845
 20
160.5566340722872951
 30
0.0
 11
3475.3496980841459845
 21
159.1393112376871102
 31
0.0
  0
LINE
  5
15B13
  8
0
 10
3476.6294661383190032
 20
160.5458779986228137
 30
0.0
 11
3475.4247417289461737
 21
160.5563914692870924
 31
0.0
  0
ARC
  5
15B14
  8
0
 10
3475.4245012338487868
 20
160.5288334608318053
 30
0.0
 40
0.0275590578198293
 50
89.4999999990704396
 51
180.0249676454662051
  0
ARC
  5
15B15
  8
0
 10
3475.4245012337460139
 20
159.1671118463870869
 30
0.0
 40
0.0275590551000005
 50
180.0
 51
270.4999999999914735
  0
LINE
  5
15B16
  8
0
 10
3475.4247417288188444
 20
159.1395538406515016
 30
0.0
 11
3476.6294661382457889
 21
159.1500673112969082
 31
0.0
  0
ARC
  5
15B17
  8
0
 10
3476.6292256431729584
 20
159.1776253171059068
 30
0.0
 40
0.0275590551733579
 50
270.4999999999914735
 51
359.9999999611046064
  0
LINE
  5
15B18
  8
0
 10
3476.6567846983462005
 20
159.1776253170870916
 30
0.0
 11
3476.6567846992570594
 21
160.5183199928870863
 31
0.0
  0
ARC
  5
15B19
  8
0
 10
3476.6292256441188329
 20
160.5183199929057878
 30
0.0
 40
0.0275590551374121
 50
359.9999999611046064
 51
89.500001966175418
  0
LINE
  5
15B1A
  8
0
 10
3475.3969421786459861
 20
160.4716300644871012
 30
0.0
 11
3475.3496980841459845
 21
160.4716300644871012
 31
0.0
  0
LINE
  5
15B1B
  8
0
 10
3475.3969421786459861
 20
160.3493826395871054
 30
0.0
 11
3475.3496980841459845
 21
160.3493826395871054
 31
0.0
  0
LINE
  5
15B1C
  8
0
 10
3475.3969421786459861
 20
160.3360299679870877
 30
0.0
 11
3475.3496980841459845
 21
160.3360299679870877
 31
0.0
  0
LINE
  5
15B1D
  8
0
 10
3475.3969421786459861
 20
160.1506301352870878
 30
0.0
 11
3475.3496980841459845
 21
160.1506301352870878
 31
0.0
  0
LINE
  5
15B1E
  8
0
 10
3475.3496980841459845
 20
160.1375762106870866
 30
0.0
 11
3475.3969421786459861
 21
160.1375762106870866
 31
0.0
  0
LINE
  5
15B1F
  8
0
 10
3475.3969421786459861
 20
160.5288214514870901
 30
0.0
 11
3475.3969421786459861
 21
159.1671118463870869
 31
0.0
  0
LINE
  5
15B20
  8
0
 10
3475.3969421786459861
 20
159.2243152453870891
 30
0.0
 11
3475.3496980841459845
 21
159.2243152453870891
 31
0.0
  0
LINE
  5
15B21
  8
0
 10
3475.3969421786459861
 20
159.2455323674871011
 30
0.0
 11
3475.3496980841459845
 21
159.2455323674871011
 31
0.0
  0
LINE
  5
15B22
  8
0
 10
3475.3969421786459861
 20
159.3017148516871089
 30
0.0
 11
3475.3496980841459845
 21
159.3017148516871089
 31
0.0
  0
LINE
  5
15B23
  8
0
 10
3475.3969421786459861
 20
159.3285992489871035
 30
0.0
 11
3475.3496980841459845
 21
159.3285992489871035
 31
0.0
  0
LINE
  5
15B24
  8
0
 10
3475.3496980841459845
 20
159.4907360234871021
 30
0.0
 11
3475.3969421786459861
 21
159.4907360234871021
 31
0.0
  0
LINE
  5
15B25
  8
0
 10
3475.3969421786459861
 20
159.4768100419871075
 30
0.0
 11
3475.3496980841459845
 21
159.4768100419871075
 31
0.0
  0
LINE
  5
15B26
  8
0
 10
3475.3969421786459861
 20
159.7072588366870889
 30
0.0
 11
3475.3496980841459845
 21
159.7072588366870889
 31
0.0
  0
LINE
  5
15B27
  8
0
 10
3475.3496980841459845
 20
159.6966003518870991
 30
0.0
 11
3475.3969421786459861
 21
159.6966003518870991
 31
0.0
  0
LINE
  5
15B28
  8
0
 10
3475.3969421786459861
 20
159.9099773561871132
 30
0.0
 11
3475.3496980841459845
 21
159.9099773561871132
 31
0.0
  0
LINE
  5
15B29
  8
0
 10
3475.3496980841459845
 20
159.9191534447870993
 30
0.0
 11
3475.3969421786459861
 21
159.9191534447870993
 31
0.0
  0
LINE
  5
15B2A
  8
0
 10
3476.6567846992570594
 20
160.5183199928870863
 30
0.0
 11
3475.3969421786459861
 21
160.5288214514870901
 31
0.0
  0
ARC
  5
15B2B
  8
0
 10
3476.6292204574419884
 20
160.3981116346967042
 30
0.0
 40
0.0275729770003296
 50
270.5105237433023717
 51
358.5577339016321048
  0
LINE
  5
15B2C
  8
0
 10
3476.6294661382457889
 20
160.3705397522508918
 30
0.0
 11
3475.4444267682461032
 21
160.3601980702871117
 31
0.0
  0
ARC
  5
15B2D
  8
0
 10
3475.4441862733378912
 20
160.3877560762157941
 30
0.0
 40
0.0275590552915932
 50
180.0000002674898099
 51
270.499999655086981
  0
ARC
  5
15B2E
  8
0
 10
3475.4442194000512245
 20
160.5286478709898859
 30
0.0
 40
0.0275921836390165
 50
91.6605133813277462
 51
179.9802829934712918
  0
LINE
  5
15B2F
  8
0
 10
3475.41662721804596
 20
160.5286573661963985
 30
0.0
 11
3475.41662721804596
 21
160.3877560760871006
 31
0.0
  0
ARC
  5
15B30
  8
0
 10
3467.684103864960889
 20
161.1872321276647142
 30
0.0
 40
7.773807193615677
 50
353.3866496589770918
 51
354.0929266090590772
  0
ARC
  5
15B31
  8
0
 10
3476.6282472938100909
 20
160.1502474156874882
 30
0.0
 40
1.230249612551285
 50
173.3866496589770918
 51
178.5766521777605078
  0
ARC
  5
15B32
  8
0
 10
3467.6659075236880199
 20
160.3729366206588907
 30
0.0
 40
7.7348563342352312
 50
358.1988225286040119
 51
358.5766521777621847
  0
LINE
  5
15B33
  8
0
 10
3476.6567846983462005
 20
159.2967915525871092
 30
0.0
 11
3475.3969421786459861
 21
159.2967915525871092
 31
0.0
  0
LINE
  5
15B34
  8
0
 10
3470.9402492652470755
 20
161.4011222612870995
 30
0.0
 11
3470.9402492652470755
 21
162.2908860407870861
 31
0.0
  0
ARC
  5
15B35
  8
0
 10
3470.9678083203471033
 20
162.2908860407870861
 30
0.0
 40
0.0275590550999994
 50
90.0
 51
180.0
  0
ARC
  5
15B36
  8
0
 10
3471.0701705251458407
 20
162.2908860407871998
 30
0.0
 40
0.0275590550999976
 50
359.9999999999968168
 51
90.0
  0
LINE
  5
15B37
  8
0
 10
3471.0977295802458684
 20
162.2908860407870861
 30
0.0
 11
3471.0977295802458684
 21
161.4011222612870995
 31
0.0
  0
ARC
  5
15B38
  8
0
 10
3471.0701705251458407
 20
161.4011222612870995
 30
0.0
 40
0.027559055100002
 50
270.0140103311467215
 51
359.9999999999951115
  0
ARC
  5
15B39
  8
0
 10
3470.9678115909919143
 20
161.4011236047209934
 30
0.0
 40
0.0275623257790804
 50
180.0027926922838049
 51
269.3224353957813264
  0
LINE
  5
15B3A
  8
0
 10
3470.1872435128461802
 20
161.3735632061871001
 30
0.0
 11
3470.1872435128461802
 21
161.3440356470871109
 31
0.0
  0
LINE
  5
15B3B
  8
0
 10
3471.8516665881461449
 20
161.3440356470871109
 30
0.0
 11
3471.8516665881461449
 21
161.3735632061871001
 31
0.0
  0
ARC
  5
15B3C
  8
0
 10
3470.1410366668460483
 20
163.1078151746870901
 30
0.0
 40
0.0275590551000042
 50
90.0
 51
179.9999999999917861
  0
LINE
  5
15B3D
  8
0
 10
3470.1134776117469301
 20
163.1353742297870895
 30
0.0
 11
3471.9245012337460139
 21
163.1353742297870895
 31
0.0
  0
ARC
  5
15B3E
  8
0
 10
3471.8969421786459861
 20
163.1078151746874028
 30
0.0
 40
0.0275590550999958
 50
359.9999999995180247
 51
90.0
  0
ARC
  5
15B3F
  8
0
 10
3474.5738870088371186
 20
185.6993073554733087
 30
0.0
 40
2.354144825879414
 50
182.3233711729448032
 51
203.4671390578515968
  0
ARC
  5
15B40
  8
0
 10
3472.4327998604421737
 20
184.7698029214066935
 30
0.0
 40
0.0199998721195252
 50
203.4863446788758097
 51
293.9781597049334891
  0
LINE
  5
15B41
  8
0
 10
3472.4409275761458957
 20
184.7515290295870898
 30
0.0
 11
3472.4774769720461336
 21
184.7677851780836988
 31
0.0
  0
ARC
  5
15B42
  8
0
 10
3472.4693491382768116
 20
184.786059335356299
 30
0.0
 40
0.0200001626447691
 50
293.9781597049334891
 51
18.1647274966828896
  0
ARC
  5
15B43
  8
0
 10
3474.5723151820639032
 20
185.6987076918381092
 30
0.0
 40
2.2725503786908958
 50
182.3917197471056966
 51
203.5064871768028922
  0
LINE
  5
15B44
  8
0
 10
3473.1187532022458981
 20
185.6383663557870989
 30
0.0
 11
3473.1187532022458981
 21
186.5383663557871046
 31
0.0
  0
LINE
  5
15B45
  8
0
 10
3473.1187532022458981
 20
186.5383663557871046
 30
0.0
 11
3473.1387532022458799
 21
186.5383663557871046
 31
0.0
  0
LINE
  5
15B46
  8
0
 10
3473.1387532022458799
 20
186.5383663557871046
 30
0.0
 11
3473.1387532022458799
 21
185.6383663557870989
 31
0.0
  0
LINE
  5
15B47
  8
0
 10
3473.1387532022458799
 20
185.6383663557870989
 30
0.0
 11
3473.1187532022458981
 21
185.6383663557870989
 31
0.0
  0
LINE
  5
15B48
  8
0
 10
3473.1174146196458423
 20
185.7383663557870932
 30
0.0
 11
3473.1187532022458981
 21
185.7383663557870932
 31
0.0
  0
LINE
  5
15B49
  8
0
 10
3473.1187532022458981
 20
186.4533663557870966
 30
0.0
 11
3473.1174146196458423
 21
186.4533663557870966
 31
0.0
  0
LINE
  5
15B4A
  8
0
 10
3473.164477611645907
 20
185.6434844659870862
 30
0.0
 11
3473.1644776117459514
 21
186.7182875430814875
 31
0.0
  0
ARC
  5
15B4B
  8
0
 10
3473.2034473453491046
 20
186.7184534438150081
 30
0.0
 40
0.038970086526651
 50
89.4113821662197523
 51
180.243809876608907
  0
LINE
  5
15B4C
  8
0
 10
3473.2038476904458548
 20
186.7574214738870921
 30
0.0
 11
3474.6039801088459171
 21
186.7574214738870921
 31
0.0
  0
ARC
  5
15B4D
  8
0
 10
3474.6035581928417741
 20
186.7775785918537963
 30
0.0
 40
0.0201615331221271
 50
271.1991038077579788
 51
357.3693257233559279
  0
ARC
  5
15B4E
  8
0
 10
3375.2253918742198948
 20
190.4897692300141046
 30
0.0
 40
99.4676358736722221
 50
357.8606577283587171
 51
358.9221422626631011
  0
ARC
  5
15B4F
  8
0
 10
3534.8627469288549037
 20
188.0430850842240886
 30
0.0
 40
60.1900715775647228
 50
177.9330397697603985
 51
179.4520767331391085
  0
ARC
  5
15B50
  8
0
 10
3477.1798384738181085
 20
190.1930205392388871
 30
0.0
 40
2.4680900076211021
 50
167.6027742208605105
 51
179.5132724226189964
  0
ARC
  5
15B51
  8
0
 10
3475.3101241814788409
 20
190.5607354264737978
 30
0.0
 40
0.5646125597547297
 50
118.4290033050606041
 51
163.3098365400120997
  0
ARC
  5
15B52
  8
0
 10
3477.1235109897697839
 20
187.2961975787565905
 30
0.0
 40
4.2989616342751553
 50
106.0495553353451044
 51
118.9695829567405951
  0
ARC
  5
15B53
  8
0
 10
3475.5800887078321466
 20
192.621997953175395
 30
0.0
 40
1.246009776222452
 50
286.5483605387807984
 51
302.8793072789380858
  0
ARC
  5
15B54
  8
0
 10
3475.9138571277949268
 20
192.0593200143003969
 30
0.0
 40
0.5928046573537779
 50
305.3115695681622128
 51
328.6922420891580146
  0
ARC
  5
15B55
  8
0
 10
3475.5163219522028157
 20
192.2331822561017987
 30
0.0
 40
1.0244437310340739
 50
331.9393652521220019
 51
352.0410723649935107
  0
ARC
  5
15B56
  8
0
 10
3467.7352471865588086
 20
193.4625616815947069
 30
0.0
 40
8.9018949600412558
 50
351.1390113395841013
 51
358.6072446810243832
  0
ARC
  5
15B57
  8
0
 10
3456.9196675647581287
 20
193.9476528465054912
 30
0.0
 40
19.7273197847362987
 50
357.9622629189265126
 51
3.1727423155164809
  0
ARC
  5
15B58
  8
0
 10
3471.0208109433970094
 20
194.7404637532048071
 30
0.0
 40
5.6039223064946802
 50
3.0587758200830151
 51
9.6972457157398146
  0
ARC
  5
15B59
  8
0
 10
3475.4275501908900878
 20
195.5242273274957938
 30
0.0
 40
1.128536183667638
 50
8.1594983422454739
 51
26.2628823555162683
  0
ARC
  5
15B5A
  8
0
 10
3475.9887565185222229
 20
195.7722591883826055
 30
0.0
 40
0.5161598664198622
 50
29.1390955875416715
 51
73.5077634374945745
  0
ARC
  5
15B5B
  8
0
 10
3475.3856800935541287
 20
193.7303957575904008
 30
0.0
 40
2.6452223519017579
 50
73.5378814946527939
 51
85.4587528890473038
  0
ARC
  5
15B5C
  8
0
 10
3474.1061762903909766
 20
173.0314581567315884
 30
0.0
 40
23.3947544941737107
 50
88.3246208671626221
 51
90.0404174146505767
  0
ARC
  5
15B5D
  8
0
 10
3474.5467397644779339
 20
185.7589624028366018
 30
0.0
 40
10.6600290044574493
 50
84.3560163664630949
 51
88.6915342402801485
  0
ARC
  5
15B5E
  8
0
 10
3474.0844381528249869
 20
172.8357360225313073
 30
0.0
 40
23.4340568931990987
 50
88.8254644740829349
 51
89.9872003329965366
  0
ARC
  5
15B5F
  8
0
 10
3474.2038273114058029
 20
178.6589201960385083
 30
0.0
 40
17.6096489670857892
 50
86.2009188899367018
 51
88.8254644740829349
  0
ARC
  5
15B60
  8
0
 10
3474.9814611233109645
 20
190.3695993635018908
 30
0.0
 40
5.873179271786487
 50
81.3486362354673673
 51
86.2009188899367018
  0
ARC
  5
15B61
  8
0
 10
3475.5881752017448889
 20
194.3571288285336891
 30
0.0
 40
1.8397572497972861
 50
71.938083949775546
 51
81.3486362354673673
  0
ARC
  5
15B62
  8
0
 10
3476.0101467168160525
 20
195.6510641591291915
 30
0.0
 40
0.4787544579947057
 50
50.2641911060431283
 51
71.938083949775546
  0
ARC
  5
15B63
  8
0
 10
3476.0280233049338676
 20
195.6725692520818995
 30
0.0
 40
0.4507894544067123
 50
28.1770389801383416
 51
50.2641911060431283
  0
ARC
  5
15B64
  8
0
 10
3475.4353393278570366
 20
195.3915150563196903
 30
0.0
 40
1.1064154225982961
 50
8.5256066550907477
 51
26.5136411900319295
  0
ARC
  5
15B65
  8
0
 10
3468.6700684293741688
 20
194.3261566927153012
 30
0.0
 40
7.955030049955762
 50
0.6246656959428706
 51
8.8902329329123422
  0
ARC
  5
15B66
  8
0
 10
3406.471789078096208
 20
191.1626138182546981
 30
0.0
 40
70.2280908581832506
 50
2.2286756099194549
 51
2.6526897638736182
  0
ARC
  5
15B67
  8
0
 10
3474.1121436156008713
 20
174.6678005194962964
 30
0.0
 40
21.4623938277490609
 50
87.50108987424926
 51
90.059986700911324
  0
ARC
  5
15B68
  8
0
 10
3474.6276409636670905
 20
186.4797868896787918
 30
0.0
 40
9.6391641706190132
 50
83.4813885246570635
 51
87.50108987424926
  0
ARC
  5
15B69
  8
0
 10
3475.4410070293652097
 20
193.5980507812205076
 30
0.0
 40
2.4745814761102269
 50
75.3211496159998148
 51
83.4813885246570635
  0
ARC
  5
15B6A
  8
0
 10
3475.9580024517908896
 20
195.5716879466785088
 30
0.0
 40
0.434354055530176
 50
47.5814848081808535
 51
75.3211496159998148
  0
ARC
  5
15B6B
  8
0
 10
3475.9328279199430654
 20
195.6055921937874871
 30
0.0
 40
0.4283167344318596
 50
19.7294548498718001
 51
42.0274252416025931
  0
ARC
  5
15B6C
  8
0
 10
3474.7584589317912105
 20
195.2077564413945936
 30
0.0
 40
1.6681925236640309
 50
7.1389341873002499
 51
18.97516333857061
  0
ARC
  5
15B6D
  8
0
 10
3465.9906733291250021
 20
194.1056187648084972
 30
0.0
 40
10.5049775345859793
 50
0.1555395931882904
 51
7.1605888845454073
  0
ARC
  5
15B6E
  8
0
 10
3458.768498890427054
 20
193.8022336188504937
 30
0.0
 40
17.7302200817753715
 50
355.9263545583074801
 51
1.0726170960709991
  0
ARC
  5
15B6F
  8
0
 10
3460.6106500922228406
 20
194.1371536064401937
 30
0.0
 40
15.9233044234287906
 50
352.5154992173078767
 51
354.2531618109209717
  0
ARC
  5
15B70
  8
0
 10
3475.3308094899589378
 20
192.3165804003272115
 30
0.0
 40
1.097182644855041
 50
329.9117103944087717
 51
346.6539976304121069
  0
ARC
  5
15B71
  8
0
 10
3475.8771262562440825
 20
192.0745499785332129
 30
0.0
 40
0.5072554017220752
 50
308.0009708012738088
 51
322.6099862895529213
  0
ARC
  5
15B72
  8
0
 10
3475.4519931542499762
 20
192.7937107311948068
 30
0.0
 40
1.3400382111411231
 50
285.995981581423905
 51
303.3883369255680122
  0
ARC
  5
15B73
  8
0
 10
3478.7363572265289804
 20
182.3712264353196133
 30
0.0
 40
9.5882089743808443
 50
107.6997321799378966
 51
110.8657583358185974
  0
ARC
  5
15B74
  8
0
 10
3476.0902034625351007
 20
189.3043427264219076
 30
0.0
 40
2.1672800178742349
 50
110.7817524179323954
 51
123.2931054675283065
  0
ARC
  5
15B75
  8
0
 10
3475.3410285420031869
 20
190.4577304623462055
 30
0.0
 40
0.7919851903812334
 50
123.7926343899680006
 51
153.8052860282951997
  0
ARC
  5
15B76
  8
0
 10
3470.3301298990168107
 20
192.5436561773726112
 30
0.0
 40
4.6375623107133057
 50
334.2799699509121183
 51
338.0124748296768189
  0
ARC
  5
15B77
  8
0
 10
3474.0595853245840772
 20
190.7630560333998062
 30
0.0
 40
0.5050694951982555
 50
295.2708788320779831
 51
332.6576432303439219
  0
ARC
  5
15B78
  8
0
 10
3474.0908994500618974
 20
190.7030663524446084
 30
0.0
 40
0.4374612821194529
 50
269.8393794525068756
 51
294.9162190497140728
  0
ARC
  5
15B79
  8
0
 10
3474.6059271267758959
 20
195.7238449445279969
 30
0.0
 40
0.0950100460011063
 50
0.2492253411094141
 51
180.5718717785526053
  0
ARC
  5
15B7A
  8
0
 10
3474.6059271267758959
 20
195.7238449445279969
 30
0.0
 40
0.0950100460011059
 50
180.5718717785526053
 51
0.2492253411094141
  0
ARC
  5
15B7B
  8
0
 10
3474.6066318929351837
 20
195.7096152201710026
 30
0.0
 40
0.0236111466402363
 50
17.2095681791628614
 51
166.9780769105113905
  0
ARC
  5
15B7C
  8
0
 10
3474.6058654122739426
 20
195.7093778145004137
 30
0.0
 40
0.024413551809412
 50
299.1723853251763785
 51
17.20956817916597
  0
ARC
  5
15B7D
  8
0
 10
3474.6062946239940175
 20
195.7086089606457904
 30
0.0
 40
0.0235330071200361
 50
164.4052523466359901
 51
299.172385325177288
  0
ARC
  5
15B7E
  8
0
 10
3475.123154023790903
 20
195.7010754701130963
 30
0.0
 40
0.0950100460011063
 50
0.2492253411094141
 51
180.5718717785526053
  0
ARC
  5
15B7F
  8
0
 10
3475.123154023790903
 20
195.7010754701130963
 30
0.0
 40
0.0950100460011059
 50
180.5718717785526053
 51
0.2492253411094141
  0
ARC
  5
15B80
  8
0
 10
3475.1238587899501908
 20
195.6868457457561021
 30
0.0
 40
0.0236111466402363
 50
17.2095681791628614
 51
166.9780769105113905
  0
ARC
  5
15B81
  8
0
 10
3475.1230923092898593
 20
195.6866083400855132
 30
0.0
 40
0.024413551809412
 50
299.1723853251763785
 51
17.20956817916597
  0
ARC
  5
15B82
  8
0
 10
3475.1235215210090246
 20
195.6858394862310035
 30
0.0
 40
0.0235330071200361
 50
164.4052523466359901
 51
299.172385325177288
  0
ARC
  5
15B83
  8
0
 10
3475.6328918740828158
 20
195.6292529500576052
 30
0.0
 40
0.0950100460011063
 50
0.2492253411094141
 51
180.5718717785526053
  0
ARC
  5
15B84
  8
0
 10
3475.6328918740828158
 20
195.6292529500576052
 30
0.0
 40
0.0950100460011059
 50
180.5718717785526053
 51
0.2492253411094141
  0
ARC
  5
15B85
  8
0
 10
3475.6335966402430131
 20
195.615023225700611
 30
0.0
 40
0.0236111466402363
 50
17.2095681791628614
 51
166.9780769105113905
  0
ARC
  5
15B86
  8
0
 10
3475.6328301595822268
 20
195.6147858200299083
 30
0.0
 40
0.024413551809412
 50
299.1723853251763785
 51
17.20956817916597
  0
ARC
  5
15B87
  8
0
 10
3475.6332593713009373
 20
195.6140169661753987
 30
0.0
 40
0.0235330071200361
 50
164.4052523466359901
 51
299.172385325177288
  0
ARC
  5
15B88
  8
0
 10
3475.9983698102660128
 20
195.2791167796050047
 30
0.0
 40
0.0950100460011063
 50
0.2492253411094141
 51
180.5718717785526053
  0
ARC
  5
15B89
  8
0
 10
3475.9983698102660128
 20
195.2791167796050047
 30
0.0
 40
0.0950100460011059
 50
180.5718717785526053
 51
0.2492253411094141
  0
ARC
  5
15B8A
  8
0
 10
3475.9990745764262101
 20
195.2648870552480105
 30
0.0
 40
0.0236111466402363
 50
17.2095681791628614
 51
166.9780769105113905
  0
ARC
  5
15B8B
  8
0
 10
3475.998308095764969
 20
195.2646496495773931
 30
0.0
 40
0.024413551809412
 50
299.1723853251763785
 51
17.20956817916597
  0
ARC
  5
15B8C
  8
0
 10
3475.9987373074850439
 20
195.2638807957227982
 30
0.0
 40
0.0235330071200361
 50
164.4052523466359901
 51
299.172385325177288
  0
ARC
  5
15B8D
  8
0
 10
3475.2778644991508372
 20
195.2341817108834903
 30
0.0
 40
0.0950100460011063
 50
0.2492253411094141
 51
180.5718717785526053
  0
ARC
  5
15B8E
  8
0
 10
3475.2778644991508372
 20
195.2341817108834903
 30
0.0
 40
0.0950100460011059
 50
180.5718717785526053
 51
0.2492253411094141
  0
ARC
  5
15B8F
  8
0
 10
3475.2785692653110345
 20
195.2199519865264961
 30
0.0
 40
0.0236111466402363
 50
17.2095681791628614
 51
166.9780769105113905
  0
ARC
  5
15B90
  8
0
 10
3475.2778027846497935
 20
195.2197145808559071
 30
0.0
 40
0.024413551809412
 50
299.1723853251763785
 51
17.20956817916597
  0
ARC
  5
15B91
  8
0
 10
3475.2782319963698683
 20
195.2189457270013975
 30
0.0
 40
0.0235330071200361
 50
164.4052523466359901
 51
299.172385325177288
  0
ARC
  5
15B92
  8
0
 10
3474.8133784715760157
 20
195.3212462051639022
 30
0.0
 40
0.0950100460011063
 50
0.2492253411094141
 51
180.5718717785526053
  0
ARC
  5
15B93
  8
0
 10
3474.8133784715760157
 20
195.3212462051639022
 30
0.0
 40
0.0950100460011059
 50
180.5718717785526053
 51
0.2492253411094141
  0
ARC
  5
15B94
  8
0
 10
3474.8140832377348488
 20
195.307016480806908
 30
0.0
 40
0.0236111466402363
 50
17.2095681791628614
 51
166.9780769105113905
  0
ARC
  5
15B95
  8
0
 10
3474.813316757074972
 20
195.3067790751362907
 30
0.0
 40
0.024413551809412
 50
299.1723853251763785
 51
17.20956817916597
  0
ARC
  5
15B96
  8
0
 10
3474.8137459687941373
 20
195.3060102212816957
 30
0.0
 40
0.0235330071200361
 50
164.4052523466359901
 51
299.172385325177288
  0
ARC
  5
15B97
  8
0
 10
3474.3437668950441548
 20
195.3617147695759968
 30
0.0
 40
0.0950100460011063
 50
0.2492253411094141
 51
180.5718717785526053
  0
ARC
  5
15B98
  8
0
 10
3474.3437668950441548
 20
195.3617147695759968
 30
0.0
 40
0.0950100460011059
 50
180.5718717785526053
 51
0.2492253411094141
  0
ARC
  5
15B99
  8
0
 10
3474.3444716612029879
 20
195.3474850452190026
 30
0.0
 40
0.0236111466402363
 50
17.2095681791628614
 51
166.9780769105113905
  0
ARC
  5
15B9A
  8
0
 10
3474.3437051805431111
 20
195.3472476395484136
 30
0.0
 40
0.024413551809412
 50
299.1723853251763785
 51
17.20956817916597
  0
ARC
  5
15B9B
  8
0
 10
3474.3441343922631859
 20
195.3464787856937903
 30
0.0
 40
0.0235330071200361
 50
164.4052523466359901
 51
299.172385325177288
  0
ARC
  5
15B9C
  8
0
 10
3474.517359300957196
 20
194.9765256994554932
 30
0.0
 40
0.0950100460011063
 50
0.2492253411094141
 51
180.5718717785526053
  0
ARC
  5
15B9D
  8
0
 10
3474.517359300957196
 20
194.9765256994554932
 30
0.0
 40
0.0950100460011059
 50
180.5718717785526053
 51
0.2492253411094141
  0
ARC
  5
15B9E
  8
0
 10
3474.518064067117848
 20
194.962295975098499
 30
0.0
 40
0.0236111466402363
 50
17.2095681791628614
 51
166.9780769105113905
  0
ARC
  5
15B9F
  8
0
 10
3474.5172975864561522
 20
194.96205856942791
 30
0.0
 40
0.024413551809412
 50
299.1723853251763785
 51
17.20956817916597
  0
ARC
  5
15BA0
  8
0
 10
3474.517726798176227
 20
194.9612897155732867
 30
0.0
 40
0.0235330071200361
 50
164.4052523466359901
 51
299.172385325177288
  0
ARC
  5
15BA1
  8
0
 10
3474.928051922538998
 20
194.8487938530522001
 30
0.0
 40
0.0950100460011063
 50
0.2492253411094141
 51
180.5718717785526053
  0
ARC
  5
15BA2
  8
0
 10
3474.928051922538998
 20
194.8487938530522001
 30
0.0
 40
0.0950100460011059
 50
180.5718717785526053
 51
0.2492253411094141
  0
ARC
  5
15BA3
  8
0
 10
3474.9287566886978311
 20
194.8345641286952059
 30
0.0
 40
0.0236111466402363
 50
17.2095681791628614
 51
166.9780769105113905
  0
ARC
  5
15BA4
  8
0
 10
3474.9279902080370448
 20
194.8343267230245885
 30
0.0
 40
0.024413551809412
 50
299.1723853251763785
 51
17.20956817916597
  0
ARC
  5
15BA5
  8
0
 10
3474.9284194197571196
 20
194.8335578691701073
 30
0.0
 40
0.0235330071200361
 50
164.4052523466359901
 51
299.172385325177288
  0
ARC
  5
15BA6
  8
0
 10
3475.2336908566530838
 20
194.5540461806220947
 30
0.0
 40
0.0950100460011063
 50
0.2492253411094141
 51
180.5718717785526053
  0
ARC
  5
15BA7
  8
0
 10
3475.2336908566530838
 20
194.5540461806220947
 30
0.0
 40
0.0950100460011059
 50
180.5718717785526053
 51
0.2492253411094141
  0
ARC
  5
15BA8
  8
0
 10
3475.2343956228119168
 20
194.5398164562651004
 30
0.0
 40
0.0236111466402363
 50
17.2095681791628614
 51
166.9780769105113905
  0
ARC
  5
15BA9
  8
0
 10
3475.2336291421511305
 20
194.5395790505945115
 30
0.0
 40
0.024413551809412
 50
299.1723853251763785
 51
17.20956817916597
  0
ARC
  5
15BAA
  8
0
 10
3475.2340583538712053
 20
194.5388101967400019
 30
0.0
 40
0.0235330071200361
 50
164.4052523466359901
 51
299.172385325177288
  0
ARC
  5
15BAB
  8
0
 10
3475.3878469009359833
 20
194.1751333806944899
 30
0.0
 40
0.0950100460011063
 50
0.2492253411094141
 51
180.5718717785526053
  0
ARC
  5
15BAC
  8
0
 10
3475.3878469009359833
 20
194.1751333806944899
 30
0.0
 40
0.0950100460011059
 50
180.5718717785526053
 51
0.2492253411094141
  0
ARC
  5
15BAD
  8
0
 10
3475.3885516670948164
 20
194.1609036563374957
 30
0.0
 40
0.0236111466402363
 50
17.2095681791628614
 51
166.9780769105113905
  0
ARC
  5
15BAE
  8
0
 10
3475.38778518643403
 20
194.1606662506669068
 30
0.0
 40
0.024413551809412
 50
299.1723853251763785
 51
17.20956817916597
  0
ARC
  5
15BAF
  8
0
 10
3475.3882143981541049
 20
194.1598973968123119
 30
0.0
 40
0.0235330071200361
 50
164.4052523466359901
 51
299.172385325177288
  0
ARC
  5
15BB0
  8
0
 10
3475.6908198446308234
 20
194.4772664628262078
 30
0.0
 40
0.0950100460011063
 50
0.2492253411094141
 51
180.5718717785526053
  0
ARC
  5
15BB1
  8
0
 10
3475.6908198446308234
 20
194.4772664628262078
 30
0.0
 40
0.0950100460011059
 50
180.5718717785526053
 51
0.2492253411094141
  0
ARC
  5
15BB2
  8
0
 10
3475.6915246107901112
 20
194.4630367384692988
 30
0.0
 40
0.0236111466402363
 50
17.2095681791628614
 51
166.9780769105113905
  0
ARC
  5
15BB3
  8
0
 10
3475.6907581301297796
 20
194.4627993327987099
 30
0.0
 40
0.024413551809412
 50
299.1723853251763785
 51
17.20956817916597
  0
ARC
  5
15BB4
  8
0
 10
3475.6911873418498544
 20
194.4620304789440866
 30
0.0
 40
0.0235330071200361
 50
164.4052523466359901
 51
299.172385325177288
  0
ARC
  5
15BB5
  8
0
 10
3475.760527165331041
 20
193.9866555551801071
 30
0.0
 40
0.0950100460011063
 50
0.2492253411094141
 51
180.5718717785526053
  0
ARC
  5
15BB6
  8
0
 10
3475.760527165331041
 20
193.9866555551801071
 30
0.0
 40
0.0950100460011059
 50
180.5718717785526053
 51
0.2492253411094141
  0
ARC
  5
15BB7
  8
0
 10
3475.7612319314898741
 20
193.9724258308231128
 30
0.0
 40
0.0236111466402363
 50
17.2095681791628614
 51
166.9780769105113905
  0
ARC
  5
15BB8
  8
0
 10
3475.7604654508299973
 20
193.9721884251524955
 30
0.0
 40
0.024413551809412
 50
299.1723853251763785
 51
17.20956817916597
  0
ARC
  5
15BB9
  8
0
 10
3475.7608946625500721
 20
193.9714195712979858
 30
0.0
 40
0.0235330071200361
 50
164.4052523466359901
 51
299.172385325177288
  0
ARC
  5
15BBA
  8
0
 10
3476.1062142507280441
 20
194.2778082478693022
 30
0.0
 40
0.0950100460011063
 50
0.2492253411094141
 51
180.5718717785526053
  0
ARC
  5
15BBB
  8
0
 10
3476.1062142507280441
 20
194.2778082478693022
 30
0.0
 40
0.0950100460011059
 50
180.5718717785526053
 51
0.2492253411094141
  0
ARC
  5
15BBC
  8
0
 10
3476.1069190168868772
 20
194.263578523512308
 30
0.0
 40
0.0236111466402363
 50
17.2095681791628614
 51
166.9780769105113905
  0
ARC
  5
15BBD
  8
0
 10
3476.1061525362260909
 20
194.2633411178416907
 30
0.0
 40
0.024413551809412
 50
299.1723853251763785
 51
17.20956817916597
  0
ARC
  5
15BBE
  8
0
 10
3476.1065817479461657
 20
194.2625722639870958
 30
0.0
 40
0.0235330071200361
 50
164.4052523466359901
 51
299.172385325177288
  0
ARC
  5
15BBF
  8
0
 10
3476.1227702437581684
 20
193.7791782424037024
 30
0.0
 40
0.0950100460011063
 50
0.2492253411094141
 51
180.5718717785526053
  0
ARC
  5
15BC0
  8
0
 10
3476.1227702437581684
 20
193.7791782424037024
 30
0.0
 40
0.0950100460011059
 50
180.5718717785526053
 51
0.2492253411094141
  0
ARC
  5
15BC1
  8
0
 10
3476.1234750099170014
 20
193.7649485180467082
 30
0.0
 40
0.0236111466402363
 50
17.2095681791628614
 51
166.9780769105113905
  0
ARC
  5
15BC2
  8
0
 10
3476.1227085292562151
 20
193.7647111123760908
 30
0.0
 40
0.024413551809412
 50
299.1723853251763785
 51
17.20956817916597
  0
ARC
  5
15BC3
  8
0
 10
3476.1231377409771994
 20
193.7639422585214959
 30
0.0
 40
0.0235330071200361
 50
164.4052523466359901
 51
299.172385325177288
  0
ARC
  5
15BC4
  8
0
 10
3475.7464344337959119
 20
193.5135806732374988
 30
0.0
 40
0.0950100460011063
 50
0.2492253411094141
 51
180.5718717785526053
  0
ARC
  5
15BC5
  8
0
 10
3475.7464344337959119
 20
193.5135806732374988
 30
0.0
 40
0.0950100460011059
 50
180.5718717785526053
 51
0.2492253411094141
  0
ARC
  5
15BC6
  8
0
 10
3475.7471391999551997
 20
193.4993509488805046
 30
0.0
 40
0.0236111466402363
 50
17.2095681791628614
 51
166.9780769105113905
  0
ARC
  5
15BC7
  8
0
 10
3475.7463727192939587
 20
193.4991135432098872
 30
0.0
 40
0.024413551809412
 50
299.1723853251763785
 51
17.20956817916597
  0
ARC
  5
15BC8
  8
0
 10
3475.7468019310140335
 20
193.4983446893552923
 30
0.0
 40
0.0235330071200361
 50
164.4052523466359901
 51
299.172385325177288
  0
ARC
  5
15BC9
  8
0
 10
3476.1086766313492262
 20
193.2823032708803908
 30
0.0
 40
0.0950100460011063
 50
0.2492253411094141
 51
180.5718717785526053
  0
ARC
  5
15BCA
  8
0
 10
3476.1086766313492262
 20
193.2823032708803908
 30
0.0
 40
0.0950100460011059
 50
180.5718717785526053
 51
0.2492253411094141
  0
ARC
  5
15BCB
  8
0
 10
3476.1093813975080593
 20
193.2680735465233965
 30
0.0
 40
0.0236111466402363
 50
17.2095681791628614
 51
166.9780769105113905
  0
ARC
  5
15BCC
  8
0
 10
3476.1086149168468182
 20
193.2678361408528076
 30
0.0
 40
0.024413551809412
 50
299.1723853251763785
 51
17.20956817916597
  0
ARC
  5
15BCD
  8
0
 10
3476.1090441285668931
 20
193.2670672869982127
 30
0.0
 40
0.0235330071200361
 50
164.4052523466359901
 51
299.172385325177288
  0
ARC
  5
15BCE
  8
0
 10
3475.7076786468901446
 20
193.0596766393001928
 30
0.0
 40
0.0950100460011063
 50
0.2492253411094141
 51
180.5718717785526053
  0
ARC
  5
15BCF
  8
0
 10
3475.7076786468901446
 20
193.0596766393001928
 30
0.0
 40
0.0950100460011059
 50
180.5718717785526053
 51
0.2492253411094141
  0
ARC
  5
15BD0
  8
0
 10
3475.7083834130480682
 20
193.0454469149431986
 30
0.0
 40
0.0236111466402363
 50
17.2095681791628614
 51
166.9780769105113905
  0
ARC
  5
15BD1
  8
0
 10
3475.7076169323881913
 20
193.0452095092726097
 30
0.0
 40
0.024413551809412
 50
299.1723853251763785
 51
17.20956817916597
  0
ARC
  5
15BD2
  8
0
 10
3475.7080461441078114
 20
193.0444406554179864
 30
0.0
 40
0.0235330071200361
 50
164.4052523466359901
 51
299.172385325177288
  0
ARC
  5
15BD3
  8
0
 10
3476.0821252455148169
 20
192.7855764289938065
 30
0.0
 40
0.0950100460011063
 50
0.2492253411094141
 51
180.5718717785526053
  0
ARC
  5
15BD4
  8
0
 10
3476.0821252455148169
 20
192.7855764289938065
 30
0.0
 40
0.0950100460011059
 50
180.5718717785526053
 51
0.2492253411094141
  0
ARC
  5
15BD5
  8
0
 10
3476.0828300116750142
 20
192.7713467046368123
 30
0.0
 40
0.0236111466402363
 50
17.2095681791628614
 51
166.9780769105113905
  0
ARC
  5
15BD6
  8
0
 10
3476.0820635310137732
 20
192.7711092989661097
 30
0.0
 40
0.024413551809412
 50
299.1723853251763785
 51
17.20956817916597
  0
ARC
  5
15BD7
  8
0
 10
3476.082492742733848
 20
192.7703404451116
 30
0.0
 40
0.0235330071200361
 50
164.4052523466359901
 51
299.172385325177288
  0
ARC
  5
15BD8
  8
0
 10
3475.6086477939161341
 20
192.6180350254471136
 30
0.0
 40
0.0950100460011063
 50
0.2492253411094141
 51
180.5718717785526053
  0
ARC
  5
15BD9
  8
0
 10
3475.6086477939161341
 20
192.6180350254471136
 30
0.0
 40
0.0950100460011059
 50
180.5718717785526053
 51
0.2492253411094141
  0
ARC
  5
15BDA
  8
0
 10
3475.6093525600740577
 20
192.603805301090091
 30
0.0
 40
0.0236111466402363
 50
17.2095681791628614
 51
166.9780769105113905
  0
ARC
  5
15BDB
  8
0
 10
3475.6085860794141809
 20
192.6035678954195021
 30
0.0
 40
0.024413551809412
 50
299.1723853251763785
 51
17.20956817916597
  0
ARC
  5
15BDC
  8
0
 10
3475.6090152911338009
 20
192.6027990415649924
 30
0.0
 40
0.0235330071200361
 50
164.4052523466359901
 51
299.172385325177288
  0
ARC
  5
15BDD
  8
0
 10
3475.6093592452079974
 20
192.6099063898691952
 30
0.0
 40
0.0672210023705008
 50
179.669320765173012
 51
3.280869438009661
  0
ARC
  5
15BDE
  8
0
 10
3475.6093499845469523
 20
192.61021345356599
 30
0.0
 40
0.0672106708449045
 50
125.3988767947139991
 51
179.9310375353971097
  0
ARC
  5
15BDF
  8
0
 10
3475.6096574896409948
 20
192.6097807338971108
 30
0.0
 40
0.0677415245869778
 50
86.4363211714439927
 51
125.3988767947130043
  0
ARC
  5
15BE0
  8
0
 10
3475.6097192598717811
 20
192.6107725765043881
 30
0.0
 40
0.0667477603699237
 50
36.5335676663441191
 51
86.4363211714439927
  0
ARC
  5
15BE1
  8
0
 10
3475.609715527138178
 20
192.6107698110411945
 30
0.0
 40
0.066752405914624
 50
16.1942372421975698
 51
36.5335676663441191
  0
ARC
  5
15BE2
  8
0
 10
3475.6072841205491386
 20
192.610063687309605
 30
0.0
 40
0.0692842725632599
 50
3.0527910868926749
 51
16.1942372421975698
  0
ARC
  5
15BE3
  8
0
 10
3476.0021985480161675
 20
192.2929363820121864
 30
0.0
 40
0.0950100460011063
 50
0.2492253411094141
 51
180.5718717785526053
  0
ARC
  5
15BE4
  8
0
 10
3476.0021985480161675
 20
192.2929363820121864
 30
0.0
 40
0.0950100460011059
 50
180.5718717785526053
 51
0.2492253411094141
  0
ARC
  5
15BE5
  8
0
 10
3476.0029033141759101
 20
192.2787066576551069
 30
0.0
 40
0.0236111466402363
 50
17.2095681791628614
 51
166.9780769105113905
  0
ARC
  5
15BE6
  8
0
 10
3476.0021368335142142
 20
192.2784692519844896
 30
0.0
 40
0.024413551809412
 50
299.1723853251763785
 51
17.20956817916597
  0
ARC
  5
15BE7
  8
0
 10
3476.0025660452351985
 20
192.2777003981300084
 30
0.0
 40
0.0235330071200361
 50
164.4052523466359901
 51
299.172385325177288
  0
ARC
  5
15BE8
  8
0
 10
3475.6955101247649509
 20
191.9919266923791099
 30
0.0
 40
0.0950100460011063
 50
0.2492253411094141
 51
180.5718717785526053
  0
ARC
  5
15BE9
  8
0
 10
3475.6955101247649509
 20
191.9919266923791099
 30
0.0
 40
0.0950100460011059
 50
180.5718717785526053
 51
0.2492253411094141
  0
ARC
  5
15BEA
  8
0
 10
3475.6962148909228745
 20
191.9776969680220873
 30
0.0
 40
0.0236111466402363
 50
17.2095681791628614
 51
166.9780769105113905
  0
ARC
  5
15BEB
  8
0
 10
3475.6954484102629976
 20
191.9774595623514983
 30
0.0
 40
0.024413551809412
 50
299.1723853251763785
 51
17.20956817916597
  0
ARC
  5
15BEC
  8
0
 10
3475.6958776219830725
 20
191.9766907084969887
 30
0.0
 40
0.0235330071200361
 50
164.4052523466359901
 51
299.172385325177288
  0
ARC
  5
15BED
  8
0
 10
3475.2244660397977896
 20
191.8828526090902926
 30
0.0
 40
0.0950100460011063
 50
0.2492253411094141
 51
180.5718717785526053
  0
ARC
  5
15BEE
  8
0
 10
3475.2244660397977896
 20
191.8828526090902926
 30
0.0
 40
0.0950100460011059
 50
180.5718717785526053
 51
0.2492253411094141
  0
ARC
  5
15BEF
  8
0
 10
3475.2251708059579869
 20
191.8686228847334121
 30
0.0
 40
0.0236111466402363
 50
17.2095681791628614
 51
166.9780769105113905
  0
ARC
  5
15BF0
  8
0
 10
3475.2244043252972006
 20
191.8683854790627947
 30
0.0
 40
0.024413551809412
 50
299.1723853251763785
 51
17.20956817916597
  0
ARC
  5
15BF1
  8
0
 10
3475.2248335370159111
 20
191.8676166252081998
 30
0.0
 40
0.0235330071200361
 50
164.4052523466359901
 51
299.172385325177288
  0
ARC
  5
15BF2
  8
0
 10
3474.848274373303866
 20
192.1961710926759963
 30
0.0
 40
0.0950100460011063
 50
0.2492253411094141
 51
180.5718717785526053
  0
ARC
  5
15BF3
  8
0
 10
3474.848274373303866
 20
192.1961710926759963
 30
0.0
 40
0.0950100460011059
 50
180.5718717785526053
 51
0.2492253411094141
  0
ARC
  5
15BF4
  8
0
 10
3474.8489791394631538
 20
192.1819413683190021
 30
0.0
 40
0.0236111466402363
 50
17.2095681791628614
 51
166.9780769105113905
  0
ARC
  5
15BF5
  8
0
 10
3474.8482126588019128
 20
192.1817039626484132
 30
0.0
 40
0.024413551809412
 50
299.1723853251763785
 51
17.20956817916597
  0
ARC
  5
15BF6
  8
0
 10
3474.8486418705219876
 20
192.1809351087939035
 30
0.0
 40
0.0235330071200361
 50
164.4052523466359901
 51
299.172385325177288
  0
ARC
  5
15BF7
  8
0
 10
3474.3657491927119736
 20
192.1452113315594943
 30
0.0
 40
0.0950100460011063
 50
0.2492253411094141
 51
180.5718717785526053
  0
ARC
  5
15BF8
  8
0
 10
3474.3657491927119736
 20
192.1452113315594943
 30
0.0
 40
0.0950100460011059
 50
180.5718717785526053
 51
0.2492253411094141
  0
ARC
  5
15BF9
  8
0
 10
3474.3664539588708067
 20
192.1309816072025001
 30
0.0
 40
0.0236111466402363
 50
17.2095681791628614
 51
166.9780769105113905
  0
ARC
  5
15BFA
  8
0
 10
3474.3656874782100203
 20
192.1307442015319111
 30
0.0
 40
0.024413551809412
 50
299.1723853251763785
 51
17.20956817916597
  0
ARC
  5
15BFB
  8
0
 10
3474.3661166899300952
 20
192.1299753476772878
 30
0.0
 40
0.0235330071200361
 50
164.4052523466359901
 51
299.172385325177288
  0
ARC
  5
15BFC
  8
0
 10
3475.2959301438950206
 20
192.3061182115903875
 30
0.0
 40
0.0950100460011063
 50
0.2492253411094141
 51
180.5718717785526053
  0
ARC
  5
15BFD
  8
0
 10
3475.2959301438950206
 20
192.3061182115903875
 30
0.0
 40
0.0950100460011059
 50
180.5718717785526053
 51
0.2492253411094141
  0
ARC
  5
15BFE
  8
0
 10
3475.2966349100538537
 20
192.2918884872333933
 30
0.0
 40
0.0236111466402363
 50
17.2095681791628614
 51
166.9780769105113905
  0
ARC
  5
15BFF
  8
0
 10
3475.2958684293930673
 20
192.2916510815628044
 30
0.0
 40
0.024413551809412
 50
299.1723853251763785
 51
17.20956817916597
  0
ARC
  5
15C00
  8
0
 10
3475.2962976411131422
 20
192.2908822277082095
 30
0.0
 40
0.0235330071200361
 50
164.4052523466359901
 51
299.172385325177288
  0
ARC
  5
15C01
  8
0
 10
3474.5220505828820023
 20
192.5082465403054073
 30
0.0
 40
0.0950100460011063
 50
0.2492253411094141
 51
180.5718717785526053
  0
ARC
  5
15C02
  8
0
 10
3474.5220505828820023
 20
192.5082465403054073
 30
0.0
 40
0.0950100460011059
 50
180.5718717785526053
 51
0.2492253411094141
  0
ARC
  5
15C03
  8
0
 10
3474.5227553490408354
 20
192.4940168159484131
 30
0.0
 40
0.0236111466402363
 50
17.2095681791628614
 51
166.9780769105113905
  0
ARC
  5
15C04
  8
0
 10
3474.5219888683800491
 20
192.4937794102777957
 30
0.0
 40
0.024413551809412
 50
299.1723853251763785
 51
17.20956817916597
  0
ARC
  5
15C05
  8
0
 10
3474.5224180801010334
 20
192.4930105564232008
 30
0.0
 40
0.0235330071200361
 50
164.4052523466359901
 51
299.172385325177288
  0
ARC
  5
15C06
  8
0
 10
3474.9269965039038652
 20
192.6425648409621942
 30
0.0
 40
0.0950100460011063
 50
0.2492253411094141
 51
180.5718717785526053
  0
ARC
  5
15C07
  8
0
 10
3474.9269965039038652
 20
192.6425648409621942
 30
0.0
 40
0.0950100460011059
 50
180.5718717785526053
 51
0.2492253411094141
  0
ARC
  5
15C08
  8
0
 10
3474.9277012700631531
 20
192.6283351166052
 30
0.0
 40
0.0236111466402363
 50
17.2095681791628614
 51
166.9780769105113905
  0
ARC
  5
15C09
  8
0
 10
3474.926934789401912
 20
192.6280977109346111
 30
0.0
 40
0.024413551809412
 50
299.1723853251763785
 51
17.20956817916597
  0
ARC
  5
15C0A
  8
0
 10
3474.9273640011219868
 20
192.6273288570799878
 30
0.0
 40
0.0235330071200361
 50
164.4052523466359901
 51
299.172385325177288
  0
ARC
  5
15C0B
  8
0
 10
3475.2328259165228701
 20
192.9362898535194972
 30
0.0
 40
0.0950100460011063
 50
0.2492253411094141
 51
180.5718717785526053
  0
ARC
  5
15C0C
  8
0
 10
3475.2328259165228701
 20
192.9362898535194972
 30
0.0
 40
0.0950100460011059
 50
180.5718717785526053
 51
0.2492253411094141
  0
ARC
  5
15C0D
  8
0
 10
3475.2335306826821579
 20
192.922060129162503
 30
0.0
 40
0.0236111466402363
 50
17.2095681791628614
 51
166.9780769105113905
  0
ARC
  5
15C0E
  8
0
 10
3475.2327642020209169
 20
192.9218227234919141
 30
0.0
 40
0.024413551809412
 50
299.1723853251763785
 51
17.20956817916597
  0
ARC
  5
15C0F
  8
0
 10
3475.2331934137409917
 20
192.9210538696374044
 30
0.0
 40
0.0235330071200361
 50
164.4052523466359901
 51
299.172385325177288
  0
ARC
  5
15C10
  8
0
 10
3475.3683621546938411
 20
193.3300842378413904
 30
0.0
 40
0.0950100460011063
 50
0.2492253411094141
 51
180.5718717785526053
  0
ARC
  5
15C11
  8
0
 10
3475.3683621546938411
 20
193.3300842378413904
 30
0.0
 40
0.0950100460011059
 50
180.5718717785526053
 51
0.2492253411094141
  0
ARC
  5
15C12
  8
0
 10
3475.369066920853129
 20
193.3158545134843962
 30
0.0
 40
0.0236111466402363
 50
17.2095681791628614
 51
166.9780769105113905
  0
ARC
  5
15C13
  8
0
 10
3475.3683004401918879
 20
193.3156171078136936
 30
0.0
 40
0.024413551809412
 50
299.1723853251763785
 51
17.20956817916597
  0
ARC
  5
15C14
  8
0
 10
3475.3687296519119627
 20
193.3148482539592123
 30
0.0
 40
0.0235330071200361
 50
164.4052523466359901
 51
299.172385325177288
  0
ARC
  5
15C15
  8
0
 10
3475.4078421193130453
 20
193.7484240421742925
 30
0.0
 40
0.0950100460011063
 50
0.2492253411094141
 51
180.5718717785526053
  0
ARC
  5
15C16
  8
0
 10
3475.4078421193130453
 20
193.7484240421742925
 30
0.0
 40
0.0950100460011059
 50
180.5718717785526053
 51
0.2492253411094141
  0
ARC
  5
15C17
  8
0
 10
3475.4085468854718783
 20
193.7341943178172983
 30
0.0
 40
0.0236111466402363
 50
17.2095681791628614
 51
166.9780769105113905
  0
ARC
  5
15C18
  8
0
 10
3475.407780404811092
 20
193.7339569121467093
 30
0.0
 40
0.024413551809412
 50
299.1723853251763785
 51
17.20956817916597
  0
ARC
  5
15C19
  8
0
 10
3475.4082096165311668
 20
193.7331880582921997
 30
0.0
 40
0.0235330071200361
 50
164.4052523466359901
 51
299.172385325177288
  0
ARC
  5
15C1A
  8
0
 10
3475.6117625367660366
 20
194.9151373857708904
 30
0.0
 40
0.0950100460011063
 50
0.2492253411094141
 51
180.5718717785526053
  0
ARC
  5
15C1B
  8
0
 10
3475.6117625367660366
 20
194.9151373857708904
 30
0.0
 40
0.0950100460011059
 50
180.5718717785526053
 51
0.2492253411094141
  0
ARC
  5
15C1C
  8
0
 10
3475.6124673029248697
 20
194.9009076614138962
 30
0.0
 40
0.0236111466402363
 50
17.2095681791628614
 51
166.9780769105113905
  0
ARC
  5
15C1D
  8
0
 10
3475.6117008222640834
 20
194.9006702557433073
 30
0.0
 40
0.024413551809412
 50
299.1723853251763785
 51
17.20956817916597
  0
ARC
  5
15C1E
  8
0
 10
3475.612130033982794
 20
194.8999014018887124
 30
0.0
 40
0.0235330071200361
 50
164.4052523466359901
 51
299.172385325177288
  0
ARC
  5
15C1F
  8
0
 10
3476.0753644565629656
 20
194.7815093013749959
 30
0.0
 40
0.0950100460011063
 50
0.2492253411094141
 51
180.5718717785526053
  0
ARC
  5
15C20
  8
0
 10
3476.0753644565629656
 20
194.7815093013749959
 30
0.0
 40
0.0950100460011059
 50
180.5718717785526053
 51
0.2492253411094141
  0
ARC
  5
15C21
  8
0
 10
3476.0760692227217987
 20
194.7672795770180016
 30
0.0
 40
0.0236111466402363
 50
17.2095681791628614
 51
166.9780769105113905
  0
ARC
  5
15C22
  8
0
 10
3476.0753027420610124
 20
194.7670421713474127
 30
0.0
 40
0.024413551809412
 50
299.1723853251763785
 51
17.20956817916597
  0
ARC
  5
15C23
  8
0
 10
3476.0757319537810872
 20
194.7662733174929031
 30
0.0
 40
0.0235330071200361
 50
164.4052523466359901
 51
299.172385325177288
  0
ARC
  5
15C24
  8
0
 10
3474.0893057379280435
 20
192.4656865211159982
 30
0.0
 40
0.0950100460011063
 50
0.2492253411094141
 51
180.5718717785526053
  0
ARC
  5
15C25
  8
0
 10
3474.0893057379280435
 20
192.4656865211159982
 30
0.0
 40
0.0950100460011059
 50
180.5718717785526053
 51
0.2492253411094141
  0
ARC
  5
15C26
  8
0
 10
3474.0900105040868766
 20
192.4514567967588903
 30
0.0
 40
0.0236111466402363
 50
17.2095681791628614
 51
166.9780769105113905
  0
ARC
  5
15C27
  8
0
 10
3474.0892440234269998
 20
192.4512193910883013
 30
0.0
 40
0.024413551809412
 50
299.1723853251763785
 51
17.20956817916597
  0
ARC
  5
15C28
  8
0
 10
3474.0896732351470746
 20
192.4504505372337917
 30
0.0
 40
0.0235330071200361
 50
164.4052523466359901
 51
299.172385325177288
  0
ARC
  5
15C29
  8
0
 10
3474.0893057379280435
 20
195.0175275305593061
 30
0.0
 40
0.0950100460011063
 50
0.2492253411094141
 51
180.5718717785526053
  0
ARC
  5
15C2A
  8
0
 10
3474.0893057379280435
 20
195.0175275305593061
 30
0.0
 40
0.0950100460011059
 50
180.5718717785526053
 51
0.2492253411094141
  0
ARC
  5
15C2B
  8
0
 10
3474.0900105040868766
 20
195.0032978062023119
 30
0.0
 40
0.0236111466402363
 50
17.2095681791628614
 51
166.9780769105113905
  0
ARC
  5
15C2C
  8
0
 10
3474.0892440234269998
 20
195.0030604005316945
 30
0.0
 40
0.024413551809412
 50
299.1723853251763785
 51
17.20956817916597
  0
ARC
  5
15C2D
  8
0
 10
3474.0896732351470746
 20
195.0022915466770996
 30
0.0
 40
0.0235330071200361
 50
164.4052523466359901
 51
299.172385325177288
  0
ARC
  5
15C2E
  8
0
 10
3474.0893057379280435
 20
195.7390565873911044
 30
0.0
 40
0.0950100460011063
 50
0.2492253411094141
 51
180.5718717785526053
  0
ARC
  5
15C2F
  8
0
 10
3474.0893057379280435
 20
195.7390565873911044
 30
0.0
 40
0.0950100460011059
 50
180.5718717785526053
 51
0.2492253411094141
  0
ARC
  5
15C30
  8
0
 10
3474.0900105040868766
 20
195.7248268630341101
 30
0.0
 40
0.0236111466402363
 50
17.2095681791628614
 51
166.9780769105113905
  0
ARC
  5
15C31
  8
0
 10
3474.0892440234269998
 20
195.7245894573634928
 30
0.0
 40
0.024413551809412
 50
299.1723853251763785
 51
17.20956817916597
  0
ARC
  5
15C32
  8
0
 10
3474.0896732351470746
 20
195.7238206035088979
 30
0.0
 40
0.0235330071200361
 50
164.4052523466359901
 51
299.172385325177288
  0
ARC
  5
15C33
  8
0
 10
3474.0873976455400225
 20
194.5314487365538128
 30
0.0
 40
0.166542228512444
 50
89.2171010390963062
 51
189.0386484052534115
  0
ARC
  5
15C34
  8
0
 10
3474.0873377999878358
 20
194.5270692644272117
 30
0.0
 40
0.1709221095151717
 50
356.9301237006991983
 51
89.2171010390963062
  0
ARC
  5
15C35
  8
0
 10
3474.0911792658871491
 20
194.5338083760287873
 30
0.0
 40
0.1675906169789064
 50
269.4855944930487794
 51
354.5584561295854087
  0
ARC
  5
15C36
  8
0
 10
3474.0882791832800649
 20
194.5340594027290138
 30
0.0
 40
0.1678406905258152
 50
189.8715380755002968
 51
270.476374569541008
  0
ARC
  5
15C37
  8
0
 10
3474.0887037240458994
 20
194.5146753988252044
 30
0.0
 40
0.0730732607197112
 50
89.2673964484424545
 51
186.523211602651088
  0
ARC
  5
15C38
  8
0
 10
3474.0886810403280833
 20
194.5129014373179928
 30
0.0
 40
0.0748473672497596
 50
354.9967205464790823
 51
89.2673964484424545
  0
ARC
  5
15C39
  8
0
 10
3474.090208117174825
 20
194.5156648813560878
 30
0.0
 40
0.0736237067095692
 50
269.5837379866674723
 51
352.7501147104916868
  0
ARC
  5
15C3A
  8
0
 10
3474.0891360094760785
 20
194.515661858951006
 30
0.0
 40
0.0736207014490088
 50
187.2477592612895876
 51
270.4181030080666801
  0
ARC
  5
15C3B
  8
0
 10
3474.0896769759960989
 20
194.5894800192357081
 30
0.0
 40
0.0838799245484105
 50
214.8302568965090984
 51
324.6365401728563143
  0
ARC
  5
15C3C
  8
0
 10
3474.619828212658831
 20
194.3378610719229869
 30
0.0
 40
0.166542228512444
 50
89.2171010390963062
 51
189.0386484052534115
  0
ARC
  5
15C3D
  8
0
 10
3474.6197683671061895
 20
194.3334815997963005
 30
0.0
 40
0.1709221095151717
 50
356.9301237006991983
 51
89.2171010390963062
  0
ARC
  5
15C3E
  8
0
 10
3474.6236098330050481
 20
194.3402207113979046
 30
0.0
 40
0.1675906169789064
 50
269.4855944930487794
 51
354.5584561295854087
  0
ARC
  5
15C3F
  8
0
 10
3474.6207097503979639
 20
194.3404717380981879
 30
0.0
 40
0.1678406905258152
 50
189.8715380755002968
 51
270.476374569541008
  0
ARC
  5
15C40
  8
0
 10
3474.6211342911637985
 20
194.3210877341942933
 30
0.0
 40
0.0730732607197112
 50
89.2673964484424545
 51
186.523211602651088
  0
ARC
  5
15C41
  8
0
 10
3474.6211116074459824
 20
194.31931377268711
 30
0.0
 40
0.0748473672497596
 50
354.9967205464790823
 51
89.2673964484424545
  0
ARC
  5
15C42
  8
0
 10
3474.6226386842931788
 20
194.3220772167252051
 30
0.0
 40
0.0736237067095692
 50
269.5837379866674723
 51
352.7501147104916868
  0
ARC
  5
15C43
  8
0
 10
3474.6215665765939775
 20
194.3220741943200949
 30
0.0
 40
0.0736207014490088
 50
187.2477592612895876
 51
270.4181030080666801
  0
ARC
  5
15C44
  8
0
 10
3474.622107543113998
 20
194.3958923546047117
 30
0.0
 40
0.0838799245484105
 50
214.8302568965090984
 51
324.6365401728563143
  0
ARC
  5
15C45
  8
0
 10
3474.9026007720581219
 20
193.8656604379229975
 30
0.0
 40
0.166542228512444
 50
89.2171010390963062
 51
189.0386484052534115
  0
ARC
  5
15C46
  8
0
 10
3474.9025409265059352
 20
193.8612809657963112
 30
0.0
 40
0.1709221095151717
 50
356.9301237006991983
 51
89.2171010390963062
  0
ARC
  5
15C47
  8
0
 10
3474.906382392406158
 20
193.8680200773978868
 30
0.0
 40
0.1675906169789064
 50
269.4855944930487794
 51
354.5584561295854087
  0
ARC
  5
15C48
  8
0
 10
3474.9034823097981644
 20
193.8682711040981985
 30
0.0
 40
0.1678406905258152
 50
189.8715380755002968
 51
270.476374569541008
  0
ARC
  5
15C49
  8
0
 10
3474.9039068505649084
 20
193.8488871001943039
 30
0.0
 40
0.0730732607197112
 50
89.2673964484424545
 51
186.523211602651088
  0
ARC
  5
15C4A
  8
0
 10
3474.9038841668470923
 20
193.8471131386870923
 30
0.0
 40
0.0748473672497596
 50
354.9967205464790823
 51
89.2673964484424545
  0
ARC
  5
15C4B
  8
0
 10
3474.9054112436929245
 20
193.8498765827251873
 30
0.0
 40
0.0736237067095692
 50
269.5837379866674723
 51
352.7501147104916868
  0
ARC
  5
15C4C
  8
0
 10
3474.9043391359941779
 20
193.8498735603201055
 30
0.0
 40
0.0736207014490088
 50
187.2477592612895876
 51
270.4181030080666801
  0
ARC
  5
15C4D
  8
0
 10
3474.9048801025128341
 20
193.9236917206048076
 30
0.0
 40
0.0838799245484105
 50
214.8302568965090984
 51
324.6365401728563143
  0
ARC
  5
15C4E
  8
0
 10
3474.8043948927588644
 20
193.3286936893229893
 30
0.0
 40
0.166542228512444
 50
89.2171010390963062
 51
189.0386484052534115
  0
ARC
  5
15C4F
  8
0
 10
3474.804335047206223
 20
193.3243142171963882
 30
0.0
 40
0.1709221095151717
 50
356.9301237006991983
 51
89.2171010390963062
  0
ARC
  5
15C50
  8
0
 10
3474.808176513105991
 20
193.3310533287979069
 30
0.0
 40
0.1675906169789064
 50
269.4855944930487794
 51
354.5584561295854087
  0
ARC
  5
15C51
  8
0
 10
3474.8052764304979974
 20
193.3313043554981903
 30
0.0
 40
0.1678406905258152
 50
189.8715380755002968
 51
270.476374569541008
  0
ARC
  5
15C52
  8
0
 10
3474.8057009712651961
 20
193.3119203515942957
 30
0.0
 40
0.0730732607197112
 50
89.2673964484424545
 51
186.523211602651088
  0
ARC
  5
15C53
  8
0
 10
3474.8056782875460158
 20
193.3101463900871124
 30
0.0
 40
0.0748473672497596
 50
354.9967205464790823
 51
89.2673964484424545
  0
ARC
  5
15C54
  8
0
 10
3474.8072053643932122
 20
193.3129098341252075
 30
0.0
 40
0.0736237067095692
 50
269.5837379866674723
 51
352.7501147104916868
  0
ARC
  5
15C55
  8
0
 10
3474.8061332566940109
 20
193.3129068117200973
 30
0.0
 40
0.0736207014490088
 50
187.2477592612895876
 51
270.4181030080666801
  0
ARC
  5
15C56
  8
0
 10
3474.8066742232131219
 20
193.3867249720047994
 30
0.0
 40
0.0838799245484105
 50
214.8302568965090984
 51
324.6365401728563143
  0
ARC
  5
15C57
  8
0
 10
3474.3711621971579007
 20
192.9782135354230093
 30
0.0
 40
0.166542228512444
 50
89.2171010390963062
 51
189.0386484052534115
  0
ARC
  5
15C58
  8
0
 10
3474.3711023516061687
 20
192.9738340632962945
 30
0.0
 40
0.1709221095151717
 50
356.9301237006991983
 51
89.2171010390963062
  0
ARC
  5
15C59
  8
0
 10
3474.3749438175050273
 20
192.9805731748978985
 30
0.0
 40
0.1675906169789064
 50
269.4855944930487794
 51
354.5584561295854087
  0
ARC
  5
15C5A
  8
0
 10
3474.3720437348979431
 20
192.9808242015982103
 30
0.0
 40
0.1678406905258152
 50
189.8715380755002968
 51
270.476374569541008
  0
ARC
  5
15C5B
  8
0
 10
3474.3724682756637776
 20
192.9614401976942872
 30
0.0
 40
0.0730732607197112
 50
89.2673964484424545
 51
186.523211602651088
  0
ARC
  5
15C5C
  8
0
 10
3474.3724455919459615
 20
192.959666236187104
 30
0.0
 40
0.0748473672497596
 50
354.9967205464790823
 51
89.2673964484424545
  0
ARC
  5
15C5D
  8
0
 10
3474.3739726687931579
 20
192.962429680225199
 30
0.0
 40
0.0736237067095692
 50
269.5837379866674723
 51
352.7501147104916868
  0
ARC
  5
15C5E
  8
0
 10
3474.3729005610939566
 20
192.9624266578200888
 30
0.0
 40
0.0736207014490088
 50
187.2477592612895876
 51
270.4181030080666801
  0
ARC
  5
15C5F
  8
0
 10
3474.3734415276139771
 20
193.036244818104791
 30
0.0
 40
0.0838799245484105
 50
214.8302568965090984
 51
324.6365401728563143
  0
ARC
  5
15C60
  8
0
 10
3473.8056170782588197
 20
192.9782135354230093
 30
0.0
 40
0.166542228512444
 50
89.2171010390963062
 51
189.0386484052534115
  0
ARC
  5
15C61
  8
0
 10
3473.8055572327061782
 20
192.9738340632962945
 30
0.0
 40
0.1709221095151717
 50
356.9301237006991983
 51
89.2171010390963062
  0
ARC
  5
15C62
  8
0
 10
3473.8093986986050368
 20
192.9805731748978985
 30
0.0
 40
0.1675906169789064
 50
269.4855944930487794
 51
354.5584561295854087
  0
ARC
  5
15C63
  8
0
 10
3473.8064986159979526
 20
192.9808242015982103
 30
0.0
 40
0.1678406905258152
 50
189.8715380755002968
 51
270.476374569541008
  0
ARC
  5
15C64
  8
0
 10
3473.8069231567637871
 20
192.9614401976942872
 30
0.0
 40
0.0730732607197112
 50
89.2673964484424545
 51
186.523211602651088
  0
ARC
  5
15C65
  8
0
 10
3473.806900473045971
 20
192.959666236187104
 30
0.0
 40
0.0748473672497596
 50
354.9967205464790823
 51
89.2673964484424545
  0
ARC
  5
15C66
  8
0
 10
3473.8084275498931675
 20
192.962429680225199
 30
0.0
 40
0.0736237067095692
 50
269.5837379866674723
 51
352.7501147104916868
  0
ARC
  5
15C67
  8
0
 10
3473.8073554421939662
 20
192.9624266578200888
 30
0.0
 40
0.0736207014490088
 50
187.2477592612895876
 51
270.4181030080666801
  0
ARC
  5
15C68
  8
0
 10
3473.8078964087139866
 20
193.036244818104791
 30
0.0
 40
0.0838799245484105
 50
214.8302568965090984
 51
324.6365401728563143
  0
ARC
  5
15C69
  8
0
 10
3473.371843890810851
 20
193.3286954377502127
 30
0.0
 40
0.166542228512444
 50
89.2171010390963062
 51
189.0386484052534115
  0
ARC
  5
15C6A
  8
0
 10
3473.371784045259119
 20
193.324315965623498
 30
0.0
 40
0.1709221095151717
 50
356.9301237006991983
 51
89.2171010390963062
  0
ARC
  5
15C6B
  8
0
 10
3473.3756255111579776
 20
193.331055077225102
 30
0.0
 40
0.1675906169789064
 50
269.4855944930487794
 51
354.5584561295854087
  0
ARC
  5
15C6C
  8
0
 10
3473.3727254285499839
 20
193.3313061039253
 30
0.0
 40
0.1678406905258152
 50
189.8715380755002968
 51
270.476374569541008
  0
ARC
  5
15C6D
  8
0
 10
3473.3731499693171827
 20
193.3119221000214907
 30
0.0
 40
0.0730732607197112
 50
89.2673964484424545
 51
186.523211602651088
  0
ARC
  5
15C6E
  8
0
 10
3473.3731272855980023
 20
193.3101481385143074
 30
0.0
 40
0.0748473672497596
 50
354.9967205464790823
 51
89.2673964484424545
  0
ARC
  5
15C6F
  8
0
 10
3473.3746543624461083
 20
193.3129115825524025
 30
0.0
 40
0.0736237067095692
 50
269.5837379866674723
 51
352.7501147104916868
  0
ARC
  5
15C70
  8
0
 10
3473.3735822547459975
 20
193.3129085601472923
 30
0.0
 40
0.0736207014490088
 50
187.2477592612895876
 51
270.4181030080666801
  0
ARC
  5
15C71
  8
0
 10
3473.3741232212660179
 20
193.3867267204319944
 30
0.0
 40
0.0838799245484105
 50
214.8302568965090984
 51
324.6365401728563143
  0
ARC
  5
15C72
  8
0
 10
3473.2741785033581436
 20
193.8656604379229975
 30
0.0
 40
0.166542228512444
 50
89.2171010390963062
 51
189.0386484052534115
  0
ARC
  5
15C73
  8
0
 10
3473.2741186578050474
 20
193.8612809657963112
 30
0.0
 40
0.1709221095151717
 50
356.9301237006991983
 51
89.2171010390963062
  0
ARC
  5
15C74
  8
0
 10
3473.2779601237061797
 20
193.8680200773978868
 30
0.0
 40
0.1675906169789064
 50
269.4855944930487794
 51
354.5584561295854087
  0
ARC
  5
15C75
  8
0
 10
3473.275060041098186
 20
193.8682711040981985
 30
0.0
 40
0.1678406905258152
 50
189.8715380755002968
 51
270.476374569541008
  0
ARC
  5
15C76
  8
0
 10
3473.2754845818649301
 20
193.8488871001943039
 30
0.0
 40
0.0730732607197112
 50
89.2673964484424545
 51
186.523211602651088
  0
ARC
  5
15C77
  8
0
 10
3473.2754618981462045
 20
193.8471131386870923
 30
0.0
 40
0.0748473672497596
 50
354.9967205464790823
 51
89.2673964484424545
  0
ARC
  5
15C78
  8
0
 10
3473.2769889749929462
 20
193.8498765827251873
 30
0.0
 40
0.0736237067095692
 50
269.5837379866674723
 51
352.7501147104916868
  0
ARC
  5
15C79
  8
0
 10
3473.2759168672941996
 20
193.8498735603201055
 30
0.0
 40
0.0736207014490088
 50
187.2477592612895876
 51
270.4181030080666801
  0
ARC
  5
15C7A
  8
0
 10
3473.2764578338142201
 20
193.9236917206048076
 30
0.0
 40
0.0838799245484105
 50
214.8302568965090984
 51
324.6365401728563143
  0
ARC
  5
15C7B
  8
0
 10
3473.5541238331002205
 20
194.3455863921604134
 30
0.0
 40
0.166542228512444
 50
89.2171010390963062
 51
189.0386484052534115
  0
ARC
  5
15C7C
  8
0
 10
3473.5540639875480338
 20
194.3412069200336987
 30
0.0
 40
0.1709221095151717
 50
356.9301237006991983
 51
89.2171010390963062
  0
ARC
  5
15C7D
  8
0
 10
3473.5579054534459829
 20
194.3479460316353027
 30
0.0
 40
0.1675906169789064
 50
269.4855944930487794
 51
354.5584561295854087
  0
ARC
  5
15C7E
  8
0
 10
3473.5550053708388987
 20
194.348197058335586
 30
0.0
 40
0.1678406905258152
 50
189.8715380755002968
 51
270.476374569541008
  0
ARC
  5
15C7F
  8
0
 10
3473.5554299116060974
 20
194.3288130544316914
 30
0.0
 40
0.0730732607197112
 50
89.2673964484424545
 51
186.523211602651088
  0
ARC
  5
15C80
  8
0
 10
3473.5554072278878266
 20
194.3270390929245934
 30
0.0
 40
0.0748473672497596
 50
354.9967205464790823
 51
89.2673964484424545
  0
ARC
  5
15C81
  8
0
 10
3473.556934304735023
 20
194.3298025369626032
 30
0.0
 40
0.0736237067095692
 50
269.5837379866674723
 51
352.7501147104916868
  0
ARC
  5
15C82
  8
0
 10
3473.5558621970349122
 20
194.329799514557493
 30
0.0
 40
0.0736207014490088
 50
187.2477592612895876
 51
270.4181030080666801
  0
ARC
  5
15C83
  8
0
 10
3473.5564031635549327
 20
194.4036176748421099
 30
0.0
 40
0.0838799245484105
 50
214.8302568965090984
 51
324.6365401728563143
  0
ARC
  5
15C84
  8
0
 10
3473.9248750414449205
 20
194.1584940612551975
 30
0.0
 40
0.1141043505126974
 50
108.7714114267379983
 51
183.5099362336856075
  0
ARC
  5
15C85
  8
0
 10
3473.9271055913691271
 20
194.1519311316532992
 30
0.0
 40
0.1210359735495007
 50
22.7091084178768483
 51
108.7714114267379983
  0
ARC
  5
15C86
  8
0
 10
3473.9372722276189052
 20
194.1561858268649985
 30
0.0
 40
0.110014951636941
 50
286.6132704158346769
 51
22.7091084178768483
  0
ARC
  5
15C87
  8
0
 10
3473.9284838422290704
 20
194.1616179902657109
 30
0.0
 40
0.1179332245997418
 50
184.9175986015611954
 51
289.9520580214510801
  0
ARC
  5
15C88
  8
0
 10
3473.92608440237791
 20
194.1402298987727875
 30
0.0
 40
0.0413182951021303
 50
123.9242979461773047
 51
208.6878075561776029
  0
ARC
  5
15C89
  8
0
 10
3473.9280073423587964
 20
194.137370881985305
 30
0.0
 40
0.0447638248377203
 50
54.7063311856319885
 51
123.9242979461773047
  0
ARC
  5
15C8A
  8
0
 10
3473.9298877013129641
 20
194.1400272305149031
 30
0.0
 40
0.0415092991720779
 50
340.7467805368319773
 51
54.7063311856319885
  0
ARC
  5
15C8B
  8
0
 10
3473.9281617177362023
 20
194.1406300797756899
 30
0.0
 40
0.0433375350808969
 50
207.8335393086009901
 51
340.7467805368436871
  0
ARC
  5
15C8C
  8
0
 10
3473.9289215365538439
 20
194.2138687497291016
 30
0.0
 40
0.0471102320130567
 50
236.6531898820852859
 51
301.9774392497096756
  0
ARC
  5
15C8D
  8
0
 10
3474.2497210534238548
 20
194.1568278081159917
 30
0.0
 40
0.1141043505126974
 50
108.7714114267379983
 51
183.5099362336856075
  0
ARC
  5
15C8E
  8
0
 10
3474.2519516033480613
 20
194.1502648785142071
 30
0.0
 40
0.1210359735495007
 50
22.7091084178768483
 51
108.7714114267379983
  0
ARC
  5
15C8F
  8
0
 10
3474.2621182395992037
 20
194.1545195737259064
 30
0.0
 40
0.110014951636941
 50
286.6132704158346769
 51
22.7091084178768483
  0
ARC
  5
15C90
  8
0
 10
3474.2533298542080047
 20
194.1599517371265904
 30
0.0
 40
0.1179332245997418
 50
184.9175986015611954
 51
289.9520580214510801
  0
ARC
  5
15C91
  8
0
 10
3474.2509304143582085
 20
194.1385636456336954
 30
0.0
 40
0.0413182951021303
 50
123.9242979461773047
 51
208.6878075561776029
  0
ARC
  5
15C92
  8
0
 10
3474.2528533543381855
 20
194.1357046288460992
 30
0.0
 40
0.0447638248377203
 50
54.7063311856319885
 51
123.9242979461773047
  0
ARC
  5
15C93
  8
0
 10
3474.2547337132928078
 20
194.1383609773756973
 30
0.0
 40
0.0415092991720779
 50
340.7467805368319773
 51
54.7063311856319885
  0
ARC
  5
15C94
  8
0
 10
3474.253007729716046
 20
194.1389638266365978
 30
0.0
 40
0.0433375350808969
 50
207.8335393086009901
 51
340.7467805368436871
  0
ARC
  5
15C95
  8
0
 10
3474.2537675485341424
 20
194.2122024965900096
 30
0.0
 40
0.0471102320130567
 50
236.6531898820852859
 51
301.9774392497096756
  0
ARC
  5
15C96
  8
0
 10
3474.4953382938201685
 20
193.9585496180530981
 30
0.0
 40
0.1141043505126974
 50
108.7714114267379983
 51
183.5099362336856075
  0
ARC
  5
15C97
  8
0
 10
3474.4975688437448298
 20
193.9519866884511998
 30
0.0
 40
0.1210359735495007
 50
22.7091084178768483
 51
108.7714114267379983
  0
ARC
  5
15C98
  8
0
 10
3474.5077354799959721
 20
193.9562413836628991
 30
0.0
 40
0.110014951636941
 50
286.6132704158346769
 51
22.7091084178768483
  0
ARC
  5
15C99
  8
0
 10
3474.4989470946047732
 20
193.9616735470636115
 30
0.0
 40
0.1179332245997418
 50
184.9175986015611954
 51
289.9520580214510801
  0
ARC
  5
15C9A
  8
0
 10
3474.4965476547540675
 20
193.9402854555706881
 30
0.0
 40
0.0413182951021303
 50
123.9242979461773047
 51
208.6878075561776029
  0
ARC
  5
15C9B
  8
0
 10
3474.4984705947340444
 20
193.9374264387832056
 30
0.0
 40
0.0447638248377203
 50
54.7063311856319885
 51
123.9242979461773047
  0
ARC
  5
15C9C
  8
0
 10
3474.5003509536891215
 20
193.9400827873128037
 30
0.0
 40
0.0415092991720779
 50
340.7467805368319773
 51
54.7063311856319885
  0
ARC
  5
15C9D
  8
0
 10
3474.498624970111905
 20
193.9406856365735905
 30
0.0
 40
0.0433375350808969
 50
207.8335393086009901
 51
340.7467805368436871
  0
ARC
  5
15C9E
  8
0
 10
3474.4993847889309109
 20
194.0139243065270023
 30
0.0
 40
0.0471102320130567
 50
236.6531898820852859
 51
301.9774392497096756
  0
ARC
  5
15C9F
  8
0
 10
3474.550776523634795
 20
193.650999700435591
 30
0.0
 40
0.1141043505126974
 50
108.7714114267379983
 51
183.5099362336856075
  0
ARC
  5
15CA0
  8
0
 10
3474.5530070735599111
 20
193.6444367708338063
 30
0.0
 40
0.1210359735495007
 50
22.7091084178768483
 51
108.7714114267379983
  0
ARC
  5
15CA1
  8
0
 10
3474.5631737098110534
 20
193.6486914660455056
 30
0.0
 40
0.110014951636941
 50
286.6132704158346769
 51
22.7091084178768483
  0
ARC
  5
15CA2
  8
0
 10
3474.5543853244198544
 20
193.6541236294461896
 30
0.0
 40
0.1179332245997418
 50
184.9175986015611954
 51
289.9520580214510801
  0
ARC
  5
15CA3
  8
0
 10
3474.5519858845691488
 20
193.6327355379532094
 30
0.0
 40
0.0413182951021303
 50
123.9242979461773047
 51
208.6878075561776029
  0
ARC
  5
15CA4
  8
0
 10
3474.5539088245500352
 20
193.6298765211656985
 30
0.0
 40
0.0447638248377203
 50
54.7063311856319885
 51
123.9242979461773047
  0
ARC
  5
15CA5
  8
0
 10
3474.5557891835042028
 20
193.6325328696952965
 30
0.0
 40
0.0415092991720779
 50
340.7467805368319773
 51
54.7063311856319885
  0
ARC
  5
15CA6
  8
0
 10
3474.5540631999269863
 20
193.6331357189561118
 30
0.0
 40
0.0433375350808969
 50
207.8335393086009901
 51
340.7467805368436871
  0
ARC
  5
15CA7
  8
0
 10
3474.5548230187459922
 20
193.7063743889094951
 30
0.0
 40
0.0471102320130567
 50
236.6531898820852859
 51
301.9774392497096756
  0
ARC
  5
15CA8
  8
0
 10
3474.3899797209469398
 20
193.3812829966115885
 30
0.0
 40
0.1141043505126974
 50
108.7714114267379983
 51
183.5099362336856075
  0
ARC
  5
15CA9
  8
0
 10
3474.3922102708720558
 20
193.3747200670098039
 30
0.0
 40
0.1210359735495007
 50
22.7091084178768483
 51
108.7714114267379983
  0
ARC
  5
15CAA
  8
0
 10
3474.4023769071231982
 20
193.3789747622215032
 30
0.0
 40
0.110014951636941
 50
286.6132704158346769
 51
22.7091084178768483
  0
ARC
  5
15CAB
  8
0
 10
3474.3935885217319992
 20
193.3844069256221871
 30
0.0
 40
0.1179332245997418
 50
184.9175986015611954
 51
289.9520580214510801
  0
ARC
  5
15CAC
  8
0
 10
3474.3911890818808388
 20
193.3630188341292921
 30
0.0
 40
0.0413182951021303
 50
123.9242979461773047
 51
208.6878075561776029
  0
ARC
  5
15CAD
  8
0
 10
3474.3931120218608157
 20
193.360159817341696
 30
0.0
 40
0.0447638248377203
 50
54.7063311856319885
 51
123.9242979461773047
  0
ARC
  5
15CAE
  8
0
 10
3474.3949923808158928
 20
193.3628161658712941
 30
0.0
 40
0.0415092991720779
 50
340.7467805368319773
 51
54.7063311856319885
  0
ARC
  5
15CAF
  8
0
 10
3474.393266397239131
 20
193.3634190151321093
 30
0.0
 40
0.0433375350808969
 50
207.8335393086009901
 51
340.7467805368436871
  0
ARC
  5
15CB0
  8
0
 10
3474.3940262160581369
 20
193.4366576850854926
 30
0.0
 40
0.0471102320130567
 50
236.6531898820852859
 51
301.9774392497096756
  0
ARC
  5
15CB1
  8
0
 10
3474.0831854930420377
 20
193.2739975631000959
 30
0.0
 40
0.1141043505126974
 50
108.7714114267379983
 51
183.5099362336856075
  0
ARC
  5
15CB2
  8
0
 10
3474.0854160429657895
 20
193.2674346334983113
 30
0.0
 40
0.1210359735495007
 50
22.7091084178768483
 51
108.7714114267379983
  0
ARC
  5
15CB3
  8
0
 10
3474.0955826792169319
 20
193.2716893287100106
 30
0.0
 40
0.110014951636941
 50
286.6132704158346769
 51
22.7091084178768483
  0
ARC
  5
15CB4
  8
0
 10
3474.0867942938270971
 20
193.2771214921106946
 30
0.0
 40
0.1179332245997418
 50
184.9175986015611954
 51
289.9520580214510801
  0
ARC
  5
15CB5
  8
0
 10
3474.0843948539759367
 20
193.2557334006177996
 30
0.0
 40
0.0413182951021303
 50
123.9242979461773047
 51
208.6878075561776029
  0
ARC
  5
15CB6
  8
0
 10
3474.0863177939559137
 20
193.2528743838302034
 30
0.0
 40
0.0447638248377203
 50
54.7063311856319885
 51
123.9242979461773047
  0
ARC
  5
15CB7
  8
0
 10
3474.0881981529109908
 20
193.2555307323598015
 30
0.0
 40
0.0415092991720779
 50
340.7467805368319773
 51
54.7063311856319885
  0
ARC
  5
15CB8
  8
0
 10
3474.0864721693337742
 20
193.2561335816205883
 30
0.0
 40
0.0433375350808969
 50
207.8335393086009901
 51
340.7467805368436871
  0
ARC
  5
15CB9
  8
0
 10
3474.0872319881527801
 20
193.3293722515741138
 30
0.0
 40
0.0471102320130567
 50
236.6531898820852859
 51
301.9774392497096756
  0
ARC
  5
15CBA
  8
0
 10
3473.7823622745568173
 20
193.3797813465552053
 30
0.0
 40
0.1141043505126974
 50
108.7714114267379983
 51
183.5099362336856075
  0
ARC
  5
15CBB
  8
0
 10
3473.7845928244828428
 20
193.3732184169533923
 30
0.0
 40
0.1210359735495007
 50
22.7091084178768483
 51
108.7714114267379983
  0
ARC
  5
15CBC
  8
0
 10
3473.7947594607330757
 20
193.3774731121650916
 30
0.0
 40
0.110014951636941
 50
286.6132704158346769
 51
22.7091084178768483
  0
ARC
  5
15CBD
  8
0
 10
3473.7859710753418767
 20
193.382905275565804
 30
0.0
 40
0.1179332245997418
 50
184.9175986015611954
 51
289.9520580214510801
  0
ARC
  5
15CBE
  8
0
 10
3473.7835716354920805
 20
193.361517184072909
 30
0.0
 40
0.0413182951021303
 50
123.9242979461773047
 51
208.6878075561776029
  0
ARC
  5
15CBF
  8
0
 10
3473.7854945754720575
 20
193.3586581672853129
 30
0.0
 40
0.0447638248377203
 50
54.7063311856319885
 51
123.9242979461773047
  0
ARC
  5
15CC0
  8
0
 10
3473.7873749344262251
 20
193.3613145158149109
 30
0.0
 40
0.0415092991720779
 50
340.7467805368319773
 51
54.7063311856319885
  0
ARC
  5
15CC1
  8
0
 10
3473.7856489508490085
 20
193.3619173650756977
 30
0.0
 40
0.0433375350808969
 50
207.8335393086009901
 51
340.7467805368436871
  0
ARC
  5
15CC2
  8
0
 10
3473.7864087696680144
 20
193.4351560350291095
 30
0.0
 40
0.0471102320130567
 50
236.6531898820852859
 51
301.9774392497096756
  0
ARC
  5
15CC3
  8
0
 10
3473.6193701771489941
 20
193.6510202802782032
 30
0.0
 40
0.1141043505126974
 50
108.7714114267379983
 51
183.5099362336856075
  0
ARC
  5
15CC4
  8
0
 10
3473.6216007270732007
 20
193.6444573506763902
 30
0.0
 40
0.1210359735495007
 50
22.7091084178768483
 51
108.7714114267379983
  0
ARC
  5
15CC5
  8
0
 10
3473.6317673633238883
 20
193.6487120458880895
 30
0.0
 40
0.110014951636941
 50
286.6132704158346769
 51
22.7091084178768483
  0
ARC
  5
15CC6
  8
0
 10
3473.6229789779331441
 20
193.6541442092888019
 30
0.0
 40
0.1179332245997418
 50
184.9175986015611954
 51
289.9520580214510801
  0
ARC
  5
15CC7
  8
0
 10
3473.6205795380828931
 20
193.6327561177959069
 30
0.0
 40
0.0413182951021303
 50
123.9242979461773047
 51
208.6878075561776029
  0
ARC
  5
15CC8
  8
0
 10
3473.6225024780619606
 20
193.6298971010083108
 30
0.0
 40
0.0447638248377203
 50
54.7063311856319885
 51
123.9242979461773047
  0
ARC
  5
15CC9
  8
0
 10
3473.6243828370170377
 20
193.6325534495379088
 30
0.0
 40
0.0415092991720779
 50
340.7467805368319773
 51
54.7063311856319885
  0
ARC
  5
15CCA
  8
0
 10
3473.6226568534411854
 20
193.6331562987986956
 30
0.0
 40
0.0433375350808969
 50
207.8335393086009901
 51
340.7467805368436871
  0
ARC
  5
15CCB
  8
0
 10
3473.6234166722601913
 20
193.7063949687521927
 30
0.0
 40
0.0471102320130567
 50
236.6531898820852859
 51
301.9774392497096756
  0
ARC
  5
15CCC
  8
0
 10
3473.6756463925889875
 20
193.958187774665987
 30
0.0
 40
0.1141043505126974
 50
108.7714114267379983
 51
183.5099362336856075
  0
ARC
  5
15CCD
  8
0
 10
3473.6778769425131941
 20
193.9516248450642024
 30
0.0
 40
0.1210359735495007
 50
22.7091084178768483
 51
108.7714114267379983
  0
ARC
  5
15CCE
  8
0
 10
3473.6880435787629722
 20
193.9558795402759017
 30
0.0
 40
0.110014951636941
 50
286.6132704158346769
 51
22.7091084178768483
  0
ARC
  5
15CCF
  8
0
 10
3473.6792551933731374
 20
193.9613117036765004
 30
0.0
 40
0.1179332245997418
 50
184.9175986015611954
 51
289.9520580214510801
  0
ARC
  5
15CD0
  8
0
 10
3473.6768557535228865
 20
193.9399236121836054
 30
0.0
 40
0.0413182951021303
 50
123.9242979461773047
 51
208.6878075561776029
  0
ARC
  5
15CD1
  8
0
 10
3473.6787786935028635
 20
193.9370645953960945
 30
0.0
 40
0.0447638248377203
 50
54.7063311856319885
 51
123.9242979461773047
  0
ARC
  5
15CD2
  8
0
 10
3473.6806590524570311
 20
193.9397209439256073
 30
0.0
 40
0.0415092991720779
 50
340.7467805368319773
 51
54.7063311856319885
  0
ARC
  5
15CD3
  8
0
 10
3473.6789330688798145
 20
193.9403237931865078
 30
0.0
 40
0.0433375350808969
 50
207.8335393086009901
 51
340.7467805368436871
  0
ARC
  5
15CD4
  8
0
 10
3473.6796928876988204
 20
194.0135624631398912
 30
0.0
 40
0.0471102320130567
 50
236.6531898820852859
 51
301.9774392497096756
  0
ARC
  5
15CD5
  8
0
 10
3474.0848823791770883
 20
193.7323858200967095
 30
0.0
 40
0.2596121973918573
 50
88.9426097378683522
 51
271.0573902621316051
  0
ARC
  5
15CD6
  8
0
 10
3474.0848973795368693
 20
193.7323858200967095
 30
0.0
 40
0.2596119210100132
 50
271.0540802793775015
 51
88.9459197206224843
  0
CIRCLE
  5
15CD7
  8
0
 10
3473.7646138333461749
 20
194.5959515534871116
 30
0.0
 40
0.0578232367657487
  0
CIRCLE
  5
15CD8
  8
0
 10
3474.4108838734459823
 20
194.5952024323871115
 30
0.0
 40
0.0578232367657487
  0
CIRCLE
  5
15CD9
  8
0
 10
3474.9094668085008379
 20
194.1941197692630965
 30
0.0
 40
0.0578232367657487
  0
CIRCLE
  5
15CDA
  8
0
 10
3475.0185928801470254
 20
193.5854183819870968
 30
0.0
 40
0.0578232367657487
  0
CIRCLE
  5
15CDB
  8
0
 10
3474.6972473983191776
 20
193.0413371699173979
 30
0.0
 40
0.0578232367657487
  0
CIRCLE
  5
15CDC
  8
0
 10
3474.0896732351470746
 20
192.823463351226593
 30
0.0
 40
0.0578232367657487
  0
CIRCLE
  5
15CDD
  8
0
 10
3473.4827199115597978
 20
193.0369054930339985
 30
0.0
 40
0.0578232367657487
  0
CIRCLE
  5
15CDE
  8
0
 10
3473.1583230376181746
 20
193.5802208017690873
 30
0.0
 40
0.0578232367657487
  0
CIRCLE
  5
15CDF
  8
0
 10
3473.2715684987820168
 20
194.1961777535271949
 30
0.0
 40
0.0578232367657487
  0
ARC
  5
15CE0
  8
0
 10
3474.080551321915209
 20
190.8677117488417139
 30
0.0
 40
0.2710749015040569
 50
88.0714798239027346
 51
271.928418367261088
  0
ARC
  5
15CE1
  8
0
 10
3474.098025199094991
 20
190.8677117107077947
 30
0.0
 40
0.2710500462344107
 50
268.2342447501106903
 51
91.7653432013780588
  0
ARC
  5
15CE2
  8
0
 10
3473.62778631523679
 20
191.4868212704433006
 30
0.0
 40
0.2710749015040569
 50
88.0714798239027346
 51
271.928418367261088
  0
ARC
  5
15CE3
  8
0
 10
3473.6452601924179362
 20
191.4868212323094099
 30
0.0
 40
0.2710500462344107
 50
268.2342447501106903
 51
91.7653432013780588
  0
ARC
  5
15CE4
  8
0
 10
3474.5333032726380225
 20
191.4868214887432885
 30
0.0
 40
0.2710749015040569
 50
88.0714798239027346
 51
271.928418367261088
  0
ARC
  5
15CE5
  8
0
 10
3474.5507771498178045
 20
191.4868214506095114
 30
0.0
 40
0.2710500462344107
 50
268.2342447501106903
 51
91.7653432013780588
  0
ARC
  5
15CE6
  8
0
 10
3473.5757882774510108
 20
186.7775785918537963
 30
0.0
 40
0.0201615331221275
 50
182.6306742766439868
 51
268.8008961922420212
  0
ARC
  5
15CE7
  8
0
 10
3572.9539545960728901
 20
190.4897692300141046
 30
0.0
 40
99.4676358736722221
 50
181.0778577373368989
 51
182.1393422716411976
  0
ARC
  5
15CE8
  8
0
 10
3413.3165995414369718
 20
188.0430850842240886
 30
0.0
 40
60.1900715775647228
 50
0.5479232668608459
 51
2.066960230239562
  0
ARC
  5
15CE9
  8
0
 10
3470.9995079964751312
 20
190.1930205392388871
 30
0.0
 40
2.4680900076211021
 50
0.4867275773809877
 51
12.3972257791395002
  0
ARC
  5
15CEA
  8
0
 10
3472.8692222888130345
 20
190.5607354264737978
 30
0.0
 40
0.5646125597547297
 50
16.6901634599878399
 51
61.570996694939339
  0
ARC
  5
15CEB
  8
0
 10
3471.0558354805220915
 20
187.2961975787565905
 30
0.0
 40
4.2989616342751553
 50
61.0304170432593622
 51
73.9504446646548672
  0
ARC
  5
15CEC
  8
0
 10
3472.5992577624601836
 20
192.621997953175395
 30
0.0
 40
1.246009776222452
 50
237.1206927210618005
 51
253.4516394612192016
  0
ARC
  5
15CED
  8
0
 10
3472.2654893424969487
 20
192.0593200143003969
 30
0.0
 40
0.5928046573537779
 50
211.3077579108420139
 51
234.6884304318377872
  0
ARC
  5
15CEE
  8
0
 10
3472.6630245180899692
 20
192.2331822561017987
 30
0.0
 40
1.0244437310340739
 50
187.9589276350064893
 51
208.0606347478779981
  0
ARC
  5
15CEF
  8
0
 10
3480.4440992837330668
 20
193.4625616815947069
 30
0.0
 40
8.9018949600412558
 50
181.3927553189755031
 51
188.8609886604158987
  0
ARC
  5
15CF0
  8
0
 10
3491.259678905535111
 20
193.9476528465054912
 30
0.0
 40
19.7273197847362987
 50
176.8272576844834987
 51
182.0377370810718105
  0
ARC
  5
15CF1
  8
0
 10
3477.1585355268957755
 20
194.7404637532048071
 30
0.0
 40
5.6039223064946802
 50
170.3027542842602031
 51
176.9412241799169863
  0
ARC
  5
15CF2
  8
0
 10
3472.7517962794031519
 20
195.5242273274957938
 30
0.0
 40
1.128536183667638
 50
153.7371176444837033
 51
171.840501657754487
  0
ARC
  5
15CF3
  8
0
 10
3472.1905899517710168
 20
195.7722591883826055
 30
0.0
 40
0.5161598664198622
 50
106.492236562505397
 51
150.8609044124582965
  0
ARC
  5
15CF4
  8
0
 10
3472.793666376739111
 20
193.7303957575904008
 30
0.0
 40
2.6452223519017579
 50
94.541247110952682
 51
106.4621185053472061
  0
ARC
  5
15CF5
  8
0
 10
3474.0731701799008988
 20
173.0314581567315884
 30
0.0
 40
23.3947544941737107
 50
89.9595825853494233
 51
91.6753791328373637
  0
ARC
  5
15CF6
  8
0
 10
3473.6326067058139415
 20
185.7589624028366018
 30
0.0
 40
10.6600290044574493
 50
91.3084657597198657
 51
95.6439836335369193
  0
ARC
  5
15CF7
  8
0
 10
3474.094908317467798
 20
172.8357360225313073
 30
0.0
 40
23.4340568931990987
 50
90.012799667003506
 51
91.1745355259170935
  0
ARC
  5
15CF8
  8
0
 10
3473.975519158886982
 20
178.6589201960385083
 30
0.0
 40
17.6096489670857892
 50
91.1745355259170935
 51
93.7990811100633124
  0
ARC
  5
15CF9
  8
0
 10
3473.197885346980911
 20
190.3695993635018908
 30
0.0
 40
5.873179271786487
 50
93.7990811100633124
 51
98.6513637645326469
  0
ARC
  5
15CFA
  8
0
 10
3472.5911712685469865
 20
194.3571288285336891
 30
0.0
 40
1.8397572497972861
 50
98.6513637645326469
 51
108.0619160502243972
  0
ARC
  5
15CFB
  8
0
 10
3472.1691997534758229
 20
195.6510641591291915
 30
0.0
 40
0.4787544579947057
 50
108.0619160502243972
 51
129.7358088939568859
  0
ARC
  5
15CFC
  8
0
 10
3472.1513231653580078
 20
195.6725692520818995
 30
0.0
 40
0.4507894544067123
 50
129.7358088939568859
 51
151.8229610198615944
  0
ARC
  5
15CFD
  8
0
 10
3472.7440071424348389
 20
195.3915150563196903
 30
0.0
 40
1.1064154225982961
 50
153.4863588099680101
 51
171.4743933449092026
  0
ARC
  5
15CFE
  8
0
 10
3479.5092780409181614
 20
194.3261566927153012
 30
0.0
 40
7.955030049955762
 50
171.1097670670876028
 51
179.3753343040571053
  0
ARC
  5
15CFF
  8
0
 10
3541.7075573921970317
 20
191.1626138182546981
 30
0.0
 40
70.2280908581832506
 50
177.3473102361263045
 51
177.7713243900805082
  0
ARC
  5
15D00
  8
0
 10
3474.0672028546910042
 20
174.6678005194962964
 30
0.0
 40
21.4623938277490609
 50
89.9400132990886902
 51
92.4989101257507542
  0
ARC
  5
15D01
  8
0
 10
3473.5517055066261491
 20
186.4797868896787918
 30
0.0
 40
9.6391641706190132
 50
92.4989101257507542
 51
96.5186114753428939
  0
ARC
  5
15D02
  8
0
 10
3472.7383394409271204
 20
193.5980507812205076
 30
0.0
 40
2.4745814761102269
 50
96.5186114753428939
 51
104.6788503840001994
  0
ARC
  5
15D03
  8
0
 10
3472.2213440185009858
 20
195.5716879466785088
 30
0.0
 40
0.434354055530176
 50
104.6788503840001994
 51
132.4185151918190968
  0
ARC
  5
15D04
  8
0
 10
3472.2465185503488101
 20
195.6055921937874871
 30
0.0
 40
0.4283167344318596
 50
137.9725747583973998
 51
160.2705451501282141
  0
ARC
  5
15D05
  8
0
 10
3473.4208875385020292
 20
195.2077564413945936
 30
0.0
 40
1.6681925236640309
 50
161.02483666142939
 51
172.8610658126997066
  0
ARC
  5
15D06
  8
0
 10
3482.1886731411677829
 20
194.1056187648084972
 30
0.0
 40
10.5049775345859793
 50
172.8394111154545953
 51
179.8444604068116917
  0
ARC
  5
15D07
  8
0
 10
3489.4108475798648215
 20
193.8022336188504937
 30
0.0
 40
17.7302200817753715
 50
178.9273829039289865
 51
184.0736454416924914
  0
ARC
  5
15D08
  8
0
 10
3476.4246386024369713
 20
192.9303527015829047
 30
0.0
 40
4.7151788221065889
 50
184.7157903181256984
 51
190.5747549264139877
  0
ARC
  5
15D09
  8
0
 10
3472.578635934815793
 20
192.1855076726185132
 30
0.0
 40
0.7982389658819288
 50
188.6806867085572037
 51
211.6603728178498898
  0
ARC
  5
15D0A
  8
0
 10
3472.3022202140491572
 20
192.0745499785332129
 30
0.0
 40
0.5072554017220752
 50
217.3900137104471071
 51
231.9990291987261912
  0
ARC
  5
15D0B
  8
0
 10
3472.7273533160428087
 20
192.7937107311948068
 30
0.0
 40
1.3400382111411231
 50
236.6116630744319878
 51
254.004018418576095
  0
ARC
  5
15D0C
  8
0
 10
3469.4429892437638046
 20
182.3712264353196133
 30
0.0
 40
9.5882089743808443
 50
69.1342416641813742
 51
72.3002678200620608
  0
ARC
  5
15D0D
  8
0
 10
3472.089143007758139
 20
189.3043427264219076
 30
0.0
 40
2.1672800178742349
 50
56.7068945324716793
 51
69.2182475820675904
  0
ARC
  5
15D0E
  8
0
 10
3472.8383179282891433
 20
190.4577304623462055
 30
0.0
 40
0.7919851903812334
 50
26.1947139717047683
 51
56.2073656100319496
  0
ARC
  5
15D0F
  8
0
 10
3477.8492165712750648
 20
192.5436561773726112
 30
0.0
 40
4.6375623107133057
 50
201.9875251703232095
 51
205.7200300490877964
  0
ARC
  5
15D10
  8
0
 10
3474.1197611457077983
 20
190.7630560333998062
 30
0.0
 40
0.5050694951982555
 50
207.3423567696561918
 51
244.7291211679219032
  0
LINE
  5
15D11
  8
0
 10
3466.0189894227460172
 20
199.4688702927871873
 30
0.0
 11
3476.0189894227460172
 21
199.4688702927871873
 31
0.0
  0
LINE
  5
15D12
  8
0
 10
3476.0189894227460172
 20
199.4688702927871873
 30
0.0
 11
3476.0189894227460172
 21
199.0751693136870983
 31
0.0
  0
ARC
  5
15D13
  8
0
 10
3475.9914305593438257
 20
199.0751693136880931
 30
0.0
 40
0.027558863401597
 50
269.9996014530528896
 51
359.9999999980572056
  0
LINE
  5
15D14
  8
0
 10
3475.9914303676459895
 20
199.0476104502870953
 30
0.0
 11
3466.0465483672201117
 21
199.0476104503817112
 31
0.0
  0
ARC
  5
15D15
  8
0
 10
3466.0466673604692005
 20
199.0752883884549078
 30
0.0
 40
0.0276781938605071
 50
180.246493782124503
 51
269.7536749690344209
  0
LINE
  5
15D16
  8
0
 10
3466.0189894227460172
 20
199.0751693136870983
 30
0.0
 11
3466.0189894227460172
 21
199.4688702927871873
 31
0.0
  0
ARC
  5
15D17
  8
0
 10
3474.0934220083131549
 20
190.7257357483946123
 30
0.0
 40
0.4601442310707992
 50
245.711173365417693
 51
269.5331909392908756
  0
ARC
  5
15D18
  8
0
 10
3471.9048161946170694
 20
202.4857679306578007
 30
0.0
 40
0.0196850392293087
 50
359.9999997942215941
 51
90.0000004968187142
  0
LINE
  5
15D19
  8
0
 10
3471.9245012338460583
 20
202.4857679305870874
 30
0.0
 11
3471.9245012311598657
 21
201.7377364344870898
 31
0.0
  0
ARC
  5
15D1A
  8
0
 10
3471.9048161916889512
 20
201.7377364345578883
 30
0.0
 40
0.0196850394707013
 50
270.0000080253627743
 51
359.9999997942215941
  0
LINE
  5
15D1B
  8
0
 10
3471.9245012337460139
 20
196.6393112376871102
 30
0.0
 11
3471.9638713125459617
 21
196.6393112376871102
 31
0.0
  0
ARC
  5
15D1C
  8
0
 10
3471.9638713125459617
 20
196.5605710801872021
 30
0.0
 40
0.0787401574999969
 50
359.9999999999968168
 51
90.0
  0
LINE
  5
15D1D
  8
0
 10
3472.0426114700458129
 20
196.5605710801872021
 30
0.0
 11
3472.0426114700458129
 21
196.2667522385351049
 31
0.0
  0
LINE
  5
15D1E
  8
0
 10
3470.3004854857458668
 20
199.4688702927871873
 30
0.0
 11
3470.3004854857458668
 21
200.0633584816870894
 31
0.0
  0
LINE
  5
15D1F
  8
0
 10
3470.3004854857458668
 20
200.0633584816870894
 30
0.0
 11
3470.330013044846055
 21
200.0633584816870894
 31
0.0
  0
LINE
  5
15D20
  8
0
 10
3470.330013044846055
 20
200.0633584816870894
 30
0.0
 11
3470.330013044846055
 21
200.53579942658709
 31
0.0
  0
LINE
  5
15D21
  8
0
 10
3470.330013044846055
 20
200.53579942658709
 30
0.0
 11
3471.7079658007460239
 21
200.53579942658709
 31
0.0
  0
LINE
  5
15D22
  8
0
 10
3471.7079658007460239
 20
200.53579942658709
 30
0.0
 11
3471.7079658007460239
 21
200.0633584816870894
 31
0.0
  0
LINE
  5
15D23
  8
0
 10
3471.7079658007460239
 20
200.0633584816870894
 30
0.0
 11
3471.7374902682458924
 21
200.0633584816870894
 31
0.0
  0
LINE
  5
15D24
  8
0
 10
3471.7374902682458924
 20
200.0633584816870894
 30
0.0
 11
3471.7374902682458924
 21
199.4688702927871873
 31
0.0
  0
LINE
  5
15D25
  8
0
 10
3470.6843437534471377
 20
201.7180513950872012
 30
0.0
 11
3470.6843437534471377
 21
201.5212010013871122
 31
0.0
  0
LINE
  5
15D26
  8
0
 10
3470.5429264341978524
 20
201.5082403714870907
 30
0.0
 11
3471.4950524112941821
 21
201.5082403714870907
 31
0.0
  0
ARC
  5
15D27
  8
0
 10
3471.4950524112941821
 20
201.488240367935191
 30
0.0
 40
0.020000003551953
 50
0.0000101755944942
 51
90.0
  0
LINE
  5
15D28
  8
0
 10
3471.5150524148461955
 20
201.4882403714871941
 30
0.0
 11
3471.515052434017889
 21
201.3802876155870933
 31
0.0
  0
LINE
  5
15D29
  8
0
 10
3471.515052434017889
 20
201.3802876155870933
 30
0.0
 11
3471.473713832246176
 21
201.3389490328872
 31
0.0
  0
LINE
  5
15D2A
  8
0
 10
3471.473713832246176
 20
201.3389490328872
 30
0.0
 11
3471.473713832246176
 21
200.8403537291443115
 31
0.0
  0
ARC
  5
15D2B
  8
0
 10
3471.2867059577110922
 20
200.971388684096695
 30
0.0
 40
0.2283464572910936
 50
291.9122123303774856
 51
324.9813717506684725
  0
ARC
  5
15D2C
  8
0
 10
3471.3980445408519699
 20
200.694595749782593
 30
0.0
 40
0.0700000000063307
 50
111.912212269967398
 51
230.6290103957539941
  0
ARC
  5
15D2D
  8
0
 10
3471.0189894227460172
 20
200.2326498202870937
 30
0.0
 40
0.5275590551000501
 50
35.0735055590779865
 51
50.6290104727732526
  0
ARC
  5
15D2E
  8
0
 10
3470.5429264342978968
 20
201.488240367935191
 30
0.0
 40
0.020000003551953
 50
90.0
 51
179.9999898244055032
  0
LINE
  5
15D2F
  8
0
 10
3470.5229264307458834
 20
201.4882403714871941
 30
0.0
 11
3470.5229264115741898
 21
201.3802876155870933
 31
0.0
  0
LINE
  5
15D30
  8
0
 10
3470.5229264115741898
 20
201.3802876155870933
 30
0.0
 11
3470.5642650133459028
 21
201.3389490328872
 31
0.0
  0
LINE
  5
15D31
  8
0
 10
3470.5642650133459028
 20
201.3389490328872
 30
0.0
 11
3470.5642650133459028
 21
200.8403537291443115
 31
0.0
  0
ARC
  5
15D32
  8
0
 10
3470.7512728878809867
 20
200.971388684096695
 30
0.0
 40
0.2283464572910936
 50
215.0186282493316128
 51
248.087787669622486
  0
ARC
  5
15D33
  8
0
 10
3470.6399343047401089
 20
200.694595749782593
 30
0.0
 40
0.0700000000063307
 50
309.3709896042460059
 51
68.0877877300325736
  0
ARC
  5
15D34
  8
0
 10
3471.0189894228469711
 20
200.2326498202870937
 30
0.0
 40
0.5275590551000501
 50
129.3709895272268113
 51
144.9264944409219993
  0
LINE
  5
15D35
  8
0
 10
3470.6516980841470286
 20
201.5082403714870907
 30
0.0
 11
3470.6646587140457996
 21
201.5212010013871122
 31
0.0
  0
LINE
  5
15D36
  8
0
 10
3470.6646587140457996
 20
201.5212010013871122
 30
0.0
 11
3471.3733201314457801
 21
201.5212010013871122
 31
0.0
  0
LINE
  5
15D37
  8
0
 10
3471.3733201314457801
 20
201.5212010013871122
 30
0.0
 11
3471.3862807613459154
 21
201.5082403714870907
 31
0.0
  0
LINE
  5
15D38
  8
0
 10
3471.3536350920458062
 20
201.5212010013871122
 30
0.0
 11
3471.3536350920458062
 21
201.7180513950872012
 31
0.0
  0
LINE
  5
15D39
  8
0
 10
3470.6660572922419306
 20
200.7595387210701858
 30
0.0
 11
3471.3719215531200462
 21
200.7595387210701858
 31
0.0
  0
LINE
  5
15D3A
  8
0
 10
3466.7055716569648212
 20
199.0476104502870953
 30
0.0
 11
3466.7124423991458571
 21
198.998722578987099
 31
0.0
  0
ARC
  5
15D3B
  8
0
 10
3466.7241384786389062
 20
199.0003663557480138
 30
0.0
 40
0.0118110235609014
 50
187.999999933476488
 51
270.000000517011415
  0
LINE
  5
15D3C
  8
0
 10
3466.7241384787471361
 20
198.9885553321871043
 30
0.0
 11
3466.8098420741471273
 21
198.9885553329604875
 31
0.0
  0
ARC
  5
15D3D
  8
0
 10
3466.8098420740388974
 20
199.0004370416149015
 30
0.0
 40
0.0118817086543999
 50
270.000000517011415
 51
351.7035852900359032
  0
LINE
  5
15D3E
  8
0
 10
3466.8215994384768237
 20
198.9987225790071932
 30
0.0
 11
3466.8284701807369856
 21
199.0476104503742931
 31
0.0
  0
LINE
  5
15D3F
  8
0
 10
3467.4142330743147795
 20
199.0476104502870953
 30
0.0
 11
3467.4211038164971797
 21
198.998722578987099
 31
0.0
  0
ARC
  5
15D40
  8
0
 10
3467.4327998959897741
 20
199.0003663557480138
 30
0.0
 40
0.0118110235609014
 50
187.999999933476488
 51
270.000000517011415
  0
LINE
  5
15D41
  8
0
 10
3467.432799896096185
 20
198.9885553321871043
 30
0.0
 11
3467.5185034914961761
 21
198.9885553329604875
 31
0.0
  0
ARC
  5
15D42
  8
0
 10
3467.5185034913888558
 20
199.0004370416149015
 30
0.0
 40
0.0118817086543999
 50
270.000000517011415
 51
351.7035852900359032
  0
LINE
  5
15D43
  8
0
 10
3467.5302608558258726
 20
198.9987225790071932
 30
0.0
 11
3467.537131598086944
 21
199.0476104503742931
 31
0.0
  0
LINE
  5
15D44
  8
0
 10
3468.1228944916651926
 20
199.0476104502870953
 30
0.0
 11
3468.129765233847138
 21
198.998722578987099
 31
0.0
  0
ARC
  5
15D45
  8
0
 10
3468.1414613133388229
 20
199.0003663557480138
 30
0.0
 40
0.0118110235609014
 50
187.999999933476488
 51
270.000000517011415
  0
LINE
  5
15D46
  8
0
 10
3468.1414613134470528
 20
198.9885553321871043
 30
0.0
 11
3468.2271649088461345
 21
198.9885553329604875
 31
0.0
  0
ARC
  5
15D47
  8
0
 10
3468.2271649087388141
 20
199.0004370416149015
 30
0.0
 40
0.0118817086543999
 50
270.000000517011415
 51
351.7035852900359032
  0
LINE
  5
15D48
  8
0
 10
3468.2389222731758309
 20
198.9987225790071932
 30
0.0
 11
3468.2457930154359929
 21
199.0476104503742931
 31
0.0
  0
LINE
  5
15D49
  8
0
 10
3468.8315559089651288
 20
199.0476104502870953
 30
0.0
 11
3468.8384266511461647
 21
198.998722578987099
 31
0.0
  0
ARC
  5
15D4A
  8
0
 10
3468.8501227306401233
 20
199.0003663557480138
 30
0.0
 40
0.0118110235609014
 50
187.999999933476488
 51
270.000000517011415
  0
LINE
  5
15D4B
  8
0
 10
3468.8501227307460795
 20
198.9885553321871043
 30
0.0
 11
3468.9358263261460706
 21
198.9885553329604875
 31
0.0
  0
ARC
  5
15D4C
  8
0
 10
3468.935826326039205
 20
199.0004370416149015
 30
0.0
 40
0.0118817086543999
 50
270.000000517011415
 51
351.7035852900359032
  0
LINE
  5
15D4D
  8
0
 10
3468.9475836904762218
 20
198.9987225790071932
 30
0.0
 11
3468.954454432735929
 21
199.0476104503742931
 31
0.0
  0
LINE
  5
15D4E
  8
0
 10
3469.5402173262650649
 20
199.0476104502870953
 30
0.0
 11
3469.5470880684461008
 21
198.998722578987099
 31
0.0
  0
ARC
  5
15D4F
  8
0
 10
3469.5587841479400595
 20
199.0003663557480138
 30
0.0
 40
0.0118110235609014
 50
187.999999933476488
 51
270.000000517011415
  0
LINE
  5
15D50
  8
0
 10
3469.5587841480460156
 20
198.9885553321871043
 30
0.0
 11
3469.6444877434460068
 21
198.9885553329604875
 31
0.0
  0
ARC
  5
15D51
  8
0
 10
3469.6444877433391412
 20
199.0004370416149015
 30
0.0
 40
0.0118817086543999
 50
270.000000517011415
 51
351.7035852900359032
  0
LINE
  5
15D52
  8
0
 10
3469.656245107776158
 20
198.9987225790071932
 30
0.0
 11
3469.6631158500367746
 21
199.0476104503742931
 31
0.0
  0
LINE
  5
15D53
  8
0
 10
3470.2488787436141138
 20
199.0476104502870953
 30
0.0
 11
3470.2557494857960592
 21
198.998722578987099
 31
0.0
  0
ARC
  5
15D54
  8
0
 10
3470.2674455652900178
 20
199.0003663557480138
 30
0.0
 40
0.0118110235609014
 50
187.999999933476488
 51
270.000000517011415
  0
LINE
  5
15D55
  8
0
 10
3470.267445565395974
 20
198.9885553321871043
 30
0.0
 11
3470.3531491607959651
 21
198.9885553329604875
 31
0.0
  0
ARC
  5
15D56
  8
0
 10
3470.3531491606890995
 20
199.0004370416149015
 30
0.0
 40
0.0118817086543999
 50
270.000000517011415
 51
351.7035852900359032
  0
LINE
  5
15D57
  8
0
 10
3470.3649065251261163
 20
198.9987225790071932
 30
0.0
 11
3470.3717772673871877
 21
199.0476104503742931
 31
0.0
  0
LINE
  5
15D58
  8
0
 10
3470.9575401609140499
 20
199.0476104502870953
 30
0.0
 11
3470.9644109030959953
 21
198.998722578987099
 31
0.0
  0
ARC
  5
15D59
  8
0
 10
3470.976106982589954
 20
199.0003663557480138
 30
0.0
 40
0.0118110235609014
 50
187.999999933476488
 51
270.000000517011415
  0
LINE
  5
15D5A
  8
0
 10
3470.9761069826959101
 20
198.9885553321871043
 30
0.0
 11
3471.0618105780959013
 21
198.9885553329604875
 31
0.0
  0
ARC
  5
15D5B
  8
0
 10
3471.0618105779890357
 20
199.0004370416149015
 30
0.0
 40
0.0118817086543999
 50
270.000000517011415
 51
351.7035852900359032
  0
LINE
  5
15D5C
  8
0
 10
3471.0735679424260525
 20
198.9987225790071932
 30
0.0
 11
3471.0804386846871239
 21
199.0476104503742931
 31
0.0
  0
LINE
  5
15D5D
  8
0
 10
3471.6662015782649178
 20
199.0476104502870953
 30
0.0
 11
3471.6730723204459537
 21
198.998722578987099
 31
0.0
  0
ARC
  5
15D5E
  8
0
 10
3471.6847683999399123
 20
199.0003663557480138
 30
0.0
 40
0.0118110235609014
 50
187.999999933476488
 51
270.000000517011415
  0
LINE
  5
15D5F
  8
0
 10
3471.6847684000458685
 20
198.9885553321871043
 30
0.0
 11
3471.7704719954458596
 21
198.9885553329604875
 31
0.0
  0
ARC
  5
15D60
  8
0
 10
3471.770471995338994
 20
199.0004370416149015
 30
0.0
 40
0.0118817086543999
 50
270.000000517011415
 51
351.7035852900359032
  0
LINE
  5
15D61
  8
0
 10
3471.7822293597769203
 20
198.9987225790071932
 30
0.0
 11
3471.7891001020370823
 21
199.0476104503742931
 31
0.0
  0
LINE
  5
15D62
  8
0
 10
3472.3748629955648539
 20
199.0476104502870953
 30
0.0
 11
3472.3817337377458898
 21
198.998722578987099
 31
0.0
  0
ARC
  5
15D63
  8
0
 10
3472.3934298172398485
 20
199.0003663557480138
 30
0.0
 40
0.0118110235609014
 50
187.999999933476488
 51
270.000000517011415
  0
LINE
  5
15D64
  8
0
 10
3472.3934298173458046
 20
198.9885553321871043
 30
0.0
 11
3472.4791334127457958
 21
198.9885553329604875
 31
0.0
  0
ARC
  5
15D65
  8
0
 10
3472.4791334126389302
 20
199.0004370416149015
 30
0.0
 40
0.0118817086543999
 50
270.000000517011415
 51
351.7035852900359032
  0
LINE
  5
15D66
  8
0
 10
3472.4908907770768565
 20
198.9987225790071932
 30
0.0
 11
3472.4977615193370184
 21
199.0476104503742931
 31
0.0
  0
LINE
  5
15D67
  8
0
 10
3473.0835244128647901
 20
199.0476104502870953
 30
0.0
 11
3473.090395155045826
 21
198.998722578987099
 31
0.0
  0
ARC
  5
15D68
  8
0
 10
3473.1020912345388751
 20
199.0003663557480138
 30
0.0
 40
0.0118110235609014
 50
187.999999933476488
 51
270.000000517011415
  0
LINE
  5
15D69
  8
0
 10
3473.102091234647105
 20
198.9885553321871043
 30
0.0
 11
3473.1877948300461867
 21
198.9885553329604875
 31
0.0
  0
ARC
  5
15D6A
  8
0
 10
3473.1877948299388663
 20
199.0004370416149015
 30
0.0
 40
0.0118817086543999
 50
270.000000517011415
 51
351.7035852900359032
  0
LINE
  5
15D6B
  8
0
 10
3473.1995521943767926
 20
198.9987225790071932
 30
0.0
 11
3473.2064229366369545
 21
199.0476104503742931
 31
0.0
  0
LINE
  5
15D6C
  8
0
 10
3473.7921858302152032
 20
199.0476104502870953
 30
0.0
 11
3473.7990565723957843
 21
198.998722578987099
 31
0.0
  0
ARC
  5
15D6D
  8
0
 10
3473.8107526518888335
 20
199.0003663557480138
 30
0.0
 40
0.0118110235609014
 50
187.999999933476488
 51
270.000000517011415
  0
LINE
  5
15D6E
  8
0
 10
3473.8107526519961539
 20
198.9885553321871043
 30
0.0
 11
3473.896456247396145
 21
198.9885553329604875
 31
0.0
  0
ARC
  5
15D6F
  8
0
 10
3473.8964562472888247
 20
199.0004370416149015
 30
0.0
 40
0.0118817086543999
 50
270.000000517011415
 51
351.7035852900359032
  0
LINE
  5
15D70
  8
0
 10
3473.9082136117258415
 20
198.9987225790071932
 30
0.0
 11
3473.9150843539869129
 21
199.0476104503742931
 31
0.0
  0
LINE
  5
15D71
  8
0
 10
3474.5008472475651615
 20
199.0476104502870953
 30
0.0
 11
3474.5077179897471069
 21
198.998722578987099
 31
0.0
  0
ARC
  5
15D72
  8
0
 10
3474.5194140692387919
 20
199.0003663557480138
 30
0.0
 40
0.0118110235609014
 50
187.999999933476488
 51
270.000000517011415
  0
LINE
  5
15D73
  8
0
 10
3474.5194140693470217
 20
198.9885553321871043
 30
0.0
 11
3474.6051176647461034
 21
198.9885553329604875
 31
0.0
  0
ARC
  5
15D74
  8
0
 10
3474.605117664638783
 20
199.0004370416149015
 30
0.0
 40
0.0118817086543999
 50
270.000000517011415
 51
351.7035852900359032
  0
LINE
  5
15D75
  8
0
 10
3474.6168750290757998
 20
198.9987225790071932
 30
0.0
 11
3474.6237457713359618
 21
199.0476104503742931
 31
0.0
  0
LINE
  5
15D76
  8
0
 10
3475.2095086648641882
 20
199.0476104502870953
 30
0.0
 11
3475.2163794070461336
 21
198.998722578987099
 31
0.0
  0
ARC
  5
15D77
  8
0
 10
3475.2280754865400922
 20
199.0003663557480138
 30
0.0
 40
0.0118110235609014
 50
187.999999933476488
 51
270.000000517011415
  0
LINE
  5
15D78
  8
0
 10
3475.2280754866460484
 20
198.9885553321871043
 30
0.0
 11
3475.3137790820460395
 21
198.9885553329604875
 31
0.0
  0
ARC
  5
15D79
  8
0
 10
3475.3137790819391739
 20
199.0004370416149015
 30
0.0
 40
0.0118817086543999
 50
270.000000517011415
 51
351.7035852900359032
  0
LINE
  5
15D7A
  8
0
 10
3475.3255364463761907
 20
198.9987225790071932
 30
0.0
 11
3475.3324071886368074
 21
199.0476104503742931
 31
0.0
  0
ARC
  5
15D7B
  8
0
 10
3473.2038476905167954
 20
185.6434844661579007
 30
0.0
 40
0.0393700788707117
 50
180.0000002431104065
 51
269.9999998970823185
  0
LINE
  5
15D7C
  8
0
 10
3473.2038476904458548
 20
185.6041143872870975
 30
0.0
 11
3474.4178161576469392
 21
185.6041143851068114
 31
0.0
  0
ARC
  5
15D7D
  8
0
 10
3474.4178161577169703
 20
185.6434920941227915
 30
0.0
 40
0.0393777090160104
 50
269.9999998970823185
 51
1.181445293536131
  0
LINE
  5
15D7E
  8
0
 10
3474.4571854955461276
 20
185.6443040092871115
 30
0.0
 11
3474.4637105481460821
 21
186.7182876155870872
 31
0.0
  0
ARC
  5
15D7F
  8
0
 10
3474.4243232415610692
 20
186.7182851244525921
 30
0.0
 40
0.0393873066638182
 50
0.0036237942113463
 51
83.5287197737481364
  0
ARC
  5
15D80
  8
0
 10
3474.5178738676459034
 20
186.7379726549870895
 30
0.0
 40
0.0196850393999988
 50
357.3436926658047241
 51
81.1148752171500291
  0
LINE
  5
15D81
  8
0
 10
3474.5375377556088097
 20
186.7370603576871986
 30
0.0
 11
3474.4868398128642184
 21
185.6443040094154071
 31
0.0
  0
ARC
  5
15D82
  8
0
 10
3474.4081842606688042
 20
185.6479531986313987
 30
0.0
 40
0.0787401579442244
 50
270.0000029669208175
 51
357.3436926658030757
  0
LINE
  5
15D83
  8
0
 10
3474.4081842647460689
 20
185.5692130406870888
 30
0.0
 11
3473.7711724390460404
 21
185.5692130077011086
 31
0.0
  0
ARC
  5
15D84
  8
0
 10
3473.7711724349678661
 20
185.6479677040329932
 30
0.0
 40
0.0787546963318652
 50
213.8371504477021006
 51
270.0000029669208175
  0
LINE
  5
15D85
  8
0
 10
3473.1387532022458799
 20
185.7433663557870887
 30
0.0
 11
3473.1644776116559115
 21
185.7433663557847012
 31
0.0
  0
LINE
  5
15D86
  8
0
 10
3473.1387532022458799
 20
185.8136089727871081
 30
0.0
 11
3473.1644776117459514
 21
185.8136089727871081
 31
0.0
  0
LINE
  5
15D87
  8
0
 10
3473.1387532022458799
 20
185.8366359457870942
 30
0.0
 11
3473.1644776116640969
 21
185.8366359457847068
 31
0.0
  0
LINE
  5
15D88
  8
0
 10
3473.1387532022918094
 20
186.4333663557858927
 30
0.0
 11
3473.1644776117009314
 21
186.4333663557883938
 31
0.0
  0
LINE
  5
15D89
  8
0
 10
3473.1387532022918094
 20
186.3631237387859017
 30
0.0
 11
3473.1644776117918809
 21
186.3631237387859017
 31
0.0
  0
LINE
  5
15D8A
  8
0
 10
3473.1387532022918094
 20
186.3400967657860008
 30
0.0
 11
3473.1644776117091169
 21
186.3400967657883029
 31
0.0
  0
ARC
  5
15D8C
  8
0
 10
3473.5551755170540673
 20
195.7238449445279969
 30
0.0
 40
0.0950100460011063
 50
359.4281282214473094
 51
179.7507746588906059
  0
ARC
  5
15D8D
  8
0
 10
3473.5551755170540673
 20
195.7238449445279969
 30
0.0
 40
0.0950100460011059
 50
179.7507746588906059
 51
359.4281282214473094
  0
ARC
  5
15D8E
  8
0
 10
3473.5544707508947795
 20
195.7096152201710026
 30
0.0
 40
0.0236111466402363
 50
13.0219230894886202
 51
162.7904318208371137
  0
ARC
  5
15D8F
  8
0
 10
3473.5552372315560206
 20
195.7093778145004137
 30
0.0
 40
0.024413551809412
 50
162.7904318208339873
 51
240.8276146748235078
  0
ARC
  5
15D90
  8
0
 10
3473.5548080198359457
 20
195.7086089606457904
 30
0.0
 40
0.0235330071200361
 50
240.8276146748227973
 51
15.5947476533655305
  0
ARC
  5
15D91
  8
0
 10
3473.0379486200390602
 20
195.7010754701130963
 30
0.0
 40
0.0950100460011063
 50
359.4281282214473094
 51
179.7507746588906059
  0
ARC
  5
15D92
  8
0
 10
3473.0379486200390602
 20
195.7010754701130963
 30
0.0
 40
0.0950100460011059
 50
179.7507746588906059
 51
359.4281282214473094
  0
ARC
  5
15D93
  8
0
 10
3473.0372438538802271
 20
195.6868457457561021
 30
0.0
 40
0.0236111466402363
 50
13.0219230894886202
 51
162.7904318208371137
  0
ARC
  5
15D94
  8
0
 10
3473.0380103345410134
 20
195.6866083400855132
 30
0.0
 40
0.024413551809412
 50
162.7904318208339873
 51
240.8276146748235078
  0
ARC
  5
15D95
  8
0
 10
3473.0375811228209386
 20
195.6858394862310035
 30
0.0
 40
0.0235330071200361
 50
240.8276146748227973
 51
15.5947476533655305
  0
ARC
  5
15D96
  8
0
 10
3472.5282107697471474
 20
195.6292529500576052
 30
0.0
 40
0.0950100460011063
 50
359.4281282214473094
 51
179.7507746588906059
  0
ARC
  5
15D97
  8
0
 10
3472.5282107697471474
 20
195.6292529500576052
 30
0.0
 40
0.0950100460011059
 50
179.7507746588906059
 51
359.4281282214473094
  0
ARC
  5
15D98
  8
0
 10
3472.5275060035878596
 20
195.615023225700611
 30
0.0
 40
0.0236111466402363
 50
13.0219230894886202
 51
162.7904318208371137
  0
ARC
  5
15D99
  8
0
 10
3472.5282724842481912
 20
195.6147858200299083
 30
0.0
 40
0.024413551809412
 50
162.7904318208339873
 51
240.8276146748235078
  0
ARC
  5
15D9A
  8
0
 10
3472.5278432725290259
 20
195.6140169661753987
 30
0.0
 40
0.0235330071200361
 50
240.8276146748227973
 51
15.5947476533655305
  0
ARC
  5
15D9B
  8
0
 10
3472.1627328335639504
 20
195.2791167796050047
 30
0.0
 40
0.0950100460011063
 50
359.4281282214473094
 51
179.7507746588906059
  0
ARC
  5
15D9C
  8
0
 10
3472.1627328335639504
 20
195.2791167796050047
 30
0.0
 40
0.0950100460011059
 50
179.7507746588906059
 51
359.4281282214473094
  0
ARC
  5
15D9D
  8
0
 10
3472.1620280674051173
 20
195.2648870552480105
 30
0.0
 40
0.0236111466402363
 50
13.0219230894886202
 51
162.7904318208371137
  0
ARC
  5
15D9E
  8
0
 10
3472.1627945480649942
 20
195.2646496495773931
 30
0.0
 40
0.024413551809412
 50
162.7904318208339873
 51
240.8276146748235078
  0
ARC
  5
15D9F
  8
0
 10
3472.1623653363449193
 20
195.2638807957227982
 30
0.0
 40
0.0235330071200361
 50
240.8276146748227973
 51
15.5947476533655305
  0
ARC
  5
15DA0
  8
0
 10
3472.883238144679126
 20
195.2341817108834903
 30
0.0
 40
0.0950100460011063
 50
359.4281282214473094
 51
179.7507746588906059
  0
ARC
  5
15DA1
  8
0
 10
3472.883238144679126
 20
195.2341817108834903
 30
0.0
 40
0.0950100460011059
 50
179.7507746588906059
 51
359.4281282214473094
  0
ARC
  5
15DA2
  8
0
 10
3472.8825333785189287
 20
195.2199519865264961
 30
0.0
 40
0.0236111466402363
 50
13.0219230894886202
 51
162.7904318208371137
  0
ARC
  5
15DA3
  8
0
 10
3472.8832998591801697
 20
195.2197145808559071
 30
0.0
 40
0.024413551809412
 50
162.7904318208339873
 51
240.8276146748235078
  0
ARC
  5
15DA4
  8
0
 10
3472.8828706474600949
 20
195.2189457270013975
 30
0.0
 40
0.0235330071200361
 50
240.8276146748227973
 51
15.5947476533655305
  0
ARC
  5
15DA5
  8
0
 10
3473.3477241722539475
 20
195.3212462051639022
 30
0.0
 40
0.0950100460011063
 50
359.4281282214473094
 51
179.7507746588906059
  0
ARC
  5
15DA6
  8
0
 10
3473.3477241722539475
 20
195.3212462051639022
 30
0.0
 40
0.0950100460011059
 50
179.7507746588906059
 51
359.4281282214473094
  0
ARC
  5
15DA7
  8
0
 10
3473.3470194060951144
 20
195.307016480806908
 30
0.0
 40
0.0236111466402363
 50
13.0219230894886202
 51
162.7904318208371137
  0
ARC
  5
15DA8
  8
0
 10
3473.3477858867549912
 20
195.3067790751362907
 30
0.0
 40
0.024413551809412
 50
162.7904318208339873
 51
240.8276146748235078
  0
ARC
  5
15DA9
  8
0
 10
3473.3473566750371901
 20
195.3060102212816957
 30
0.0
 40
0.0235330071200361
 50
240.8276146748227973
 51
15.5947476533655305
  0
ARC
  5
15DAA
  8
0
 10
3473.8173357487858084
 20
195.3617147695759968
 30
0.0
 40
0.0950100460011063
 50
359.4281282214473094
 51
179.7507746588906059
  0
ARC
  5
15DAB
  8
0
 10
3473.8173357487858084
 20
195.3617147695759968
 30
0.0
 40
0.0950100460011059
 50
179.7507746588906059
 51
359.4281282214473094
  0
ARC
  5
15DAC
  8
0
 10
3473.8166309826269753
 20
195.3474850452190026
 30
0.0
 40
0.0236111466402363
 50
13.0219230894886202
 51
162.7904318208371137
  0
ARC
  5
15DAD
  8
0
 10
3473.8173974632868521
 20
195.3472476395484136
 30
0.0
 40
0.024413551809412
 50
162.7904318208339873
 51
240.8276146748235078
  0
ARC
  5
15DAE
  8
0
 10
3473.8169682515681416
 20
195.3464787856937903
 30
0.0
 40
0.0235330071200361
 50
240.8276146748227973
 51
15.5947476533655305
  0
ARC
  5
15DAF
  8
0
 10
3473.6437433428718577
 20
194.9765256994554932
 30
0.0
 40
0.0950100460011063
 50
359.4281282214473094
 51
179.7507746588906059
  0
ARC
  5
15DB0
  8
0
 10
3473.6437433428718577
 20
194.9765256994554932
 30
0.0
 40
0.0950100460011059
 50
179.7507746588906059
 51
359.4281282214473094
  0
ARC
  5
15DB1
  8
0
 10
3473.6430385767130247
 20
194.962295975098499
 30
0.0
 40
0.0236111466402363
 50
13.0219230894886202
 51
162.7904318208371137
  0
ARC
  5
15DB2
  8
0
 10
3473.6438050573729015
 20
194.96205856942791
 30
0.0
 40
0.024413551809412
 50
162.7904318208339873
 51
240.8276146748235078
  0
ARC
  5
15DB3
  8
0
 10
3473.6433758456541909
 20
194.9612897155732867
 30
0.0
 40
0.0235330071200361
 50
240.8276146748227973
 51
15.5947476533655305
  0
ARC
  5
15DB4
  8
0
 10
3473.2330507212909652
 20
194.8487938530522001
 30
0.0
 40
0.0950100460011063
 50
359.4281282214473094
 51
179.7507746588906059
  0
ARC
  5
15DB5
  8
0
 10
3473.2330507212909652
 20
194.8487938530522001
 30
0.0
 40
0.0950100460011059
 50
179.7507746588906059
 51
359.4281282214473094
  0
ARC
  5
15DB6
  8
0
 10
3473.2323459551321321
 20
194.8345641286952059
 30
0.0
 40
0.0236111466402363
 50
13.0219230894886202
 51
162.7904318208371137
  0
ARC
  5
15DB7
  8
0
 10
3473.2331124357929184
 20
194.8343267230245885
 30
0.0
 40
0.024413551809412
 50
162.7904318208339873
 51
240.8276146748235078
  0
ARC
  5
15DB8
  8
0
 10
3473.2326832240728436
 20
194.8335578691701073
 30
0.0
 40
0.0235330071200361
 50
240.8276146748227973
 51
15.5947476533655305
  0
ARC
  5
15DB9
  8
0
 10
3472.9274117871768794
 20
194.5540461806220947
 30
0.0
 40
0.0950100460011063
 50
359.4281282214473094
 51
179.7507746588906059
  0
ARC
  5
15DBA
  8
0
 10
3472.9274117871768794
 20
194.5540461806220947
 30
0.0
 40
0.0950100460011059
 50
179.7507746588906059
 51
359.4281282214473094
  0
ARC
  5
15DBB
  8
0
 10
3472.9267070210180464
 20
194.5398164562651004
 30
0.0
 40
0.0236111466402363
 50
13.0219230894886202
 51
162.7904318208371137
  0
ARC
  5
15DBC
  8
0
 10
3472.9274735016788327
 20
194.5395790505945115
 30
0.0
 40
0.024413551809412
 50
162.7904318208339873
 51
240.8276146748235078
  0
ARC
  5
15DBD
  8
0
 10
3472.9270442899592126
 20
194.5388101967400019
 30
0.0
 40
0.0235330071200361
 50
240.8276146748227973
 51
15.5947476533655305
  0
ARC
  5
15DBE
  8
0
 10
3472.7732557428939799
 20
194.1751333806944899
 30
0.0
 40
0.0950100460011063
 50
359.4281282214473094
 51
179.7507746588906059
  0
ARC
  5
15DBF
  8
0
 10
3472.7732557428939799
 20
194.1751333806944899
 30
0.0
 40
0.0950100460011059
 50
179.7507746588906059
 51
359.4281282214473094
  0
ARC
  5
15DC0
  8
0
 10
3472.7725509767351468
 20
194.1609036563374957
 30
0.0
 40
0.0236111466402363
 50
13.0219230894886202
 51
162.7904318208371137
  0
ARC
  5
15DC1
  8
0
 10
3472.7733174573959332
 20
194.1606662506669068
 30
0.0
 40
0.024413551809412
 50
162.7904318208339873
 51
240.8276146748235078
  0
ARC
  5
15DC2
  8
0
 10
3472.7728882456758583
 20
194.1598973968123119
 30
0.0
 40
0.0235330071200361
 50
240.8276146748227973
 51
15.5947476533655305
  0
ARC
  5
15DC3
  8
0
 10
3472.4702827991991398
 20
194.4772664628262078
 30
0.0
 40
0.0950100460011063
 50
359.4281282214473094
 51
179.7507746588906059
  0
ARC
  5
15DC4
  8
0
 10
3472.4702827991991398
 20
194.4772664628262078
 30
0.0
 40
0.0950100460011059
 50
179.7507746588906059
 51
359.4281282214473094
  0
ARC
  5
15DC5
  8
0
 10
3472.4695780330389425
 20
194.4630367384692988
 30
0.0
 40
0.0236111466402363
 50
13.0219230894886202
 51
162.7904318208371137
  0
ARC
  5
15DC6
  8
0
 10
3472.4703445137010931
 20
194.4627993327987099
 30
0.0
 40
0.024413551809412
 50
162.7904318208339873
 51
240.8276146748235078
  0
ARC
  5
15DC7
  8
0
 10
3472.4699153019810183
 20
194.4620304789440866
 30
0.0
 40
0.0235330071200361
 50
240.8276146748227973
 51
15.5947476533655305
  0
ARC
  5
15DC8
  8
0
 10
3472.4005754784989222
 20
193.9866555551801071
 30
0.0
 40
0.0950100460011063
 50
359.4281282214473094
 51
179.7507746588906059
  0
ARC
  5
15DC9
  8
0
 10
3472.4005754784989222
 20
193.9866555551801071
 30
0.0
 40
0.0950100460011059
 50
179.7507746588906059
 51
359.4281282214473094
  0
ARC
  5
15DCA
  8
0
 10
3472.3998707123400891
 20
193.9724258308231128
 30
0.0
 40
0.0236111466402363
 50
13.0219230894886202
 51
162.7904318208371137
  0
ARC
  5
15DCB
  8
0
 10
3472.4006371929999659
 20
193.9721884251524955
 30
0.0
 40
0.024413551809412
 50
162.7904318208339873
 51
240.8276146748235078
  0
ARC
  5
15DCC
  8
0
 10
3472.4002079812808006
 20
193.9714195712979858
 30
0.0
 40
0.0235330071200361
 50
240.8276146748227973
 51
15.5947476533655305
  0
ARC
  5
15DCD
  8
0
 10
3472.0548883931028286
 20
194.2778082478693022
 30
0.0
 40
0.0950100460011063
 50
359.4281282214473094
 51
179.7507746588906059
  0
ARC
  5
15DCE
  8
0
 10
3472.0548883931028286
 20
194.2778082478693022
 30
0.0
 40
0.0950100460011059
 50
179.7507746588906059
 51
359.4281282214473094
  0
ARC
  5
15DCF
  8
0
 10
3472.054183626943086
 20
194.263578523512308
 30
0.0
 40
0.0236111466402363
 50
13.0219230894886202
 51
162.7904318208371137
  0
ARC
  5
15DD0
  8
0
 10
3472.0549501076038723
 20
194.2633411178416907
 30
0.0
 40
0.024413551809412
 50
162.7904318208339873
 51
240.8276146748235078
  0
ARC
  5
15DD1
  8
0
 10
3472.0545208958837975
 20
194.2625722639870958
 30
0.0
 40
0.0235330071200361
 50
240.8276146748227973
 51
15.5947476533655305
  0
ARC
  5
15DD2
  8
0
 10
3472.0383324000717948
 20
193.7791782424037024
 30
0.0
 40
0.0950100460011063
 50
359.4281282214473094
 51
179.7507746588906059
  0
ARC
  5
15DD3
  8
0
 10
3472.0383324000717948
 20
193.7791782424037024
 30
0.0
 40
0.0950100460011059
 50
179.7507746588906059
 51
359.4281282214473094
  0
ARC
  5
15DD4
  8
0
 10
3472.0376276339129618
 20
193.7649485180467082
 30
0.0
 40
0.0236111466402363
 50
13.0219230894886202
 51
162.7904318208371137
  0
ARC
  5
15DD5
  8
0
 10
3472.0383941145728386
 20
193.7647111123760908
 30
0.0
 40
0.024413551809412
 50
162.7904318208339873
 51
240.8276146748235078
  0
ARC
  5
15DD6
  8
0
 10
3472.037964902854128
 20
193.7639422585214959
 30
0.0
 40
0.0235330071200361
 50
240.8276146748227973
 51
15.5947476533655305
  0
ARC
  5
15DD7
  8
0
 10
3472.4146682100340513
 20
193.5135806732374988
 30
0.0
 40
0.0950100460011063
 50
359.4281282214473094
 51
179.7507746588906059
  0
ARC
  5
15DD8
  8
0
 10
3472.4146682100340513
 20
193.5135806732374988
 30
0.0
 40
0.0950100460011059
 50
179.7507746588906059
 51
359.4281282214473094
  0
ARC
  5
15DD9
  8
0
 10
3472.4139634438752182
 20
193.4993509488805046
 30
0.0
 40
0.0236111466402363
 50
13.0219230894886202
 51
162.7904318208371137
  0
ARC
  5
15DDA
  8
0
 10
3472.4147299245360045
 20
193.4991135432098872
 30
0.0
 40
0.024413551809412
 50
162.7904318208339873
 51
240.8276146748235078
  0
ARC
  5
15DDB
  8
0
 10
3472.4143007128159297
 20
193.4983446893552923
 30
0.0
 40
0.0235330071200361
 50
240.8276146748227973
 51
15.5947476533655305
  0
ARC
  5
15DDC
  8
0
 10
3472.0524260124811917
 20
193.2823032708803908
 30
0.0
 40
0.0950100460011063
 50
359.4281282214473094
 51
179.7507746588906059
  0
ARC
  5
15DDD
  8
0
 10
3472.0524260124811917
 20
193.2823032708803908
 30
0.0
 40
0.0950100460011059
 50
179.7507746588906059
 51
359.4281282214473094
  0
ARC
  5
15DDE
  8
0
 10
3472.0517212463219039
 20
193.2680735465233965
 30
0.0
 40
0.0236111466402363
 50
13.0219230894886202
 51
162.7904318208371137
  0
ARC
  5
15DDF
  8
0
 10
3472.052487726983145
 20
193.2678361408528076
 30
0.0
 40
0.024413551809412
 50
162.7904318208339873
 51
240.8276146748235078
  0
ARC
  5
15DE0
  8
0
 10
3472.0520585152630701
 20
193.2670672869982127
 30
0.0
 40
0.0235330071200361
 50
240.8276146748227973
 51
15.5947476533655305
  0
ARC
  5
15DE1
  8
0
 10
3472.4534239969398186
 20
193.0596766393001928
 30
0.0
 40
0.0950100460011063
 50
359.4281282214473094
 51
179.7507746588906059
  0
ARC
  5
15DE2
  8
0
 10
3472.4534239969398186
 20
193.0596766393001928
 30
0.0
 40
0.0950100460011059
 50
179.7507746588906059
 51
359.4281282214473094
  0
ARC
  5
15DE3
  8
0
 10
3472.4527192307809855
 20
193.0454469149431986
 30
0.0
 40
0.0236111466402363
 50
13.0219230894886202
 51
162.7904318208371137
  0
ARC
  5
15DE4
  8
0
 10
3472.4534857114422266
 20
193.0452095092726097
 30
0.0
 40
0.024413551809412
 50
162.7904318208339873
 51
240.8276146748235078
  0
ARC
  5
15DE5
  8
0
 10
3472.4530564997221518
 20
193.0444406554179864
 30
0.0
 40
0.0235330071200361
 50
240.8276146748227973
 51
15.5947476533655305
  0
ARC
  5
15DE6
  8
0
 10
3472.078977398313782
 20
192.7855764289938065
 30
0.0
 40
0.0950100460011063
 50
359.4281282214473094
 51
179.7507746588906059
  0
ARC
  5
15DE7
  8
0
 10
3472.078977398313782
 20
192.7855764289938065
 30
0.0
 40
0.0950100460011059
 50
179.7507746588906059
 51
359.4281282214473094
  0
ARC
  5
15DE8
  8
0
 10
3472.078272632154949
 20
192.7713467046368123
 30
0.0
 40
0.0236111466402363
 50
13.0219230894886202
 51
162.7904318208371137
  0
ARC
  5
15DE9
  8
0
 10
3472.07903911281619
 20
192.7711092989661097
 30
0.0
 40
0.024413551809412
 50
162.7904318208339873
 51
240.8276146748235078
  0
ARC
  5
15DEA
  8
0
 10
3472.0786099010961152
 20
192.7703404451116
 30
0.0
 40
0.0235330071200361
 50
240.8276146748227973
 51
15.5947476533655305
  0
ARC
  5
15DEB
  8
0
 10
3472.5524548499138291
 20
192.6180350254471136
 30
0.0
 40
0.0950100460011063
 50
359.4281282214473094
 51
179.7507746588906059
  0
ARC
  5
15DEC
  8
0
 10
3472.5524548499138291
 20
192.6180350254471136
 30
0.0
 40
0.0950100460011059
 50
179.7507746588906059
 51
359.4281282214473094
  0
ARC
  5
15DED
  8
0
 10
3472.5517500837559055
 20
192.603805301090091
 30
0.0
 40
0.0236111466402363
 50
13.0219230894886202
 51
162.7904318208371137
  0
ARC
  5
15DEE
  8
0
 10
3472.5525165644157823
 20
192.6035678954195021
 30
0.0
 40
0.024413551809412
 50
162.7904318208339873
 51
240.8276146748235078
  0
ARC
  5
15DEF
  8
0
 10
3472.5520873526970718
 20
192.6027990415649924
 30
0.0
 40
0.0235330071200361
 50
240.8276146748227973
 51
15.5947476533655305
  0
ARC
  5
15DF0
  8
0
 10
3472.5517433986210563
 20
192.6099063898691952
 30
0.0
 40
0.0672210023705008
 50
176.7191305619903119
 51
0.3306792348269959
  0
ARC
  5
15DF1
  8
0
 10
3472.5517526592839204
 20
192.61021345356599
 30
0.0
 40
0.0672106708449045
 50
0.0689624646028844
 51
54.6011232052859796
  0
ARC
  5
15DF2
  8
0
 10
3472.551445154188059
 20
192.6097807338971108
 30
0.0
 40
0.0677415245869778
 50
54.6011232052869389
 51
93.5636788285559931
  0
ARC
  5
15DF3
  8
0
 10
3472.5513833839568179
 20
192.6107725765043881
 30
0.0
 40
0.0667477603699237
 50
93.5636788285559931
 51
143.466432333655888
  0
ARC
  5
15DF4
  8
0
 10
3472.5513871166908757
 20
192.6107698110411945
 30
0.0
 40
0.066752405914624
 50
143.466432333655888
 51
163.8057627578023983
  0
ARC
  5
15DF5
  8
0
 10
3472.5538185232808246
 20
192.610063687309605
 30
0.0
 40
0.0692842725632599
 50
163.8057627578023983
 51
176.9472089131072892
  0
ARC
  5
15DF6
  8
0
 10
3472.1589040958137957
 20
192.2929363820121864
 30
0.0
 40
0.0950100460011063
 50
359.4281282214473094
 51
179.7507746588906059
  0
ARC
  5
15DF7
  8
0
 10
3472.1589040958137957
 20
192.2929363820121864
 30
0.0
 40
0.0950100460011059
 50
179.7507746588906059
 51
359.4281282214473094
  0
ARC
  5
15DF8
  8
0
 10
3472.1581993296540531
 20
192.2787066576551069
 30
0.0
 40
0.0236111466402363
 50
13.0219230894886202
 51
162.7904318208371137
  0
ARC
  5
15DF9
  8
0
 10
3472.1589658103148395
 20
192.2784692519844896
 30
0.0
 40
0.024413551809412
 50
162.7904318208339873
 51
240.8276146748235078
  0
ARC
  5
15DFA
  8
0
 10
3472.1585365985952194
 20
192.2777003981300084
 30
0.0
 40
0.0235330071200361
 50
240.8276146748227973
 51
15.5947476533655305
  0
ARC
  5
15DFB
  8
0
 10
3472.4655925190650123
 20
191.9919266923791099
 30
0.0
 40
0.0950100460011063
 50
359.4281282214473094
 51
179.7507746588906059
  0
ARC
  5
15DFC
  8
0
 10
3472.4655925190650123
 20
191.9919266923791099
 30
0.0
 40
0.0950100460011059
 50
179.7507746588906059
 51
359.4281282214473094
  0
ARC
  5
15DFD
  8
0
 10
3472.4648877529061792
 20
191.9776969680220873
 30
0.0
 40
0.0236111466402363
 50
13.0219230894886202
 51
162.7904318208371137
  0
ARC
  5
15DFE
  8
0
 10
3472.4656542335669656
 20
191.9774595623514983
 30
0.0
 40
0.024413551809412
 50
162.7904318208339873
 51
240.8276146748235078
  0
ARC
  5
15DFF
  8
0
 10
3472.4652250218468907
 20
191.9766907084969887
 30
0.0
 40
0.0235330071200361
 50
240.8276146748227973
 51
15.5947476533655305
  0
ARC
  5
15E00
  8
0
 10
3472.9366366040321736
 20
191.8828526090902926
 30
0.0
 40
0.0950100460011063
 50
359.4281282214473094
 51
179.7507746588906059
  0
ARC
  5
15E01
  8
0
 10
3472.9366366040321736
 20
191.8828526090902926
 30
0.0
 40
0.0950100460011059
 50
179.7507746588906059
 51
359.4281282214473094
  0
ARC
  5
15E02
  8
0
 10
3472.9359318378728858
 20
191.8686228847334121
 30
0.0
 40
0.0236111466402363
 50
13.0219230894886202
 51
162.7904318208371137
  0
ARC
  5
15E03
  8
0
 10
3472.9366983185341269
 20
191.8683854790627947
 30
0.0
 40
0.024413551809412
 50
162.7904318208339873
 51
240.8276146748235078
  0
ARC
  5
15E04
  8
0
 10
3472.9362691068140521
 20
191.8676166252081998
 30
0.0
 40
0.0235330071200361
 50
240.8276146748227973
 51
15.5947476533655305
  0
ARC
  5
15E05
  8
0
 10
3473.3128282705270067
 20
192.1961710926759963
 30
0.0
 40
0.0950100460011063
 50
359.4281282214473094
 51
179.7507746588906059
  0
ARC
  5
15E06
  8
0
 10
3473.3128282705270067
 20
192.1961710926759963
 30
0.0
 40
0.0950100460011059
 50
179.7507746588906059
 51
359.4281282214473094
  0
ARC
  5
15E07
  8
0
 10
3473.3121235043681736
 20
192.1819413683190021
 30
0.0
 40
0.0236111466402363
 50
13.0219230894886202
 51
162.7904318208371137
  0
ARC
  5
15E08
  8
0
 10
3473.3128899850280504
 20
192.1817039626484132
 30
0.0
 40
0.024413551809412
 50
162.7904318208339873
 51
240.8276146748235078
  0
ARC
  5
15E09
  8
0
 10
3473.3124607733079756
 20
192.1809351087939035
 30
0.0
 40
0.0235330071200361
 50
240.8276146748227973
 51
15.5947476533655305
  0
ARC
  5
15E0A
  8
0
 10
3473.7953534511188991
 20
192.1452113315594943
 30
0.0
 40
0.0950100460011063
 50
359.4281282214473094
 51
179.7507746588906059
  0
ARC
  5
15E0B
  8
0
 10
3473.7953534511188991
 20
192.1452113315594943
 30
0.0
 40
0.0950100460011059
 50
179.7507746588906059
 51
359.4281282214473094
  0
ARC
  5
15E0C
  8
0
 10
3473.794648684960066
 20
192.1309816072025001
 30
0.0
 40
0.0236111466402363
 50
13.0219230894886202
 51
162.7904318208371137
  0
ARC
  5
15E0D
  8
0
 10
3473.7954151656199429
 20
192.1307442015319111
 30
0.0
 40
0.024413551809412
 50
162.7904318208339873
 51
240.8276146748235078
  0
ARC
  5
15E0E
  8
0
 10
3473.7949859539007775
 20
192.1299753476772878
 30
0.0
 40
0.0235330071200361
 50
240.8276146748227973
 51
15.5947476533655305
  0
ARC
  5
15E0F
  8
0
 10
3472.8651724999349426
 20
192.3061182115903875
 30
0.0
 40
0.0950100460011063
 50
359.4281282214473094
 51
179.7507746588906059
  0
ARC
  5
15E10
  8
0
 10
3472.8651724999349426
 20
192.3061182115903875
 30
0.0
 40
0.0950100460011059
 50
179.7507746588906059
 51
359.4281282214473094
  0
ARC
  5
15E11
  8
0
 10
3472.8644677337761095
 20
192.2918884872333933
 30
0.0
 40
0.0236111466402363
 50
13.0219230894886202
 51
162.7904318208371137
  0
ARC
  5
15E12
  8
0
 10
3472.8652342144368959
 20
192.2916510815628044
 30
0.0
 40
0.024413551809412
 50
162.7904318208339873
 51
240.8276146748235078
  0
ARC
  5
15E13
  8
0
 10
3472.864805002716821
 20
192.2908822277082095
 30
0.0
 40
0.0235330071200361
 50
240.8276146748227973
 51
15.5947476533655305
  0
ARC
  5
15E14
  8
0
 10
3473.6390520609479609
 20
192.5082465403054073
 30
0.0
 40
0.0950100460011063
 50
359.4281282214473094
 51
179.7507746588906059
  0
ARC
  5
15E15
  8
0
 10
3473.6390520609479609
 20
192.5082465403054073
 30
0.0
 40
0.0950100460011059
 50
179.7507746588906059
 51
359.4281282214473094
  0
ARC
  5
15E16
  8
0
 10
3473.6383472947891278
 20
192.4940168159484131
 30
0.0
 40
0.0236111466402363
 50
13.0219230894886202
 51
162.7904318208371137
  0
ARC
  5
15E17
  8
0
 10
3473.6391137754499141
 20
192.4937794102777957
 30
0.0
 40
0.024413551809412
 50
162.7904318208339873
 51
240.8276146748235078
  0
ARC
  5
15E18
  8
0
 10
3473.6386845637298393
 20
192.4930105564232008
 30
0.0
 40
0.0235330071200361
 50
240.8276146748227973
 51
15.5947476533655305
  0
ARC
  5
15E19
  8
0
 10
3473.234106139926098
 20
192.6425648409621942
 30
0.0
 40
0.0950100460011063
 50
359.4281282214473094
 51
179.7507746588906059
  0
ARC
  5
15E1A
  8
0
 10
3473.234106139926098
 20
192.6425648409621942
 30
0.0
 40
0.0950100460011059
 50
179.7507746588906059
 51
359.4281282214473094
  0
ARC
  5
15E1B
  8
0
 10
3473.2334013737668101
 20
192.6283351166052
 30
0.0
 40
0.0236111466402363
 50
13.0219230894886202
 51
162.7904318208371137
  0
ARC
  5
15E1C
  8
0
 10
3473.2341678544280512
 20
192.6280977109346111
 30
0.0
 40
0.024413551809412
 50
162.7904318208339873
 51
240.8276146748235078
  0
ARC
  5
15E1D
  8
0
 10
3473.2337386427079764
 20
192.6273288570799878
 30
0.0
 40
0.0235330071200361
 50
240.8276146748227973
 51
15.5947476533655305
  0
ARC
  5
15E1E
  8
0
 10
3472.9282767273070931
 20
192.9362898535194972
 30
0.0
 40
0.0950100460011063
 50
359.4281282214473094
 51
179.7507746588906059
  0
ARC
  5
15E1F
  8
0
 10
3472.9282767273070931
 20
192.9362898535194972
 30
0.0
 40
0.0950100460011059
 50
179.7507746588906059
 51
359.4281282214473094
  0
ARC
  5
15E20
  8
0
 10
3472.9275719611478053
 20
192.922060129162503
 30
0.0
 40
0.0236111466402363
 50
13.0219230894886202
 51
162.7904318208371137
  0
ARC
  5
15E21
  8
0
 10
3472.9283384418090463
 20
192.9218227234919141
 30
0.0
 40
0.024413551809412
 50
162.7904318208339873
 51
240.8276146748235078
  0
ARC
  5
15E22
  8
0
 10
3472.9279092300889715
 20
192.9210538696374044
 30
0.0
 40
0.0235330071200361
 50
240.8276146748227973
 51
15.5947476533655305
  0
ARC
  5
15E23
  8
0
 10
3472.7927404891361221
 20
193.3300842378413904
 30
0.0
 40
0.0950100460011063
 50
359.4281282214473094
 51
179.7507746588906059
  0
ARC
  5
15E24
  8
0
 10
3472.7927404891361221
 20
193.3300842378413904
 30
0.0
 40
0.0950100460011059
 50
179.7507746588906059
 51
359.4281282214473094
  0
ARC
  5
15E25
  8
0
 10
3472.7920357229768342
 20
193.3158545134843962
 30
0.0
 40
0.0236111466402363
 50
13.0219230894886202
 51
162.7904318208371137
  0
ARC
  5
15E26
  8
0
 10
3472.7928022036380753
 20
193.3156171078136936
 30
0.0
 40
0.024413551809412
 50
162.7904318208339873
 51
240.8276146748235078
  0
ARC
  5
15E27
  8
0
 10
3472.7923729919180005
 20
193.3148482539592123
 30
0.0
 40
0.0235330071200361
 50
240.8276146748227973
 51
15.5947476533655305
  0
ARC
  5
15E28
  8
0
 10
3472.7532605245169179
 20
193.7484240421742925
 30
0.0
 40
0.0950100460011063
 50
359.4281282214473094
 51
179.7507746588906059
  0
ARC
  5
15E29
  8
0
 10
3472.7532605245169179
 20
193.7484240421742925
 30
0.0
 40
0.0950100460011059
 50
179.7507746588906059
 51
359.4281282214473094
  0
ARC
  5
15E2A
  8
0
 10
3472.7525557583580849
 20
193.7341943178172983
 30
0.0
 40
0.0236111466402363
 50
13.0219230894886202
 51
162.7904318208371137
  0
ARC
  5
15E2B
  8
0
 10
3472.7533222390188712
 20
193.7339569121467093
 30
0.0
 40
0.024413551809412
 50
162.7904318208339873
 51
240.8276146748235078
  0
ARC
  5
15E2C
  8
0
 10
3472.7528930272987964
 20
193.7331880582921997
 30
0.0
 40
0.0235330071200361
 50
240.8276146748227973
 51
15.5947476533655305
  0
ARC
  5
15E2D
  8
0
 10
3472.549340107064836
 20
194.9151373857708904
 30
0.0
 40
0.0950100460011063
 50
359.4281282214473094
 51
179.7507746588906059
  0
ARC
  5
15E2E
  8
0
 10
3472.549340107064836
 20
194.9151373857708904
 30
0.0
 40
0.0950100460011059
 50
179.7507746588906059
 51
359.4281282214473094
  0
ARC
  5
15E2F
  8
0
 10
3472.5486353409050935
 20
194.9009076614138962
 30
0.0
 40
0.0236111466402363
 50
13.0219230894886202
 51
162.7904318208371137
  0
ARC
  5
15E30
  8
0
 10
3472.5494018215667893
 20
194.9006702557433073
 30
0.0
 40
0.024413551809412
 50
162.7904318208339873
 51
240.8276146748235078
  0
ARC
  5
15E31
  8
0
 10
3472.5489726098471692
 20
194.8999014018887124
 30
0.0
 40
0.0235330071200361
 50
240.8276146748227973
 51
15.5947476533655305
  0
ARC
  5
15E32
  8
0
 10
3472.0857381872669976
 20
194.7815093013749959
 30
0.0
 40
0.0950100460011063
 50
359.4281282214473094
 51
179.7507746588906059
  0
ARC
  5
15E33
  8
0
 10
3472.0857381872669976
 20
194.7815093013749959
 30
0.0
 40
0.0950100460011059
 50
179.7507746588906059
 51
359.4281282214473094
  0
ARC
  5
15E34
  8
0
 10
3472.0850334211081645
 20
194.7672795770180016
 30
0.0
 40
0.0236111466402363
 50
13.0219230894886202
 51
162.7904318208371137
  0
ARC
  5
15E35
  8
0
 10
3472.0857999017689508
 20
194.7670421713474127
 30
0.0
 40
0.024413551809412
 50
162.7904318208339873
 51
240.8276146748235078
  0
ARC
  5
15E36
  8
0
 10
3472.085370690048876
 20
194.7662733174929031
 30
0.0
 40
0.0235330071200361
 50
240.8276146748227973
 51
15.5947476533655305
  0
LINE
  5
15E37
  8
0
 10
3471.9245011968778272
 20
157.5054530523875087
 30
0.0
 11
3471.9245011968778272
 21
156.895216686549702
 31
0.0
  0
LINE
  5
15E38
  8
0
 10
3471.9245011968778272
 20
157.5054530523875087
 30
0.0
 11
3471.9245011968778272
 21
158.2850256076521873
 31
0.0
  0
LINE
  5
15E39
  8
0
 10
3471.9245011968778272
 20
158.3125395840870908
 30
0.0
 11
3471.9245011968778272
 21
158.3400986391870902
 31
0.0
  0
ENDSEC
  0
EOF
