  0
SECTION
  2
HEADER
  9
$ACADVER
  1
AC1009
  9
$INSBASE
 10
3515.1631442641760259
 20
159.8530746150910886
 30
0.0
  9
$EXTMIN
 10
3491.6811762791589899
 20
145.8452595343690064
 30
-0.0015258207003583
  9
$EXTMAX
 10
3515.2815856245711075
 20
202.5171956351734082
 30
0.0000000349246037
  9
$LIMMIN
 10
0.0
 20
0.0
  9
$LIMMAX
 10
11.6929133858000007
 20
8.2677165353999982
  9
$ORTHOMODE
 70
     0
  9
$REGENMODE
 70
     1
  9
$FILLMODE
 70
     1
  9
$QTEXTMODE
 70
     0
  9
$MIRRTEXT
 70
     0
  9
$DRAGMODE
 70
     2
  9
$LTSCALE
 40
0.6431102362
  9
$OSMODE
 70
  2039
  9
$ATTMODE
 70
     1
  9
$TEXTSIZE
 40
0.2
  9
$TRACEWID
 40
0.05
  9
$TEXTSTYLE
  7
STANDARD
  9
$CLAYER
  8
0
  9
$CELTYPE
  6
BYLAYER
  9
$CECOLOR
 62
   256
  9
$DIMSCALE
 40
1.0
  9
$DIMASZ
 40
0.1875
  9
$DIMEXO
 40
0.0625
  9
$DIMDLI
 40
0.4443307087
  9
$DIMRND
 40
0.0
  9
$DIMDLE
 40
0.0
  9
$DIMEXE
 40
0.125
  9
$DIMTP
 40
0.01
  9
$DIMTM
 40
0.01
  9
$DIMTXT
 40
2.0
  9
$DIMCEN
 40
0.1052362205
  9
$DIMTSZ
 40
0.0
  9
$DIMTOL
 70
     1
  9
$DIMLIM
 70
     0
  9
$DIMTIH
 70
     1
  9
$DIMTOH
 70
     1
  9
$DIMSE1
 70
     0
  9
$DIMSE2
 70
     0
  9
$DIMTAD
 70
     0
  9
$DIMZIN
 70
     0
  9
$DIMBLK
  1

  9
$DIMASO
 70
     1
  9
$DIMSHO
 70
     1
  9
$DIMPOST
  1
\X
  9
$DIMAPOST
  1

  9
$DIMALT
 70
     1
  9
$DIMALTD
 70
     2
  9
$DIMALTF
 40
25.3999999999999986
  9
$DIMLFAC
 40
1.0
  9
$DIMTOFL
 70
     0
  9
$DIMTVP
 40
0.0
  9
$DIMTIX
 70
     0
  9
$DIMSOXD
 70
     0
  9
$DIMSAH
 70
     0
  9
$DIMBLK1
  1

  9
$DIMBLK2
  1

  9
$DIMSTYLE
  2
STANDARD
  9
$DIMCLRD
 70
     0
  9
$DIMCLRE
 70
     0
  9
$DIMCLRT
 70
     0
  9
$DIMTFAC
 40
1.0
  9
$DIMGAP
 40
0.09
  9
$LUNITS
 70
     2
  9
$LUPREC
 70
     4
  9
$SKETCHINC
 40
0.1
  9
$FILLETRAD
 40
0.0
  9
$AUNITS
 70
     0
  9
$AUPREC
 70
     0
  9
$MENU
  1
.
  9
$ELEVATION
 40
0.0
  9
$PELEVATION
 40
0.0
  9
$THICKNESS
 40
0.0
  9
$LIMCHECK
 70
     0
  9
$BLIPMODE
 70
     0
  9
$CHAMFERA
 40
0.0
  9
$CHAMFERB
 40
0.0
  9
$SKPOLY
 70
     0
  9
$TDCREATE
 40
2458060.468368056230247
  9
$TDUPDATE
 40
2459115.9475347218103707
  9
$TDINDWG
 40
0.5636991898
  9
$TDUSRTIMER
 40
0.5636991898
  9
$USRTIMER
 70
     1
  9
$ANGBASE
 50
0.0
  9
$ANGDIR
 70
     0
  9
$PDMODE
 70
     0
  9
$PDSIZE
 40
0.3125
  9
$PLINEWID
 40
0.0
  9
$COORDS
 70
     1
  9
$SPLFRAME
 70
     0
  9
$SPLINETYPE
 70
     6
  9
$SPLINESEGS
 70
     8
  9
$ATTDIA
 70
     1
  9
$ATTREQ
 70
     1
  9
$HANDLING
 70
     1
  9
$HANDSEED
  5
1661F
  9
$SURFTAB1
 70
     6
  9
$SURFTAB2
 70
     6
  9
$SURFTYPE
 70
     6
  9
$SURFU
 70
     6
  9
$SURFV
 70
     6
  9
$UCSNAME
  2

  9
$UCSORG
 10
0.0
 20
0.0
 30
0.0
  9
$UCSXDIR
 10
1.0
 20
0.0
 30
0.0
  9
$UCSYDIR
 10
0.0
 20
1.0
 30
0.0
  9
$PUCSNAME
  2

  9
$PUCSORG
 10
0.0
 20
0.0
 30
0.0
  9
$PUCSXDIR
 10
1.0
 20
0.0
 30
0.0
  9
$PUCSYDIR
 10
0.0
 20
1.0
 30
0.0
  9
$USERI1
 70
     0
  9
$USERI2
 70
     0
  9
$USERI3
 70
     0
  9
$USERI4
 70
     0
  9
$USERI5
 70
     0
  9
$USERR1
 40
0.0
  9
$USERR2
 40
0.0
  9
$USERR3
 40
0.0
  9
$USERR4
 40
0.0
  9
$USERR5
 40
0.0
  9
$WORLDVIEW
 70
     1
  9
$SHADEDGE
 70
     3
  9
$SHADEDIF
 70
    70
  9
$TILEMODE
 70
     1
  9
$MAXACTVP
 70
    64
  9
$PLIMCHECK
 70
     0
  9
$PEXTMIN
 10
1.0000000000000000E+20
 20
1.0000000000000000E+20
 30
1.0000000000000000E+20
  9
$PEXTMAX
 10
-1.0000000000000000E+20
 20
-1.0000000000000000E+20
 30
-1.0000000000000000E+20
  9
$PLIMMIN
 10
0.0
 20
0.0
  9
$PLIMMAX
 10
12.0
 20
9.0
  9
$UNITMODE
 70
     0
  9
$VISRETAIN
 70
     1
  9
$PLINEGEN
 70
     0
  9
$PSLTSCALE
 70
     1
  0
ENDSEC
  0
SECTION
  2
TABLES
  0
TABLE
  2
VPORT
 70
     1
  0
VPORT
  2
*ACTIVE
 70
     0
 10
0.0
 20
0.0
 11
1.0
 21
1.0
 12
199.788265717489594
 22
-21.0802839911165698
 13
0.0
 23
0.0
 14
1.0
 24
1.0
 15
0.0
 25
0.0
 16
0.0
 26
0.0
 36
96.5995694866707311
 17
3303.693115234375
 27
195.2615115758877096
 37
0.0
 40
57.1435472195350584
 41
2.6486111111111108
 42
50.0
 43
0.0
 44
0.0
 50
0.0
 51
0.0
 71
     0
 72
   100
 73
     1
 74
     1
 75
     0
 76
     0
 77
     0
 78
     0
  0
ENDTAB
  0
TABLE
  2
LTYPE
 70
     2
  0
LTYPE
  2
CONTINUOUS
 70
     0
  3
Solid line
 72
    65
 73
     0
 40
0.0
  0
LTYPE
  2
PHANTOM2
 70
     0
  3
___ _ _ ___ _ _ ___ _ _ ___ _ _
 72
    65
 73
     6
 40
1.25
 49
0.625
 49
-0.125
 49
0.125
 49
-0.125
 49
0.125
 49
-0.125
  0
ENDTAB
  0
TABLE
  2
LAYER
 70
     2
  0
LAYER
  2
0
 70
     0
 62
   255
  6
CONTINUOUS
  0
LAYER
  2
DEFPOINTS
 70
     0
 62
     7
  6
CONTINUOUS
  0
ENDTAB
  0
TABLE
  2
STYLE
 70
     1
  0
STYLE
  2
STANDARD
 70
     0
 40
0.0
 41
0.8
 50
0.0
 71
     0
 42
0.2
  3
txt
  4

  0
ENDTAB
  0
TABLE
  2
VIEW
 70
     0
  0
ENDTAB
  0
TABLE
  2
UCS
 70
     0
  0
ENDTAB
  0
TABLE
  2
APPID
 70
     9
  0
APPID
  2
ACAD
 70
     0
  0
APPID
  2
ACAD_MLEADERVER
 70
     0
  0
APPID
  2
ACAD_EXEMPT_FROM_CAD_STANDARDS
 70
     0
  0
APPID
  2
ACAD_NAV_VCDISPLAY
 70
     0
  0
APPID
  2
ACAECLAYERSTANDARD
 70
     0
  0
APPID
  2
ACCMTRANSPARENCY
 70
     0
  0
APPID
  2
ACAD_DSTYLE_DIMJAG
 70
     0
  0
APPID
  2
ACAD_DSTYLE_DIMTALN
 70
     0
  0
APPID
  2
ACDBATTR
 70
     0
  0
ENDTAB
  0
TABLE
  2
DIMSTYLE
 70
     1
  0
DIMSTYLE
  2
STANDARD
 70
     0
  3

  4

  5

  6

  7

 40
1.0
 41
0.1875
 42
0.0625
 43
0.38
 44
0.125
 45
0.0
 46
0.0
 47
0.01
 48
0.01
140
0.15625
141
0.09
142
0.0
143
25.3999999999999986
144
1.0
145
0.0
146
1.0
147
0.09
 71
     1
 72
     0
 73
     1
 74
     1
 75
     0
 76
     0
 77
     0
 78
     4
170
     0
171
     2
172
     0
173
     0
174
     0
175
     0
176
     0
177
     0
178
     0
  0
ENDTAB
  0
ENDSEC
  0
SECTION
  2
BLOCKS
  0
BLOCK
  8
0
  2
$MODEL_SPACE
 70
     0
 10
0.0
 20
0.0
 30
0.0
  3
$MODEL_SPACE
  1

  0
ENDBLK
  5
21
  8
0
  0
BLOCK
 67
     1
  8
0
  2
$PAPER_SPACE
 70
     0
 10
0.0
 20
0.0
 30
0.0
  3
$PAPER_SPACE
  1

  0
ENDBLK
  5
1D
 67
     1
  8
0
  0
BLOCK
  8
0
  2
_FILLED
 70
     0
 10
0.0
 20
0.0
 30
0.0
  3
_FILLED
  1

  0
SOLID
  5
9E2C
  8
0
  6
BYBLOCK
 62
     0
 10
0.0
 20
0.0
 30
0.0
 11
-1.0
 21
0.1666666667
 31
0.0
 12
-1.0
 22
-0.1666666667
 32
0.0
 13
-1.0
 23
-0.1666666667
 33
0.0
  0
ENDBLK
  5
9E2D
  8
0
  6
BYBLOCK
 62
     0
  0
BLOCK
  8
0
  2
A$C6B0F1CD5
 70
     2
 10
0.0
 20
0.0
 30
0.0
  3
A$C6B0F1CD5
  1

  0
ATTDEF
  5
B779
  8
DEFPOINTS
 10
0.0005209962714616
 20
0.000347009907216
 30
0.0
 40
0.001
  1
BATH FAUCET
  3

  2
PRODUCT
 70
     0
1001
ACDBATTR
1070
     0
1070
     1
  0
ATTDEF
  5
B77A
  8
DEFPOINTS
 10
0.0005209962714616
 20
0.0020136765738812
 30
0.0
 40
0.001
  1
SINGULIER
  3

  2
TRADENAME
 70
     0
1001
ACDBATTR
1070
     0
1070
     1
  0
ATTDEF
  5
B77B
  8
DEFPOINTS
 10
0.0005209962714616
 20
0.0036803432405463
 30
0.0
 40
0.001
  1
K-10873W
  3

  2
MODELNUMBER
 70
     0
1001
ACDBATTR
1070
     0
1070
     1
  0
ENDBLK
  5
B77F
  8
0
  0
ENDSEC
  0
SECTION
  2
ENTITIES
  0
ATTDEF
  5
13056
  8
DEFPOINTS
 10
3515.1636361669638973
 20
159.8573571604009089
 30
0.0
 40
0.001
  1
K-45372T-C4
  3

  2
MODELNUMBER
 70
     0
1001
ACDBATTR
1070
     0
1070
     1
  0
ATTDEF
  5
13057
  8
DEFPOINTS
 10
3515.1636361669638973
 20
159.8556904937341869
 30
0.0
 40
0.001
  1
STRAYT
  3

  2
TRADENAME
 70
     0
1001
ACDBATTR
1070
     0
1070
     1
  0
ATTDEF
  5
13058
  8
DEFPOINTS
 10
3515.1636361669638973
 20
159.854023827067607
 30
0.0
 40
0.001
  1
BATH AND SHOWER FAUCET
  3

  2
PRODUCT
 70
     0
1001
ACDBATTR
1070
     0
1070
     1
  0
LINE
  5
15D61
  8
0
 10
3491.7615694610258288
 20
199.4739722510618094
 30
0.0
 11
3501.7615694610258288
 21
199.4739722510618094
 31
0.0
  0
LINE
  5
15D62
  8
0
 10
3501.7615694610258288
 20
199.4739722510618094
 30
0.0
 11
3501.7615694610249193
 21
199.0802712719618057
 31
0.0
  0
ARC
  5
15D63
  8
0
 10
3501.7340105976900304
 20
199.0802712719344925
 30
0.0
 40
0.027558863334707
 50
269.9996013150130239
 51
0.0000000567268466
  0
LINE
  5
15D64
  8
0
 10
3501.7340104059248915
 20
199.0527124086005131
 30
0.0
 11
3491.7891284054999232
 21
199.0527124086005131
 31
0.0
  0
ARC
  5
15D65
  8
0
 10
3491.7892473988449638
 20
199.0803903467696898
 30
0.0
 40
0.0276781939568972
 50
180.2464938642673076
 51
269.7536747707271729
  0
LINE
  5
15D66
  8
0
 10
3491.7615694610258288
 20
199.0802712719618057
 30
0.0
 11
3491.7615694610258288
 21
199.4739722510618094
 31
0.0
  0
LINE
  5
15D67
  8
0
 10
3496.0430655240261331
 20
199.4739722510618094
 30
0.0
 11
3496.0430655240261331
 21
200.5409013848617974
 31
0.0
  0
LINE
  5
15D68
  8
0
 10
3496.0430655240261331
 20
200.5409013848617974
 30
0.0
 11
3497.4800703065261587
 21
200.5409013848617974
 31
0.0
  0
LINE
  5
15D69
  8
0
 10
3497.4800703065261587
 20
200.5409013848617974
 30
0.0
 11
3497.4800703065261587
 21
199.4739722510618094
 31
0.0
  0
LINE
  5
15D6A
  8
0
 10
3496.4269237917260398
 20
201.7231533533617949
 30
0.0
 11
3496.4269237917260398
 21
201.5263029596617912
 31
0.0
  0
LINE
  5
15D6B
  8
0
 10
3496.2855064724781187
 20
201.5133423297617981
 30
0.0
 11
3497.2376324495739937
 21
201.5133423297617981
 31
0.0
  0
ARC
  5
15D6C
  8
0
 10
3497.2376324495739937
 20
201.4933423262098984
 30
0.0
 40
0.020000003551953
 50
0.0000101755944942
 51
90.0
  0
LINE
  5
15D6D
  8
0
 10
3497.257632453126007
 20
201.4933423297617878
 30
0.0
 11
3497.2576324531760292
 21
200.9764906419617887
 31
0.0
  0
ARC
  5
15D6E
  8
0
 10
3497.0292859961009526
 20
200.976490642182597
 30
0.0
 40
0.2283464570750774
 50
291.9122123225128007
 51
359.9999999445889216
  0
ARC
  5
15D6F
  8
0
 10
3497.140624579130872
 20
200.6996977080573004
 30
0.0
 40
0.0700000000063307
 50
111.912212269967398
 51
230.6290103957539941
  0
ARC
  5
15D70
  8
0
 10
3496.7615694610249193
 20
200.2377517785618011
 30
0.0
 40
0.5275590551000501
 50
35.0735055590779865
 51
50.6290104727732526
  0
ARC
  5
15D71
  8
0
 10
3496.2855064725781631
 20
201.4933423262098984
 30
0.0
 40
0.020000003551953
 50
90.0
 51
179.9999898244055032
  0
LINE
  5
15D72
  8
0
 10
3496.2655064690261497
 20
201.4933423297617878
 30
0.0
 11
3496.2655064689761275
 21
200.9764906419839008
 31
0.0
  0
ARC
  5
15D73
  8
0
 10
3496.4938529260512041
 20
200.976490642182597
 30
0.0
 40
0.228346457075034
 50
180.0000000554013013
 51
248.0877876774877961
  0
ARC
  5
15D74
  8
0
 10
3496.3825143430199205
 20
200.6996977080573004
 30
0.0
 40
0.0700000000063307
 50
309.3709896042460059
 51
68.0877877300325736
  0
ARC
  5
15D75
  8
0
 10
3496.7615694611258732
 20
200.2377517785618011
 30
0.0
 40
0.5275590551000501
 50
129.3709895272268113
 51
144.9264944409219993
  0
LINE
  5
15D76
  8
0
 10
3496.3942781224250211
 20
201.5133423297617981
 30
0.0
 11
3496.4072387523260659
 21
201.5263029596617912
 31
0.0
  0
LINE
  5
15D77
  8
0
 10
3496.4072387523260659
 20
201.5263029596617912
 30
0.0
 11
3497.1159001697260464
 21
201.5263029596617912
 31
0.0
  0
LINE
  5
15D78
  8
0
 10
3497.1159001697260464
 20
201.5263029596617912
 30
0.0
 11
3497.1288607996261817
 21
201.5133423297617981
 31
0.0
  0
LINE
  5
15D79
  8
0
 10
3497.096215130325163
 20
201.5263029596617912
 30
0.0
 11
3497.096215130325163
 21
201.7231533533617949
 31
0.0
  0
LINE
  5
15D7A
  8
0
 10
3496.4086373305208326
 20
200.7646406793448932
 30
0.0
 11
3497.1145015913989482
 21
200.7646406793448932
 31
0.0
  0
LINE
  5
15D7B
  8
0
 10
3492.4481516952378115
 20
199.0527124086065953
 30
0.0
 11
3492.4550224374261234
 21
199.0038245372618064
 31
0.0
  0
ARC
  5
15D7C
  8
0
 10
3492.4667185169191725
 20
199.0054683140226928
 30
0.0
 40
0.0118110235609014
 50
187.999999933476488
 51
270.000000517011415
  0
LINE
  5
15D7D
  8
0
 10
3492.4667185170260382
 20
198.9936572904618117
 30
0.0
 11
3492.5524221124260293
 21
198.9936572912351096
 31
0.0
  0
ARC
  5
15D7E
  8
0
 10
3492.5524221123177995
 20
199.0055389998894952
 30
0.0
 40
0.0118817086543999
 50
270.000000517011415
 51
351.7035852900359032
  0
LINE
  5
15D7F
  8
0
 10
3492.5641794767561805
 20
199.0038245372819006
 30
0.0
 11
3492.571050219009976
 21
199.0527124086065953
 31
0.0
  0
LINE
  5
15D80
  8
0
 10
3493.1568131125882246
 20
199.0527124086065953
 30
0.0
 11
3493.1636838547760817
 21
199.0038245372618064
 31
0.0
  0
ARC
  5
15D81
  8
0
 10
3493.1753799342700404
 20
199.0054683140226928
 30
0.0
 40
0.0118110235609014
 50
187.999999933476488
 51
270.000000517011415
  0
LINE
  5
15D82
  8
0
 10
3493.1753799343759965
 20
198.9936572904618117
 30
0.0
 11
3493.2610835297759877
 21
198.9936572912351096
 31
0.0
  0
ARC
  5
15D83
  8
0
 10
3493.2610835296691221
 20
199.0055389998894952
 30
0.0
 40
0.0118817086543999
 50
270.000000517011415
 51
351.7035852900359032
  0
LINE
  5
15D84
  8
0
 10
3493.2728408941061389
 20
199.0038245372819006
 30
0.0
 11
3493.2797116363599343
 21
199.0527124086065953
 31
0.0
  0
LINE
  5
15D85
  8
0
 10
3493.865474529938183
 20
199.0527124086065953
 30
0.0
 11
3493.8723452721260401
 21
199.0038245372618064
 31
0.0
  0
ARC
  5
15D86
  8
0
 10
3493.8840413516190893
 20
199.0054683140226928
 30
0.0
 40
0.0118110235609014
 50
187.999999933476488
 51
270.000000517011415
  0
LINE
  5
15D87
  8
0
 10
3493.8840413517259549
 20
198.9936572904618117
 30
0.0
 11
3493.9697449471259461
 21
198.9936572912351096
 31
0.0
  0
ARC
  5
15D88
  8
0
 10
3493.9697449470181709
 20
199.0055389998894952
 30
0.0
 40
0.0118817086543999
 50
270.000000517011415
 51
351.7035852900359032
  0
LINE
  5
15D89
  8
0
 10
3493.9815023114560972
 20
199.0038245372819006
 30
0.0
 11
3493.9883730537098927
 21
199.0527124086065953
 31
0.0
  0
LINE
  5
15D8A
  8
0
 10
3494.5741359472381191
 20
199.0527124086065953
 30
0.0
 11
3494.5810066894259762
 21
199.0038245372618064
 31
0.0
  0
ARC
  5
15D8B
  8
0
 10
3494.5927027689190254
 20
199.0054683140226928
 30
0.0
 40
0.0118110235609014
 50
187.999999933476488
 51
270.000000517011415
  0
LINE
  5
15D8C
  8
0
 10
3494.592702769025891
 20
198.9936572904618117
 30
0.0
 11
3494.6784063644249727
 21
198.9936572912351096
 31
0.0
  0
ARC
  5
15D8D
  8
0
 10
3494.6784063643190166
 20
199.0055389998894952
 30
0.0
 40
0.0118817086543999
 50
270.000000517011415
 51
351.7035852900359032
  0
LINE
  5
15D8E
  8
0
 10
3494.6901637287560334
 20
199.0038245372819006
 30
0.0
 11
3494.6970344710098288
 21
199.0527124086065953
 31
0.0
  0
LINE
  5
15D8F
  8
0
 10
3495.2827973645380553
 20
199.0527124086065953
 30
0.0
 11
3495.2896681067259124
 21
199.0038245372618064
 31
0.0
  0
ARC
  5
15D90
  8
0
 10
3495.3013641862189615
 20
199.0054683140226928
 30
0.0
 40
0.0118110235609014
 50
187.999999933476488
 51
270.000000517011415
  0
LINE
  5
15D91
  8
0
 10
3495.3013641863258272
 20
198.9936572904618117
 30
0.0
 11
3495.3870677817258183
 21
198.9936572912351096
 31
0.0
  0
ARC
  5
15D92
  8
0
 10
3495.3870677816189527
 20
199.0055389998894952
 30
0.0
 40
0.0118817086543999
 50
270.000000517011415
 51
351.7035852900359032
  0
LINE
  5
15D93
  8
0
 10
3495.3988251460559695
 20
199.0038245372819006
 30
0.0
 11
3495.4056958883102197
 21
199.0527124086065953
 31
0.0
  0
LINE
  5
15D94
  8
0
 10
3495.9914587818880136
 20
199.0527124086065953
 30
0.0
 11
3495.9983295240758707
 21
199.0038245372618064
 31
0.0
  0
ARC
  5
15D95
  8
0
 10
3496.0100256035689199
 20
199.0054683140226928
 30
0.0
 40
0.0118110235609014
 50
187.999999933476488
 51
270.000000517011415
  0
LINE
  5
15D96
  8
0
 10
3496.0100256036757855
 20
198.9936572904618117
 30
0.0
 11
3496.0957291990757767
 21
198.9936572912351096
 31
0.0
  0
ARC
  5
15D97
  8
0
 10
3496.0957291989689111
 20
199.0055389998894952
 30
0.0
 40
0.0118817086543999
 50
270.000000517011415
 51
351.7035852900359032
  0
LINE
  5
15D98
  8
0
 10
3496.1074865634059279
 20
199.0038245372819006
 30
0.0
 11
3496.1143573056610876
 21
199.0527124086065953
 31
0.0
  0
LINE
  5
15D99
  8
0
 10
3496.7001201991879498
 20
199.0527124086065953
 30
0.0
 11
3496.7069909413748974
 21
199.0038245372618064
 31
0.0
  0
ARC
  5
15D9A
  8
0
 10
3496.7186870208688561
 20
199.0054683140226928
 30
0.0
 40
0.0118110235609014
 50
187.999999933476488
 51
270.000000517011415
  0
LINE
  5
15D9B
  8
0
 10
3496.7186870209761764
 20
198.9936572904618117
 30
0.0
 11
3496.8043906163761676
 21
198.9936572912351096
 31
0.0
  0
ARC
  5
15D9C
  8
0
 10
3496.8043906162688472
 20
199.0055389998894952
 30
0.0
 40
0.0118817086543999
 50
270.000000517011415
 51
351.7035852900359032
  0
LINE
  5
15D9D
  8
0
 10
3496.816147980705864
 20
199.0038245372819006
 30
0.0
 11
3496.8230187229601142
 21
199.0527124086065953
 31
0.0
  0
LINE
  5
15D9E
  8
0
 10
3497.4087816165379081
 20
199.0527124086065953
 30
0.0
 11
3497.41565235872622
 21
199.0038245372618064
 31
0.0
  0
ARC
  5
15D9F
  8
0
 10
3497.4273484382188144
 20
199.0054683140226928
 30
0.0
 40
0.0118110235609014
 50
187.999999933476488
 51
270.000000517011415
  0
LINE
  5
15DA0
  8
0
 10
3497.4273484383261348
 20
198.9936572904618117
 30
0.0
 11
3497.513052033726126
 21
198.9936572912351096
 31
0.0
  0
ARC
  5
15DA1
  8
0
 10
3497.5130520336188056
 20
199.0055389998894952
 30
0.0
 40
0.0118817086543999
 50
270.000000517011415
 51
351.7035852900359032
  0
LINE
  5
15DA2
  8
0
 10
3497.5248093980558224
 20
199.0038245372819006
 30
0.0
 11
3497.5316801403109821
 21
199.0527124086065953
 31
0.0
  0
LINE
  5
15DA3
  8
0
 10
3498.1174430338378443
 20
199.0527124086065953
 30
0.0
 11
3498.1243137760261561
 21
199.0038245372618064
 31
0.0
  0
ARC
  5
15DA4
  8
0
 10
3498.1360098555201148
 20
199.0054683140226928
 30
0.0
 40
0.0118110235609014
 50
187.999999933476488
 51
270.000000517011415
  0
LINE
  5
15DA5
  8
0
 10
3498.1360098556260709
 20
198.9936572904618117
 30
0.0
 11
3498.2217134510260621
 21
198.9936572912351096
 31
0.0
  0
ARC
  5
15DA6
  8
0
 10
3498.2217134509191965
 20
199.0055389998894952
 30
0.0
 40
0.0118817086543999
 50
270.000000517011415
 51
351.7035852900359032
  0
LINE
  5
15DA7
  8
0
 10
3498.2334708153562133
 20
199.0038245372819006
 30
0.0
 11
3498.2403415576100087
 21
199.0527124086065953
 31
0.0
  0
LINE
  5
15DA8
  8
0
 10
3498.8261044511377804
 20
199.0527124086065953
 30
0.0
 11
3498.8329751933260923
 21
199.0038245372618064
 31
0.0
  0
ARC
  5
15DA9
  8
0
 10
3498.8446712728191414
 20
199.0054683140226928
 30
0.0
 40
0.0118110235609014
 50
187.999999933476488
 51
270.000000517011415
  0
LINE
  5
15DAA
  8
0
 10
3498.8446712729260071
 20
198.9936572904618117
 30
0.0
 11
3498.9303748683259982
 21
198.9936572912351096
 31
0.0
  0
ARC
  5
15DAB
  8
0
 10
3498.9303748682182231
 20
199.0055389998894952
 30
0.0
 40
0.0118817086543999
 50
270.000000517011415
 51
351.7035852900359032
  0
LINE
  5
15DAC
  8
0
 10
3498.9421322326561494
 20
199.0038245372819006
 30
0.0
 11
3498.9490029749108544
 21
199.0527124086065953
 31
0.0
  0
LINE
  5
15DAD
  8
0
 10
3499.5347658684881935
 20
199.0527124086065953
 30
0.0
 11
3499.5416366106760506
 21
199.0038245372618064
 31
0.0
  0
ARC
  5
15DAE
  8
0
 10
3499.5533326901690998
 20
199.0054683140226928
 30
0.0
 40
0.0118110235609014
 50
187.999999933476488
 51
270.000000517011415
  0
LINE
  5
15DAF
  8
0
 10
3499.5533326902759654
 20
198.9936572904618117
 30
0.0
 11
3499.6390362856759566
 21
198.9936572912351096
 31
0.0
  0
ARC
  5
15DB0
  8
0
 10
3499.6390362855681815
 20
199.0055389998894952
 30
0.0
 40
0.0118817086543999
 50
270.000000517011415
 51
351.7035852900359032
  0
LINE
  5
15DB1
  8
0
 10
3499.6507936500061078
 20
199.0038245372819006
 30
0.0
 11
3499.6576643922599033
 21
199.0527124086065953
 31
0.0
  0
LINE
  5
15DB2
  8
0
 10
3500.2434272858381519
 20
199.0527124086065953
 30
0.0
 11
3500.250298028026009
 21
199.0038245372618064
 31
0.0
  0
ARC
  5
15DB3
  8
0
 10
3500.2619941075190582
 20
199.0054683140226928
 30
0.0
 40
0.0118110235609014
 50
187.999999933476488
 51
270.000000517011415
  0
LINE
  5
15DB4
  8
0
 10
3500.2619941076259238
 20
198.9936572904618117
 30
0.0
 11
3500.347697703025915
 21
198.9936572912351096
 31
0.0
  0
ARC
  5
15DB5
  8
0
 10
3500.3476977029181398
 20
199.0055389998894952
 30
0.0
 40
0.0118817086543999
 50
270.000000517011415
 51
351.7035852900359032
  0
LINE
  5
15DB6
  8
0
 10
3500.3594550673560661
 20
199.0038245372819006
 30
0.0
 11
3500.3663258096098616
 21
199.0527124086065953
 31
0.0
  0
LINE
  5
15DB7
  8
0
 10
3500.952088703138088
 20
199.0527124086065953
 30
0.0
 11
3500.9589594453259451
 21
199.0038245372618064
 31
0.0
  0
ARC
  5
15DB8
  8
0
 10
3500.9706555248189943
 20
199.0054683140226928
 30
0.0
 40
0.0118110235609014
 50
187.999999933476488
 51
270.000000517011415
  0
LINE
  5
15DB9
  8
0
 10
3500.9706555249258599
 20
198.9936572904618117
 30
0.0
 11
3501.0563591203258511
 21
198.9936572912351096
 31
0.0
  0
ARC
  5
15DBA
  8
0
 10
3501.0563591202189855
 20
199.0055389998894952
 30
0.0
 40
0.0118817086543999
 50
270.000000517011415
 51
351.7035852900359032
  0
LINE
  5
15DBB
  8
0
 10
3501.0681164846560023
 20
199.0038245372819006
 30
0.0
 11
3501.0749872269097978
 21
199.0527124086065953
 31
0.0
  0
LINE
  5
15DBC
  8
0
 10
3496.5577080911762096
 20
200.5409013848617974
 30
0.0
 11
3496.5577080911762096
 21
200.0684604399617967
 31
0.0
  0
LINE
  5
15DBD
  8
0
 10
3496.5577080911762096
 20
200.0684604399617967
 30
0.0
 11
3496.9654308309759472
 21
200.0684604399617967
 31
0.0
  0
LINE
  5
15DBE
  8
0
 10
3496.9654308309759472
 20
200.0684604399617967
 30
0.0
 11
3496.9654308309759472
 21
200.5409013848617974
 31
0.0
  0
ARC
  5
15DBF
  8
0
 10
3496.6702973485230359
 20
200.979402894505796
 30
0.0
 40
0.107020396977195
 50
181.5593324683875096
 51
233.3955881991371939
  0
ARC
  5
15DC0
  8
0
 10
3496.7495903860258295
 20
201.0861538864083968
 30
0.0
 40
0.2399984405360448
 50
233.3955881991371939
 51
266.1996691470766905
  0
ARC
  5
15DC1
  8
0
 10
3496.7551793979750983
 20
201.1702931533652929
 30
0.0
 40
0.3243231302693042
 50
266.1996691470766905
 51
294.1935165399266907
  0
ARC
  5
15DC2
  8
0
 10
3496.8380342645650671
 20
200.9858769048624083
 30
0.0
 40
0.1221492406857032
 50
294.1935165399266907
 51
355.5928999923498282
  0
LINE
  5
15DC3
  8
0
 10
3496.9598223389762097
 20
200.9764906419617887
 30
0.0
 11
3496.959822339054881
 21
201.3440509911617937
 31
0.0
  0
ARC
  5
15DC4
  8
0
 10
3496.7615694611149593
 20
200.8893265819517069
 30
0.0
 40
0.4960629919101326
 50
66.4435356790908003
 51
113.5564643209091997
  0
LINE
  5
15DC5
  8
0
 10
3496.563316583175947
 20
201.3440509911617937
 30
0.0
 11
3496.563316583175947
 21
200.9764906419619024
 31
0.0
  0
LINE
  5
15DC6
  8
0
 10
3496.563316583175947
 20
201.3440509911617937
 30
0.0
 11
3496.9598223389762097
 21
201.3440509911617937
 31
0.0
  0
ARC
  5
15DC7
  8
0
 10
3495.600152138275007
 20
201.7428383927617972
 30
0.0
 40
0.0196850394000165
 50
180.0000000000308944
 51
269.9999999999739089
  0
LINE
  5
15DC8
  8
0
 10
3495.5804670988750331
 20
201.7428383927617972
 30
0.0
 11
3495.5804670988750331
 21
202.4908698888617948
 31
0.0
  0
ARC
  5
15DC9
  8
0
 10
3495.6001521381049315
 20
202.490869888932508
 30
0.0
 40
0.0196850392292873
 50
89.9999995031291746
 51
180.0000002057782922
  0
LINE
  5
15DCA
  8
0
 10
3495.6001521381049315
 20
202.5105549281618096
 30
0.0
 11
3512.5096009571761897
 21
202.5105549281618096
 31
0.0
  0
LINE
  5
15DCB
  8
0
 10
3512.5096009571761897
 20
202.5105549281618096
 30
0.0
 11
3512.5096009571761897
 21
190.8107506406473135
 31
0.0
  0
LINE
  5
15DCC
  8
0
 10
3495.600152138275007
 20
201.7231533533617949
 30
0.0
 11
3512.5096009571761897
 21
201.7231533533617949
 31
0.0
  0
LINE
  5
15DCD
  8
0
 10
3512.5096009571761897
 20
201.7231533533617949
 30
0.0
 11
3511.7221993823759476
 21
201.7231533533617949
 31
0.0
  0
LINE
  5
15DCE
  8
0
 10
3511.7221993823759476
 20
201.7231533533617949
 30
0.0
 11
3511.7221993823759476
 21
194.0320769141617916
 31
0.0
  0
ARC
  5
15DCF
  8
0
 10
3510.0537047161369628
 20
196.2367767671130991
 30
0.0
 40
0.0394733643932406
 50
107.0198977866951964
 51
178.5977248202044052
  0
LINE
  5
15DD0
  8
0
 10
3510.014243173273826
 20
196.2377427543783028
 30
0.0
 11
3510.0128267553318437
 21
196.1768323283129121
 31
0.0
  0
ARC
  5
15DD1
  8
0
 10
3509.39016572645005
 20
196.0954925298713079
 30
0.0
 40
0.6279513673044991
 50
7.148831756895424
 51
7.4425494102698169
  0
ARC
  5
15DD2
  8
0
 10
3508.569528186358184
 20
195.5056641347723883
 30
0.0
 40
1.590748807168975
 50
19.7914704419755907
 51
24.8290577392562497
  0
ARC
  5
15DD3
  8
0
 10
3498.5495801816368839
 20
192.6876234208839946
 30
0.0
 40
11.9959302124848808
 50
13.7289354255364398
 51
16.2492811802815105
  0
ARC
  5
15DD4
  8
0
 10
3680.8335070978801014
 20
239.9872072297139027
 30
0.0
 40
176.3260596285423105
 50
194.6020844964317007
 51
195.3348043148619979
  0
ARC
  5
15DD5
  8
0
 10
2089.820482132970028
 20
-204.6443025019574975
 30
0.0
 40
1475.650742944600097
 50
15.5905618845842504
 51
15.6471217115875607
  0
ARC
  5
15DD6
  8
0
 10
3498.3163778194170845
 20
188.3250816775380088
 30
0.0
 40
13.3629928603387498
 50
14.3451415433035407
 51
15.7542891625642802
  0
ARC
  5
15DD7
  8
0
 10
3507.0328640659549819
 20
190.5888446763549098
 30
0.0
 40
4.3575333605180138
 50
9.5521442993978152
 51
13.9038249725019494
  0
ARC
  5
15DD8
  8
0
 10
3514.2937899492781071
 20
191.6765879944638868
 30
0.0
 40
2.9861555247025331
 50
187.0137446364971936
 51
192.0316518651285094
  0
ARC
  5
15DD9
  8
0
 10
3505.3183079505570277
 20
189.6070261647217876
 30
0.0
 40
6.2254466351509521
 50
10.9963412910645797
 51
13.4412299033972893
  0
ARC
  5
15DDA
  8
0
 10
3510.1570482728020579
 20
190.537558216329586
 30
0.0
 40
1.298088043147769
 50
358.4004364093308936
 51
11.4167641305097298
  0
ARC
  5
15DDB
  8
0
 10
3509.5349783184801709
 20
190.5627921712340935
 30
0.0
 40
1.9206360570023091
 50
350.0941941692545925
 51
358.1659694034934205
  0
ARC
  5
15DDC
  8
0
 10
3511.4389115749950179
 20
190.2322061245724001
 30
0.0
 40
0.0119316095410955
 50
179.1303338882536877
 51
187.359388432173489
  0
ARC
  5
15DDD
  8
0
 10
3493.0365968090818569
 20
187.967390483918706
 30
0.0
 40
18.5292276468278487
 50
1.6723661814600841
 51
7.0160211924927172
  0
ARC
  5
15DDE
  8
0
 10
3412.7503607324711083
 20
186.5382242130555994
 30
0.0
 40
98.8272064867584845
 50
0.1416243199474411
 51
1.142154362149814
  0
ARC
  5
15DDF
  8
0
 10
3494.8825343902549321
 20
185.977395755799904
 30
0.0
 40
17.1398963457316604
 50
17.6413765235960582
 51
19.8475902026290001
  0
ARC
  5
15DE0
  8
0
 10
3505.4405589307471018
 20
188.9908730841383999
 30
0.0
 40
6.173850652554715
 50
17.788176835070221
 51
20.6861839392216496
  0
ARC
  5
15DE1
  8
0
 10
3510.2938095143608734
 20
190.5725052967038948
 30
0.0
 40
1.0696903010143879
 50
1.473611356980091
 51
16.5370655330990388
  0
ARC
  5
15DE2
  8
0
 10
3506.1926825222849402
 20
189.5461250771946879
 30
0.0
 40
5.2767769447712762
 50
8.0044735918011671
 51
11.5207083906985801
  0
ARC
  5
15DE3
  8
0
 10
3511.4297506864259049
 20
190.2825175923800884
 30
0.0
 40
0.0118105637803293
 50
187.7815608044950011
 51
270.0
  0
LINE
  5
15DE4
  8
0
 10
3510.0246495090427743
 20
196.1483955746253969
 30
0.0
 11
3510.0172768797310709
 21
196.146309570564398
 31
0.0
  0
ARC
  5
15DE5
  8
0
 10
3510.0205730896659588
 20
196.1346596728299119
 30
0.0
 40
0.0121072340837934
 50
105.7982749450758035
 51
178.4392782104918922
  0
ARC
  5
15DE6
  8
0
 10
3516.1797089028359551
 20
196.0705192495304914
 30
0.0
 40
6.1715753026163798
 50
179.4014597176264942
 51
182.4260418955541923
  0
ARC
  5
15DE7
  8
0
 10
3509.9833384520770778
 20
195.8364586345913096
 30
0.0
 40
0.029232022283842
 50
286.9417439036366773
 51
0.1702026243213168
  0
ARC
  5
15DE8
  8
0
 10
3510.155595957875903
 20
195.1160466644425924
 30
0.0
 40
0.7115445102019275
 50
103.3040287354360061
 51
106.0106201231707956
  0
ARC
  5
15DE9
  8
0
 10
3509.9666321557870106
 20
195.7734088483634878
 30
0.0
 40
0.0275637642161204
 50
105.3385514850638032
 51
182.6379892748354905
  0
LINE
  5
15DEA
  8
0
 10
3509.9390976016397872
 20
195.7721402169233897
 30
0.0
 11
3509.9433089165299862
 21
195.6912575928469948
 31
0.0
  0
ARC
  5
15DEB
  8
0
 10
3509.9701084906309916
 20
195.6923759397407139
 30
0.0
 40
0.0268228982731179
 50
182.3895678871126051
 51
223.0085644131171989
  0
LINE
  5
15DEC
  8
0
 10
3510.0220878524419277
 20
195.7767439240585929
 30
0.0
 11
3510.0182018181881176
 21
195.8237416689563872
 31
0.0
  0
ARC
  5
15DED
  8
0
 10
3510.0115005417342218
 20
195.8228630250314097
 30
0.0
 40
0.0067586330911885
 50
7.4697771937247897
 51
18.4819590086912413
  0
ARC
  5
15DEE
  8
0
 10
3510.0177929110541299
 20
195.8249598495480086
 30
0.0
 40
0.0001262406443196
 50
21.2249559272356301
 51
130.4199996849565082
  0
ARC
  5
15DEF
  8
0
 10
3510.0214340514889955
 20
195.8239569131511075
 30
0.0
 40
0.0038818265117665
 50
163.553153752685688
 51
175.1542824549100033
  0
ARC
  5
15DF0
  8
0
 10
3510.129220812506901
 20
195.8168191055505929
 30
0.0
 40
0.1119040297063099
 50
176.1746504973415881
 51
178.7310648328854938
  0
ARC
  5
15DF1
  8
0
 10
3509.9900052920561393
 20
195.8236507095035108
 30
0.0
 40
0.0276833864938626
 50
328.7223800339027093
 51
350.9521749839566951
  0
ARC
  5
15DF2
  8
0
 10
3509.9904973010588947
 20
195.822879945269591
 30
0.0
 40
0.0268657430330035
 50
284.7451647114846196
 51
329.5825158535063224
  0
ARC
  5
15DF3
  8
0
 10
3511.1290537317408962
 20
191.5742147446707975
 30
0.0
 40
4.3717100622661018
 50
105.0032120486785061
 51
105.4395922635332994
  0
ARC
  5
15DF4
  8
0
 10
3509.9726847309530058
 20
195.7613296711394071
 30
0.0
 40
0.0278500279697462
 50
105.5745879133871057
 51
177.2046077435664131
  0
ARC
  5
15DF5
  8
0
 10
3511.702549121327138
 20
195.8164644027503982
 30
0.0
 40
1.7585037358680209
 50
181.7524256214366005
 51
184.3920699326299939
  0
ARC
  5
15DF6
  8
0
 10
3510.00473168269491
 20
195.6870750248729962
 30
0.0
 40
0.0557725699795989
 50
185.4309432144335119
 51
193.4739501529768972
  0
ARC
  5
15DF7
  8
0
 10
3509.9768947476859466
 20
195.6804633509455869
 30
0.0
 40
0.0271613370348496
 50
193.5929286744766955
 51
258.247555480267124
  0
ARC
  5
15DF8
  8
0
 10
3510.0355894165368227
 20
195.6641179054093129
 30
0.0
 40
0.0288497653745199
 50
105.738966058175393
 51
178.1589814405396908
  0
ARC
  5
15DF9
  8
0
 10
3510.3454589682228288
 20
195.6627563174425006
 30
0.0
 40
0.3387121559742853
 50
179.6128923817396128
 51
193.2037803370623976
  0
ARC
  5
15DFA
  8
0
 10
3510.0515284753528249
 20
195.5921562068178901
 30
0.0
 40
0.0364608544415268
 50
190.6956802374974984
 51
229.3174729621887025
  0
ARC
  5
15DFB
  8
0
 10
3510.0452861492708507
 20
195.5868299711291911
 30
0.0
 40
0.028380687819503
 50
231.8656010837572126
 51
284.9040556298485853
  0
LINE
  5
15DFC
  8
0
 10
3510.0525847889512079
 20
195.5594036416597987
 30
0.0
 11
3510.0647317846019178
 21
195.562733684331107
 31
0.0
  0
ARC
  5
15DFD
  8
0
 10
3510.0717716068479604
 20
195.5370545268411036
 30
0.0
 40
0.0266266450502977
 50
37.5633879488975566
 51
105.3307176013409929
  0
ARC
  5
15DFE
  8
0
 10
3510.2019792673809206
 20
195.584139208151214
 30
0.0
 40
0.1133796081179487
 50
195.7900314454876991
 51
198.1972830734922866
  0
ARC
  5
15DFF
  8
0
 10
3510.1267882107172227
 20
195.5583173301735087
 30
0.0
 40
0.0339014157958176
 50
196.4240495470542101
 51
211.265040202067496
  0
ARC
  5
15E00
  8
0
 10
3510.1000286148041596
 20
195.542031066837211
 30
0.0
 40
0.0025756425444233
 50
210.5323957210075889
 51
253.8754199958951006
  0
ARC
  5
15E01
  8
0
 10
3510.0993298792800488
 20
195.5408042157062027
 30
0.0
 40
0.001247576188695
 50
269.2380959606689999
 51
328.8604478264998079
  0
ARC
  5
15E02
  8
0
 10
3509.9950549785021394
 20
195.561811196787005
 30
0.0
 40
0.107544884951919
 50
348.3851894033094254
 51
6.0601894325335373
  0
ARC
  5
15E03
  8
0
 10
3509.2871762886361466
 20
195.5214699196968979
 30
0.0
 40
0.816460775516502
 50
3.6301748301210699
 51
8.1385060977461823
  0
ARC
  5
15E04
  8
0
 10
3509.2763432598549116
 20
195.5288770408095047
 30
0.0
 40
0.8261836757836341
 50
7.5236297345415091
 51
12.9255016816245494
  0
ARC
  5
15E05
  8
0
 10
3509.989060638367846
 20
195.6920110069767134
 30
0.0
 40
0.095035813160708
 50
13.1805255399843997
 51
21.4082187042511087
  0
ARC
  5
15E06
  8
0
 10
3510.0692179786587985
 20
195.7234334505965876
 30
0.0
 40
0.0089395356118636
 50
21.4329176276416185
 51
41.2521308328752809
  0
ARC
  5
15E07
  8
0
 10
3510.0753025811650332
 20
195.7287797699927125
 30
0.0
 40
0.0008398483887376
 50
40.7461031371831197
 51
159.0413164665382908
  0
ARC
  5
15E08
  8
0
 10
3510.0913124603980577
 20
195.722440196352693
 30
0.0
 40
0.0180591598114464
 50
158.4274227565256865
 51
178.7905618939753083
  0
ARC
  5
15E09
  8
0
 10
3510.0450425426079164
 20
195.7219999324694868
 30
0.0
 40
0.0282267363066946
 50
342.4302633211632951
 51
1.6676289349080291
  0
ARC
  5
15E0A
  8
0
 10
3510.0475571660649621
 20
195.7255220836387082
 30
0.0
 40
0.0272059380440405
 50
285.5126648311231747
 51
333.7265744153522178
  0
ARC
  5
15E0B
  8
0
 10
3747.8575032424610072
 20
-671.7604050865885483
 30
0.0
 40
899.4645419614304274
 50
105.3302631298974035
 51
105.3320509672133056
  0
ARC
  5
15E0C
  8
0
 10
3508.2768677703747926
 20
195.5517293310130924
 30
0.0
 40
1.7783458119335489
 50
4.7103613837934413
 51
7.5262488241618168
  0
ARC
  5
15E0D
  8
0
 10
3509.8759266497208955
 20
195.762994742825498
 30
0.0
 40
0.1653912639559042
 50
7.5262488241618168
 51
13.0465031691609106
  0
ARC
  5
15E0E
  8
0
 10
3510.028131717243923
 20
195.7982641949940046
 30
0.0
 40
0.0091532505396114
 50
13.0465031691228308
 51
24.6909279632342518
  0
ARC
  5
15E0F
  8
0
 10
3510.0344940331819998
 20
195.8011893129522889
 30
0.0
 40
0.0021507239121424
 50
24.6909279631429506
 51
45.4565777416255514
  0
ARC
  5
15E10
  8
0
 10
3510.0358443798781991
 20
195.8025613542307042
 30
0.0
 40
0.0002256437925675
 50
45.4565777417360906
 51
171.6109765718613005
  0
ARC
  5
15E11
  8
0
 10
3510.0439474802519726
 20
195.799290983523008
 30
0.0
 40
0.008957650247258
 50
158.3603714765552013
 51
175.7909232938719981
  0
ARC
  5
15E12
  8
0
 10
3509.9920022806959423
 20
195.8005864477437115
 30
0.0
 40
0.0430164409448623
 50
347.0916372320467076
 51
359.1501751858558009
  0
ARC
  5
15E13
  8
0
 10
3510.0088134337829615
 20
195.7998343674458965
 30
0.0
 40
0.0266341654000587
 50
299.8940786678335257
 51
340.5757528553887141
  0
ARC
  5
15E14
  8
0
 10
3509.8958887839107774
 20
196.1271047362108959
 30
0.0
 40
0.3723961648434487
 50
283.8446774992082169
 51
289.8088904452520751
  0
ARC
  5
15E15
  8
0
 10
3509.9931786439619827
 20
195.7377267427397953
 30
0.0
 40
0.028978842977175
 50
106.3938428505645959
 51
182.4989683900093098
  0
ARC
  5
15E16
  8
0
 10
3510.3353532017767975
 20
195.726915856288997
 30
0.0
 40
0.371248626830271
 50
178.5263670047729931
 51
191.3439121803282887
  0
ARC
  5
15E17
  8
0
 10
3509.9991609726312163
 20
195.6594669011346923
 30
0.0
 40
0.0283571332549673
 50
191.3377154282705987
 51
266.45469301012389
  0
ARC
  5
15E18
  8
0
 10
3509.9989239945748523
 20
195.6599509754956898
 30
0.0
 40
0.0288268585183355
 50
266.9843092374699154
 51
288.5403042224426144
  0
ARC
  5
15E19
  8
0
 10
3510.0055550413280798
 20
195.7119355540893935
 30
0.0
 40
0.0394425235062684
 50
176.1763866481007881
 51
181.1076367714989033
  0
ARC
  5
15E1A
  8
0
 10
3509.9676965828948596
 20
195.714465782021108
 30
0.0
 40
0.0014996067980263
 50
155.9972904868199066
 51
176.1763866478895011
  0
ARC
  5
15E1B
  8
0
 10
3509.9674306301972138
 20
195.714087208556009
 30
0.0
 40
0.0014819119702733
 50
120.9968010121334032
 51
138.1563758537234037
  0
ARC
  5
15E1C
  8
0
 10
3509.9603915817469897
 20
195.7129548290255912
 30
0.0
 40
0.0067200792233319
 50
11.7160035647225698
 51
20.9489354590800012
  0
ARC
  5
15E1D
  8
0
 10
3509.78243942276913
 20
195.6813347818631996
 30
0.0
 40
0.1874570108961617
 50
4.4868096074780821
 51
10.1344346741898796
  0
ARC
  5
15E1E
  8
0
 10
3509.6936913652598378
 20
195.6674806131804019
 30
0.0
 40
0.2771020438859325
 50
0.4151817972450389
 51
5.9072403895537722
  0
ARC
  5
15E1F
  8
0
 10
3509.9604553981871504
 20
195.6698374894031076
 30
0.0
 40
0.0103366269637038
 50
350.4075998845584081
 51
358.0655061256779277
  0
ARC
  5
15E20
  8
0
 10
3509.9691797179430068
 20
195.6684006121149082
 30
0.0
 40
0.0014953092719459
 50
335.7012335808860257
 51
348.9891217576212057
  0
ARC
  5
15E21
  8
0
 10
3509.9704514743839354
 20
195.6678191127220998
 30
0.0
 40
0.0000971599187604
 50
273.6224926193439728
 51
339.6344307973570267
  0
ARC
  5
15E22
  8
0
 10
3509.9705029244191792
 20
195.6679441282958862
 30
0.0
 40
0.0002265586823141
 50
196.8611994392724966
 51
258.4631672873499042
  0
ARC
  5
15E23
  8
0
 10
3510.1131988914657995
 20
195.6978002025124113
 30
0.0
 40
0.1460115674751647
 50
183.5095818628419124
 51
191.8252562102580043
  0
ARC
  5
15E24
  8
0
 10
3510.2573540793359825
 20
195.7174853209369019
 30
0.0
 40
0.2913025890373231
 50
181.2416360452866115
 51
185.6389608972669976
  0
ARC
  5
15E25
  8
0
 10
3510.0104356945389554
 20
195.6415510669725961
 30
0.0
 40
0.0006434877457007
 50
122.6922024393005017
 51
166.90419583834489
  0
ARC
  5
15E26
  8
0
 10
3510.0101331336850308
 20
195.6417705337202051
 30
0.0
 40
0.0003252113269768
 50
33.9055054524484802
 51
97.9542444382361737
  0
ARC
  5
15E27
  8
0
 10
3509.9407636203432048
 20
195.6167619431498963
 30
0.0
 40
0.0740552883623963
 50
7.1344457070785881
 51
19.8860914643527806
  0
ARC
  5
15E28
  8
0
 10
3509.7860372610170998
 20
195.5890582217332963
 30
0.0
 40
0.2311724824578564
 50
3.4394377450997018
 51
9.1852147237120683
  0
ARC
  5
15E29
  8
0
 10
3509.9725107149261021
 20
195.599967608670795
 30
0.0
 40
0.0443814150313929
 50
355.0430891804170983
 51
3.8234473020233168
  0
ARC
  5
15E2A
  8
0
 10
3510.0113202104721495
 20
195.5968422459274905
 30
0.0
 40
0.005452289153097
 50
341.2240634749887818
 51
352.5231601564187827
  0
ARC
  5
15E2B
  8
0
 10
3510.0160418435320935
 20
195.5953452329567881
 30
0.0
 40
0.0005104546400506
 50
281.9399617117451271
 51
329.6523498969731918
  0
ARC
  5
15E2C
  8
0
 10
3510.016263778962184
 20
195.5953170451392111
 30
0.0
 40
0.0004853696444703
 50
214.0000382047882965
 51
256.1328558447950741
  0
ARC
  5
15E2D
  8
0
 10
3510.1317658541638593
 20
195.631470177108497
 30
0.0
 40
0.1214931792174521
 50
185.5940249241184006
 51
197.4460321900830024
  0
ARC
  5
15E2E
  8
0
 10
3510.1795472989651898
 20
195.6414244149611079
 30
0.0
 40
0.1700984105324847
 50
181.0210996136565882
 51
187.3624203307884954
  0
ARC
  5
15E2F
  8
0
 10
3510.0236839332819727
 20
195.6386295086946916
 30
0.0
 40
0.0142099989970371
 50
167.5340575418871083
 51
180.9530274151447884
  0
ARC
  5
15E30
  8
0
 10
3509.9880296928131429
 20
195.7346964778247127
 30
0.0
 40
0.0394425235062684
 50
176.1763866481007881
 51
181.1076367714989033
  0
ARC
  5
15E31
  8
0
 10
3509.9501712343799227
 20
195.7372267057563135
 30
0.0
 40
0.0014996067980263
 50
155.9972904868199066
 51
176.1763866478895011
  0
ARC
  5
15E32
  8
0
 10
3509.9499052816831863
 20
195.7368481322912999
 30
0.0
 40
0.0014819119702733
 50
120.9968010121334032
 51
138.1563758537234037
  0
ARC
  5
15E33
  8
0
 10
3509.9428662332329623
 20
195.7357157527609104
 30
0.0
 40
0.0067200792233319
 50
11.7160035647225698
 51
20.9489354590800012
  0
ARC
  5
15E34
  8
0
 10
3509.7649140742541931
 20
195.7040957055984904
 30
0.0
 40
0.1874570108961617
 50
4.4868096074780821
 51
10.1344346741898796
  0
ARC
  5
15E35
  8
0
 10
3509.6761660167458103
 20
195.6902415369156927
 30
0.0
 40
0.2771020438859325
 50
0.4151817972450389
 51
5.9072403895537722
  0
ARC
  5
15E36
  8
0
 10
3509.9429300496740325
 20
195.6925984131383984
 30
0.0
 40
0.0103366269637038
 50
350.4075998845584081
 51
358.0655061256779277
  0
ARC
  5
15E37
  8
0
 10
3509.9516543694289794
 20
195.691161535850199
 30
0.0
 40
0.0014953092719459
 50
335.7012335808860257
 51
348.9891217576212057
  0
ARC
  5
15E38
  8
0
 10
3509.9529261258689985
 20
195.6905800364573054
 30
0.0
 40
0.0000971599187604
 50
273.6224926193439728
 51
339.6344307973570267
  0
ARC
  5
15E39
  8
0
 10
3509.9529775759051518
 20
195.6907050520312055
 30
0.0
 40
0.0002265586823141
 50
196.8611994392724966
 51
258.4631672873499042
  0
ARC
  5
15E3A
  8
0
 10
3510.0956735429522269
 20
195.7205611262477021
 30
0.0
 40
0.1460115674751647
 50
183.5095818628419124
 51
191.8252562102580043
  0
ARC
  5
15E3B
  8
0
 10
3510.2398287308219551
 20
195.7402462446721927
 30
0.0
 40
0.2913025890373231
 50
181.2416360452866115
 51
185.6389608972669976
  0
ARC
  5
15E3C
  8
0
 10
3510.0097905490270023
 20
195.4554418994885054
 30
0.0
 40
0.029232022283842
 50
286.9417439036366773
 51
0.1702026243213168
  0
ARC
  5
15E3D
  8
0
 10
3510.1820480548271917
 20
194.7350299293399019
 30
0.0
 40
0.7115445102019275
 50
103.3040287354360061
 51
106.0106201231707956
  0
ARC
  5
15E3E
  8
0
 10
3509.993084252736935
 20
195.3923921132607973
 30
0.0
 40
0.0275637642161204
 50
105.3385514850638032
 51
182.6379892748354905
  0
LINE
  5
15E3F
  8
0
 10
3509.9655496985910759
 20
195.3911234818206992
 30
0.0
 11
3509.9697610134808201
 21
195.3102408577443043
 31
0.0
  0
ARC
  5
15E40
  8
0
 10
3509.9965605875818255
 20
195.3113592046381086
 30
0.0
 40
0.0268228982731179
 50
182.3895678871126051
 51
223.0085644131171989
  0
LINE
  5
15E41
  8
0
 10
3510.0485399493932164
 20
195.3957271889559024
 30
0.0
 11
3510.0446539151389516
 21
195.4427249338536967
 31
0.0
  0
ARC
  5
15E42
  8
0
 10
3510.0379526386850557
 20
195.4418462899286908
 30
0.0
 40
0.0067586330911885
 50
7.4697771937247897
 51
18.4819590086912413
  0
ARC
  5
15E43
  8
0
 10
3510.0442450080058734
 20
195.4439431144452897
 30
0.0
 40
0.0001262406443196
 50
21.2249559272356301
 51
130.4199996849565082
  0
ARC
  5
15E44
  8
0
 10
3510.0478861484398294
 20
195.4429401780483886
 30
0.0
 40
0.0038818265117665
 50
163.553153752685688
 51
175.1542824549100033
  0
ARC
  5
15E45
  8
0
 10
3510.1556729094581897
 20
195.4358023704479024
 30
0.0
 40
0.1119040297063099
 50
176.1746504973415881
 51
178.7310648328854938
  0
ARC
  5
15E46
  8
0
 10
3510.0164573890060637
 20
195.4426339744007919
 30
0.0
 40
0.0276833864938626
 50
328.7223800339027093
 51
350.9521749839566951
  0
ARC
  5
15E47
  8
0
 10
3510.0169493980101834
 20
195.4418632101669004
 30
0.0
 40
0.0268657430330035
 50
284.7451647114846196
 51
329.5825158535063224
  0
ARC
  5
15E48
  8
0
 10
3511.1555058286908206
 20
191.193198009568107
 30
0.0
 40
4.3717100622661018
 50
105.0032120486785061
 51
105.4395922635332994
  0
ARC
  5
15E49
  8
0
 10
3509.9991368279038397
 20
195.3803129360366881
 30
0.0
 40
0.0278500279697462
 50
105.5745879133871057
 51
177.2046077435664131
  0
ARC
  5
15E4A
  8
0
 10
3511.7290012182770624
 20
195.4354476676477077
 30
0.0
 40
1.7585037358680209
 50
181.7524256214366005
 51
184.3920699326299939
  0
ARC
  5
15E4B
  8
0
 10
3510.0311837796461987
 20
195.3060582897703057
 30
0.0
 40
0.0557725699795989
 50
185.4309432144335119
 51
193.4739501529768972
  0
ARC
  5
15E4C
  8
0
 10
3510.0033468446358711
 20
195.2994466158428963
 30
0.0
 40
0.0271613370348496
 50
193.5929286744766955
 51
258.247555480267124
  0
ARC
  5
15E4D
  8
0
 10
3510.0620415134881114
 20
195.283101170306594
 30
0.0
 40
0.0288497653745199
 50
105.738966058175393
 51
178.1589814405396908
  0
ARC
  5
15E4E
  8
0
 10
3510.371911065173208
 20
195.2817395823398101
 30
0.0
 40
0.3387121559742853
 50
179.6128923817396128
 51
193.2037803370623976
  0
ARC
  5
15E4F
  8
0
 10
3510.0779805723041136
 20
195.2111394717151995
 30
0.0
 40
0.0364608544415268
 50
190.6956802374974984
 51
229.3174729621887025
  0
ARC
  5
15E50
  8
0
 10
3510.0717382462221394
 20
195.2058132360265006
 30
0.0
 40
0.028380687819503
 50
231.8656010837572126
 51
284.9040556298485853
  0
LINE
  5
15E51
  8
0
 10
3510.0790368859011323
 20
195.1783869065571935
 30
0.0
 11
3510.0911838815541159
 21
195.1817169492283881
 31
0.0
  0
ARC
  5
15E52
  8
0
 10
3510.0982237037978848
 20
195.156037791738413
 30
0.0
 40
0.0266266450502977
 50
37.5633879488975566
 51
105.3307176013409929
  0
ARC
  5
15E53
  8
0
 10
3510.2284313643322093
 20
195.2031224730484951
 30
0.0
 40
0.1133796081179487
 50
195.7900314454876991
 51
198.1972830734922866
  0
ARC
  5
15E54
  8
0
 10
3510.1532403076680566
 20
195.1773005950707898
 30
0.0
 40
0.0339014157958176
 50
196.4240495470542101
 51
211.265040202067496
  0
ARC
  5
15E55
  8
0
 10
3510.1264807117549935
 20
195.1610143317344921
 30
0.0
 40
0.0025756425444233
 50
210.5323957210075889
 51
253.8754199958951006
  0
ARC
  5
15E56
  8
0
 10
3510.1257819762299732
 20
195.1597874806035122
 30
0.0
 40
0.001247576188695
 50
269.2380959606689999
 51
328.8604478264998079
  0
ARC
  5
15E57
  8
0
 10
3510.0215070754520639
 20
195.180794461684286
 30
0.0
 40
0.107544884951919
 50
348.3851894033094254
 51
6.0601894325335373
  0
ARC
  5
15E58
  8
0
 10
3509.3136283855860711
 20
195.1404531845942074
 30
0.0
 40
0.816460775516502
 50
3.6301748301210699
 51
8.1385060977461823
  0
ARC
  5
15E59
  8
0
 10
3509.3027953568062003
 20
195.1478603057068142
 30
0.0
 40
0.8261836757836341
 50
7.5236297345415091
 51
12.9255016816245494
  0
ARC
  5
15E5A
  8
0
 10
3510.0155127353191347
 20
195.3109942718741081
 30
0.0
 40
0.095035813160708
 50
13.1805255399843997
 51
21.4082187042511087
  0
ARC
  5
15E5B
  8
0
 10
3510.0956700756100872
 20
195.3424167154938971
 30
0.0
 40
0.0089395356118636
 50
21.4329176276416185
 51
41.2521308328752809
  0
ARC
  5
15E5C
  8
0
 10
3510.1017546781158671
 20
195.3477630348899936
 30
0.0
 40
0.0008398483887376
 50
40.7461031371831197
 51
159.0413164665382908
  0
ARC
  5
15E5D
  8
0
 10
3510.1177645573498012
 20
195.3414234612500024
 30
0.0
 40
0.0180591598114464
 50
158.4274227565256865
 51
178.7905618939753083
  0
ARC
  5
15E5E
  8
0
 10
3510.0714946395592051
 20
195.3409831973667963
 30
0.0
 40
0.0282267363066946
 50
342.4302633211632951
 51
1.6676289349080291
  0
ARC
  5
15E5F
  8
0
 10
3510.074009263015796
 20
195.344505348535904
 30
0.0
 40
0.0272059380440405
 50
285.5126648311231747
 51
333.7265744153522178
  0
ARC
  5
15E60
  8
0
 10
3747.8839553394118411
 20
-672.1414218216913241
 30
0.0
 40
899.4645419614304274
 50
105.3302631298974035
 51
105.3320509672133056
  0
ARC
  5
15E61
  8
0
 10
3508.3033198673260813
 20
195.1707125959104019
 30
0.0
 40
1.7783458119335489
 50
4.7103613837934413
 51
7.5262488241618168
  0
ARC
  5
15E62
  8
0
 10
3509.90237874667082
 20
195.3819780077228074
 30
0.0
 40
0.1653912639559042
 50
7.5262488241618168
 51
13.0465031691609106
  0
ARC
  5
15E63
  8
0
 10
3510.0545838141952117
 20
195.4172474598913141
 30
0.0
 40
0.0091532505396114
 50
13.0465031691228308
 51
24.6909279632342518
  0
ARC
  5
15E64
  8
0
 10
3510.0609461301328338
 20
195.4201725778495984
 30
0.0
 40
0.0021507239121424
 50
24.6909279631429506
 51
45.4565777416255514
  0
ARC
  5
15E65
  8
0
 10
3510.0622964768281236
 20
195.4215446191280137
 30
0.0
 40
0.0002256437925675
 50
45.4565777417360906
 51
171.6109765718613005
  0
ARC
  5
15E66
  8
0
 10
3510.070399577201897
 20
195.4182742484204027
 30
0.0
 40
0.008957650247258
 50
158.3603714765552013
 51
175.7909232938719981
  0
ARC
  5
15E67
  8
0
 10
3510.0184543776467763
 20
195.4195697126409925
 30
0.0
 40
0.0430164409448623
 50
347.0916372320467076
 51
359.1501751858558009
  0
ARC
  5
15E68
  8
0
 10
3510.0352655307337955
 20
195.418817632343206
 30
0.0
 40
0.0266341654000587
 50
299.8940786678335257
 51
340.5757528553887141
  0
ARC
  5
15E69
  8
0
 10
3509.9223408808611566
 20
195.7460880011082054
 30
0.0
 40
0.3723961648434487
 50
283.8446774992082169
 51
289.8088904452520751
  0
ARC
  5
15E6A
  8
0
 10
3510.0196307409128167
 20
195.3567100076371048
 30
0.0
 40
0.028978842977175
 50
106.3938428505645959
 51
182.4989683900093098
  0
ARC
  5
15E6B
  8
0
 10
3510.3618052987280862
 20
195.3458991211863065
 30
0.0
 40
0.371248626830271
 50
178.5263670047729931
 51
191.3439121803282887
  0
ARC
  5
15E6C
  8
0
 10
3510.0256130695820502
 20
195.2784501660320018
 30
0.0
 40
0.0283571332549673
 50
191.3377154282705987
 51
266.45469301012389
  0
ARC
  5
15E6D
  8
0
 10
3510.0253760915247767
 20
195.2789342403929993
 30
0.0
 40
0.0288268585183355
 50
266.9843092374699154
 51
288.5403042224426144
  0
ARC
  5
15E6E
  8
0
 10
3510.0320071382780043
 20
195.3309188189867029
 30
0.0
 40
0.0394425235062684
 50
176.1763866481007881
 51
181.1076367714989033
  0
ARC
  5
15E6F
  8
0
 10
3509.9941486798447841
 20
195.3334490469183891
 30
0.0
 40
0.0014996067980263
 50
155.9972904868199066
 51
176.1763866478895011
  0
ARC
  5
15E70
  8
0
 10
3509.9938827271480477
 20
195.3330704734532901
 30
0.0
 40
0.0014819119702733
 50
120.9968010121334032
 51
138.1563758537234037
  0
ARC
  5
15E71
  8
0
 10
3509.9868436786978236
 20
195.3319380939229006
 30
0.0
 40
0.0067200792233319
 50
11.7160035647225698
 51
20.9489354590800012
  0
ARC
  5
15E72
  8
0
 10
3509.8088915197190545
 20
195.3003180467605091
 30
0.0
 40
0.1874570108961617
 50
4.4868096074780821
 51
10.1344346741898796
  0
ARC
  5
15E73
  8
0
 10
3509.7201434622111265
 20
195.2864638780777113
 30
0.0
 40
0.2771020438859325
 50
0.4151817972450389
 51
5.9072403895537722
  0
ARC
  5
15E74
  8
0
 10
3509.9869074951379844
 20
195.2888207543003887
 30
0.0
 40
0.0103366269637038
 50
350.4075998845584081
 51
358.0655061256779277
  0
ARC
  5
15E75
  8
0
 10
3509.9956318148938408
 20
195.2873838770121893
 30
0.0
 40
0.0014953092719459
 50
335.7012335808860257
 51
348.9891217576212057
  0
ARC
  5
15E76
  8
0
 10
3509.9969035713338599
 20
195.2868023776194093
 30
0.0
 40
0.0000971599187604
 50
273.6224926193439728
 51
339.6344307973570267
  0
ARC
  5
15E77
  8
0
 10
3509.9969550213700131
 20
195.2869273931931957
 30
0.0
 40
0.0002265586823141
 50
196.8611994392724966
 51
258.4631672873499042
  0
ARC
  5
15E78
  8
0
 10
3510.1396509884170882
 20
195.3167834674096923
 30
0.0
 40
0.1460115674751647
 50
183.5095818628419124
 51
191.8252562102580043
  0
ARC
  5
15E79
  8
0
 10
3510.2838061762868165
 20
195.3364685858342114
 30
0.0
 40
0.2913025890373231
 50
181.2416360452866115
 51
185.6389608972669976
  0
ARC
  5
15E7A
  8
0
 10
3510.0368877914897894
 20
195.2605343318699056
 30
0.0
 40
0.0006434877457007
 50
122.6922024393005017
 51
166.90419583834489
  0
ARC
  5
15E7B
  8
0
 10
3510.0365852306349552
 20
195.2607537986175998
 30
0.0
 40
0.0003252113269768
 50
33.9055054524484802
 51
97.9542444382361737
  0
ARC
  5
15E7C
  8
0
 10
3509.9672157172940388
 20
195.2357452080472058
 30
0.0
 40
0.0740552883623963
 50
7.1344457070785881
 51
19.8860914643527806
  0
ARC
  5
15E7D
  8
0
 10
3509.8124893579679338
 20
195.2080414866306057
 30
0.0
 40
0.2311724824578564
 50
3.4394377450997018
 51
9.1852147237120683
  0
ARC
  5
15E7E
  8
0
 10
3509.998962811876936
 20
195.2189508735681045
 30
0.0
 40
0.0443814150313929
 50
355.0430891804170983
 51
3.8234473020233168
  0
ARC
  5
15E7F
  8
0
 10
3510.0377723074229834
 20
195.2158255108247999
 30
0.0
 40
0.005452289153097
 50
341.2240634749887818
 51
352.5231601564187827
  0
ARC
  5
15E80
  8
0
 10
3510.0424939404829274
 20
195.2143284978540976
 30
0.0
 40
0.0005104546400506
 50
281.9399617117451271
 51
329.6523498969731918
  0
ARC
  5
15E81
  8
0
 10
3510.042715875913018
 20
195.2143003100364922
 30
0.0
 40
0.0004853696444703
 50
214.0000382047882965
 51
256.1328558447950741
  0
ARC
  5
15E82
  8
0
 10
3510.158217951115148
 20
195.2504534420058917
 30
0.0
 40
0.1214931792174521
 50
185.5940249241184006
 51
197.4460321900830024
  0
ARC
  5
15E83
  8
0
 10
3510.2059993959160238
 20
195.260407679858389
 30
0.0
 40
0.1700984105324847
 50
181.0210996136565882
 51
187.3624203307884954
  0
ARC
  5
15E84
  8
0
 10
3510.0501360302328067
 20
195.2576127735920011
 30
0.0
 40
0.0142099989970371
 50
167.5340575418871083
 51
180.9530274151447884
  0
ARC
  5
15E85
  8
0
 10
3510.0144817897639768
 20
195.3536797427219938
 30
0.0
 40
0.0394425235062684
 50
176.1763866481007881
 51
181.1076367714989033
  0
ARC
  5
15E86
  8
0
 10
3509.9766233313312114
 20
195.3562099706537083
 30
0.0
 40
0.0014996067980263
 50
155.9972904868199066
 51
176.1763866478895011
  0
ARC
  5
15E87
  8
0
 10
3509.9763573786331108
 20
195.3558313971886093
 30
0.0
 40
0.0014819119702733
 50
120.9968010121334032
 51
138.1563758537234037
  0
ARC
  5
15E88
  8
0
 10
3509.9693183301828867
 20
195.3546990176581915
 30
0.0
 40
0.0067200792233319
 50
11.7160035647225698
 51
20.9489354590800012
  0
ARC
  5
15E89
  8
0
 10
3509.7913661712050271
 20
195.3230789704956862
 30
0.0
 40
0.1874570108961617
 50
4.4868096074780821
 51
10.1344346741898796
  0
ARC
  5
15E8A
  8
0
 10
3509.702618113697099
 20
195.3092248018130022
 30
0.0
 40
0.2771020438859325
 50
0.4151817972450389
 51
5.9072403895537722
  0
ARC
  5
15E8B
  8
0
 10
3509.9693821466239569
 20
195.3115816780357079
 30
0.0
 40
0.0103366269637038
 50
350.4075998845584081
 51
358.0655061256779277
  0
ARC
  5
15E8C
  8
0
 10
3509.9781064663789039
 20
195.3101448007475085
 30
0.0
 40
0.0014953092719459
 50
335.7012335808860257
 51
348.9891217576212057
  0
ARC
  5
15E8D
  8
0
 10
3509.9793782228198324
 20
195.3095633013545864
 30
0.0
 40
0.0000971599187604
 50
273.6224926193439728
 51
339.6344307973570267
  0
ARC
  5
15E8E
  8
0
 10
3509.9794296728550762
 20
195.3096883169284865
 30
0.0
 40
0.0002265586823141
 50
196.8611994392724966
 51
258.4631672873499042
  0
ARC
  5
15E8F
  8
0
 10
3510.1221256399030608
 20
195.3395443911450116
 30
0.0
 40
0.1460115674751647
 50
183.5095818628419124
 51
191.8252562102580043
  0
ARC
  5
15E90
  8
0
 10
3510.2662808277727891
 20
195.3592295095695022
 30
0.0
 40
0.2913025890373231
 50
181.2416360452866115
 51
185.6389608972669976
  0
ARC
  5
15E91
  8
0
 10
3516.7735312229719966
 20
196.072980676983093
 30
0.0
 40
6.7648716053416909
 50
184.3112242996054988
 51
185.3113841641676913
  0
ARC
  5
15E92
  8
0
 10
3510.1332345175987939
 20
195.3114786120250983
 30
0.0
 40
0.0291738746702902
 50
108.4205249350950027
 51
145.7385473571171985
  0
ARC
  5
15E93
  8
0
 10
3510.2024642883429806
 20
195.1036148860432036
 30
0.0
 40
0.2482631024662955
 50
102.5005165139973968
 51
108.4205249351197011
  0
ARC
  5
15E94
  8
0
 10
3510.1437833208910888
 20
195.3682963330697078
 30
0.0
 40
0.022845223376235
 50
282.5005165139978089
 51
335.9681474507182202
  0
ARC
  5
15E95
  8
0
 10
3510.2273259862640771
 20
195.3606018842594096
 30
0.0
 40
0.0626983368343306
 50
167.0502719801264959
 51
181.4706474120906137
  0
ARC
  5
15E96
  8
0
 10
3510.171435462142199
 20
195.3735386166536898
 30
0.0
 40
0.0053308463892255
 50
125.2290027440783007
 51
167.9409700555854954
  0
ARC
  5
15E97
  8
0
 10
3510.1689385068139018
 20
195.3748090909276982
 30
0.0
 40
0.0031377618615895
 50
47.8270955154984705
 51
100.6172008582402952
  0
ARC
  5
15E98
  8
0
 10
3510.1117098799131782
 20
195.333816801824014
 30
0.0
 40
0.0734649367630501
 50
16.2413166761414907
 51
36.1313581797234633
  0
ARC
  5
15E99
  8
0
 10
3509.6828202290198533
 20
195.1890622290293038
 30
0.0
 40
0.526068140103591
 50
10.8645039367564795
 51
18.3137751728067286
  0
ARC
  5
15E9A
  8
0
 10
3509.7684980865910802
 20
195.1967662479063108
 30
0.0
 40
0.440557512719505
 50
1.9119090573391271
 51
11.9808495095109393
  0
ARC
  5
15E9B
  8
0
 10
3510.144011444086118
 20
195.2098545557826981
 30
0.0
 40
0.0648188955787125
 50
346.7018246298375175
 51
1.4232620635860671
  0
ARC
  5
15E9C
  8
0
 10
3510.199648872178841
 20
195.1967683414924011
 30
0.0
 40
0.0076634973174546
 50
313.095390620201897
 51
346.2358250851892194
  0
ARC
  5
15E9D
  8
0
 10
3510.2034521208838669
 20
195.1936076264281894
 30
0.0
 40
0.0028254115555499
 50
234.0060273332080101
 51
300.466187809699079
  0
ARC
  5
15E9E
  8
0
 10
3510.2293159834030121
 20
195.2177390331328866
 30
0.0
 40
0.0381506041815214
 50
195.7672403620393879
 51
223.8243649805395989
  0
ARC
  5
15E9F
  8
0
 10
3510.1763275438438541
 20
195.1881834161926861
 30
0.0
 40
0.0251602153283253
 50
49.7001840959710535
 51
105.4077871020845976
  0
ARC
  5
15EA0
  8
0
 10
3392.8465767710408727
 20
623.1274861928933433
 30
0.0
 40
443.7070983560216746
 50
285.3302139392719141
 51
285.3322288666723807
  0
ARC
  5
15EA1
  8
0
 10
3510.1471946752299118
 20
195.2364953692733991
 30
0.0
 40
0.0291368991544848
 50
225.1612711883122131
 51
284.7117753709839008
  0
ARC
  5
15EA2
  8
0
 10
3506.4772151401730298
 20
194.6198933098960993
 30
0.0
 40
3.631948312938861
 50
7.00263752055527
 51
8.8396515464109005
  0
ARC
  5
15EA3
  8
0
 10
3510.0469951312238663
 20
195.1144734595459909
 30
0.0
 40
0.028301141284894
 50
285.8933432684298168
 51
0.5319351018153347
  0
ARC
  5
15EA4
  8
0
 10
3510.3381587985368242
 20
194.0918845631429122
 30
0.0
 40
1.0349318210567191
 50
105.8933432684297031
 51
107.4406345343785034
  0
ARC
  5
15EA5
  8
0
 10
3510.0366138567042071
 20
195.0517295782051121
 30
0.0
 40
0.0288345072325328
 50
107.4406345343785034
 51
185.2732291834174134
  0
ARC
  5
15EA6
  8
0
 10
3519.0781320778260124
 20
196.3272226344745945
 30
0.0
 40
9.1598435914773333
 50
188.0210932671527075
 51
188.5243174257751946
  0
ARC
  5
15EA7
  8
0
 10
3510.0485400688321533
 20
194.9752594793152127
 30
0.0
 40
0.0296348326117682
 50
191.2721815095025022
 51
220.4976663364020908
  0
ARC
  5
15EA8
  8
0
 10
3510.0608077172041703
 20
195.0762916267717912
 30
0.0
 40
0.0246989457506973
 50
349.0056447397251986
 51
8.1576407715499393
  0
ARC
  5
15EA9
  8
0
 10
3510.0499160168951676
 20
195.0784076452800946
 30
0.0
 40
0.0357942902679416
 50
333.9393419394497187
 51
349.0056447397251986
  0
ARC
  5
15EAA
  8
0
 10
3510.0598262149410402
 20
195.0735611244508902
 30
0.0
 40
0.0247624821901303
 50
282.6821076926108276
 51
333.939341939446706
  0
ARC
  5
15EAB
  8
0
 10
3510.1306483340590603
 20
194.7588403746673862
 30
0.0
 40
0.2978284707217929
 50
102.6821076926106997
 51
107.9793278562106025
  0
ARC
  5
15EAC
  8
0
 10
3510.0478586895351327
 20
195.013953853764292
 30
0.0
 40
0.0296177094585767
 50
107.9793278562110999
 51
187.7763245624713022
  0
ARC
  5
15EAD
  8
0
 10
3510.9743978962360416
 20
195.1152365405019111
 30
0.0
 40
0.9616658887697479
 50
186.2857581511740079
 51
190.7482288925710918
  0
ARC
  5
15EAE
  8
0
 10
3510.0603732323229451
 20
194.9409073659026888
 30
0.0
 40
0.031175986847225
 50
189.2576624812757871
 51
279.0086575711392811
  0
ARC
  5
15EAF
  8
0
 10
3508.717319196335211
 20
199.86773826022511
 30
0.0
 40
5.1376015458044062
 50
285.2105416462500784
 51
285.3707787396778031
  0
ARC
  5
15EB0
  8
0
 10
3510.0865224062749803
 20
194.8851985594164091
 30
0.0
 40
0.029646942633321
 50
82.491323004203835
 51
104.4700632831240057
  0
ARC
  5
15EB1
  8
0
 10
3509.9379006896861029
 20
195.0332162831905123
 30
0.0
 40
0.1545429009223032
 50
8.8198613419914622
 51
17.5420299174820897
  0
ARC
  5
15EB2
  8
0
 10
3507.3953874575659029
 20
194.5757034455743053
 30
0.0
 40
2.7378494399415412
 50
7.4597880745307199
 51
10.1229784553566002
  0
ARC
  5
15EB3
  8
0
 10
3510.410582020883794
 20
194.8120989369951985
 30
0.0
 40
0.1922855691271689
 50
182.1996567510925047
 51
192.9750399560892902
  0
ARC
  5
15EB4
  8
0
 10
3510.2682825832721392
 20
194.8066331977636025
 30
0.0
 40
0.0498812003389055
 50
155.7101528435148055
 51
182.1996567510925047
  0
ARC
  5
15EB5
  8
0
 10
3510.2448276861669001
 20
194.8172184867430019
 30
0.0
 40
0.0241483314551546
 50
121.5290093576269044
 51
155.7101528435252078
  0
ARC
  5
15EB6
  8
0
 10
3510.2576381418871279
 20
194.7963374613514134
 30
0.0
 40
0.0486457802437724
 50
109.7949933060149021
 51
121.5290093576277002
  0
ARC
  5
15EB7
  8
0
 10
3510.2908706697849084
 20
194.7040052495763973
 30
0.0
 40
0.1467765004171282
 50
100.8669532622895986
 51
109.7949933060149021
  0
ARC
  5
15EB8
  8
0
 10
3510.2594316681461351
 20
194.8677743159659883
 30
0.0
 40
0.0199829608741169
 50
280.8669532622637917
 51
330.2112742713551938
  0
ARC
  5
15EB9
  8
0
 10
3510.3961414235691336
 20
194.8547110921614092
 30
0.0
 40
0.1194084558152676
 50
171.2186337111621981
 51
178.4952595906075032
  0
ARC
  5
15EBA
  8
0
 10
3510.2923435432380757
 20
194.8712046614454039
 30
0.0
 40
0.0143165041127299
 50
141.7745356693150995
 51
173.0358344826385917
  0
ARC
  5
15EBB
  8
0
 10
3510.2837530312672243
 20
194.876630239934002
 30
0.0
 40
0.0043405503251361
 50
59.4135153790092119
 51
127.731899651108094
  0
ARC
  5
15EBC
  8
0
 10
3510.2500629258020126
 20
194.8426208033311013
 30
0.0
 40
0.052091114837575
 50
21.3321739000099484
 51
46.4369073659002112
  0
ARC
  5
15EBD
  8
0
 10
3509.948789815712189
 20
194.7113865506065054
 30
0.0
 40
0.3806729476758447
 50
12.3950953246173494
 51
23.2361349345989616
  0
ARC
  5
15EBE
  8
0
 10
3509.9660756665489316
 20
194.7064525349977941
 30
0.0
 40
0.3649488006910679
 50
2.242546464178595
 51
13.7343124316476395
  0
ARC
  5
15EBF
  8
0
 10
3510.2633303919360515
 20
194.7179647241837017
 30
0.0
 40
0.0674713840168294
 50
345.063903624496902
 51
2.3513727939662972
  0
ARC
  5
15EC0
  8
0
 10
3510.3197994118600036
 20
194.7030144934356031
 30
0.0
 40
0.0090575960197609
 50
309.3406372489563978
 51
344.3725329017025274
  0
ARC
  5
15EC1
  8
0
 10
3510.3234011971480868
 20
194.6995048145915916
 30
0.0
 40
0.0040984991075019
 50
233.6071431474335895
 51
301.4775845835591213
  0
ARC
  5
15EC2
  8
0
 10
3510.3436557218437883
 20
194.7250407237723948
 30
0.0
 40
0.036689599220375
 50
197.7810444810716035
 51
231.8057943724350878
  0
ARC
  5
15EC3
  8
0
 10
3510.2966229485409713
 20
194.6934147958459107
 30
0.0
 40
0.0237350483182645
 50
59.3615810705676594
 51
105.3025021972465964
  0
ARC
  5
15EC4
  8
0
 10
3509.6284984476778845
 20
197.1127144492809009
 30
0.0
 40
2.4861258042780312
 50
285.0046208121170821
 51
285.4395548288430859
  0
ARC
  5
15EC5
  8
0
 10
3510.2661214645959262
 20
194.7433943378310914
 30
0.0
 40
0.0326030932808341
 50
203.1973871508699858
 51
280.6535959360953143
  0
ARC
  5
15EC6
  8
0
 10
3510.3808893627151519
 20
194.8007609317631079
 30
0.0
 40
0.1608650286045817
 50
191.4141921289757136
 51
205.8773621888246907
  0
ARC
  5
15EC7
  8
0
 10
3510.2276820303009117
 20
194.7897703689050104
 30
0.0
 40
0.0039828946248846
 50
142.8721690513717135
 51
177.2577790436259022
  0
ARC
  5
15EC8
  8
0
 10
3510.2252272246360008
 20
194.7914632632418943
 30
0.0
 40
0.0010125160164757
 50
42.2668263451680133
 51
135.3824279091095093
  0
ARC
  5
15EC9
  8
0
 10
3510.2129738691128296
 20
194.780293580475302
 30
0.0
 40
0.0175928206111857
 50
19.473822140095649
 51
42.3462359201193621
  0
ARC
  5
15ECA
  8
0
 10
3510.1357354089391265
 20
194.748999922396905
 30
0.0
 40
0.1009151772433139
 50
11.9037712175075594
 51
21.6056975622243783
  0
ARC
  5
15ECB
  8
0
 10
3510.1507498006858441
 20
194.7500482435002027
 30
0.0
 40
0.0860323639255562
 50
1.04296760849848
 51
13.2832943153892593
  0
ARC
  5
15ECC
  8
0
 10
3510.2246180260581241
 20
194.7514540354104895
 30
0.0
 40
0.0121509411603088
 50
340.4475272745183929
 51
0.7553600964535852
  0
ARC
  5
15ECD
  8
0
 10
3510.2348650295771222
 20
194.7479915214696007
 30
0.0
 40
0.0013463643492345
 50
259.6516383145997224
 51
333.3431213696777036
  0
ARC
  5
15ECE
  8
0
 10
3510.2467261489250632
 20
194.7589370508127047
 30
0.0
 40
0.0172346925866386
 50
197.2481993380434062
 51
225.3926305250847122
  0
ARC
  5
15ECF
  8
0
 10
3510.3376646988522225
 20
194.7936349688417863
 30
0.0
 40
0.114538479853049
 50
188.693597638288793
 51
200.3377245567974114
  0
ARC
  5
15ED0
  8
0
 10
3510.2765303153819332
 20
194.7859820761779872
 30
0.0
 40
0.0529762481019842
 50
175.6926759596960039
 51
190.506034088721691
  0
ARC
  5
15ED1
  8
0
 10
3510.413505134188199
 20
194.4920741859048974
 30
0.0
 40
0.1922855691271689
 50
182.1996567510925047
 51
192.9750399560892902
  0
ARC
  5
15ED2
  8
0
 10
3510.2712056965769989
 20
194.4866084466733867
 30
0.0
 40
0.0498812003389055
 50
155.7101528435148055
 51
182.1996567510925047
  0
ARC
  5
15ED3
  8
0
 10
3510.2477507994722146
 20
194.497193735652786
 30
0.0
 40
0.0241483314551546
 50
121.5290093576269044
 51
155.7101528435252078
  0
ARC
  5
15ED4
  8
0
 10
3510.2605612551910781
 20
194.4763127102611975
 30
0.0
 40
0.0486457802437724
 50
109.7949933060149021
 51
121.5290093576277002
  0
ARC
  5
15ED5
  8
0
 10
3510.2937937830888586
 20
194.3839804984860962
 30
0.0
 40
0.1467765004171282
 50
100.8669532622895986
 51
109.7949933060149021
  0
ARC
  5
15ED6
  8
0
 10
3510.2623547814500853
 20
194.5477495648758008
 30
0.0
 40
0.0199829608741169
 50
280.8669532622637917
 51
330.2112742713551938
  0
ARC
  5
15ED7
  8
0
 10
3510.3990645368739933
 20
194.534686341071108
 30
0.0
 40
0.1194084558152676
 50
171.2186337111621981
 51
178.4952595906075032
  0
ARC
  5
15ED8
  8
0
 10
3510.2952666565420259
 20
194.551179910355188
 30
0.0
 40
0.0143165041127299
 50
141.7745356693150995
 51
173.0358344826385917
  0
ARC
  5
15ED9
  8
0
 10
3510.2866761445711745
 20
194.5566054888437009
 30
0.0
 40
0.0043405503251361
 50
59.4135153790092119
 51
127.731899651108094
  0
ARC
  5
15EDA
  8
0
 10
3510.2529860391068723
 20
194.5225960522408002
 30
0.0
 40
0.052091114837575
 50
21.3321739000099484
 51
46.4369073659002112
  0
ARC
  5
15EDB
  8
0
 10
3509.9517129290161392
 20
194.3913617995162895
 30
0.0
 40
0.3806729476758447
 50
12.3950953246173494
 51
23.2361349345989616
  0
ARC
  5
15EDC
  8
0
 10
3509.9689987798537913
 20
194.3864277839076067
 30
0.0
 40
0.3649488006910679
 50
2.242546464178595
 51
13.7343124316476395
  0
ARC
  5
15EDD
  8
0
 10
3510.2662535052400017
 20
194.3979399730934858
 30
0.0
 40
0.0674713840168294
 50
345.063903624496902
 51
2.3513727939662972
  0
ARC
  5
15EDE
  8
0
 10
3510.3227225251630443
 20
194.3829897423453019
 30
0.0
 40
0.0090575960197609
 50
309.3406372489563978
 51
344.3725329017025274
  0
ARC
  5
15EDF
  8
0
 10
3510.3263243104529465
 20
194.3794800635014042
 30
0.0
 40
0.0040984991075019
 50
233.6071431474335895
 51
301.4775845835591213
  0
ARC
  5
15EE0
  8
0
 10
3510.3465788351481933
 20
194.4050159726820937
 30
0.0
 40
0.036689599220375
 50
197.7810444810716035
 51
231.8057943724350878
  0
ARC
  5
15EE1
  8
0
 10
3510.2995460618449215
 20
194.3733900447556948
 30
0.0
 40
0.0237350483182645
 50
59.3615810705676594
 51
105.3025021972465964
  0
ARC
  5
15EE2
  8
0
 10
3509.6314215609818348
 20
196.7926896981905998
 30
0.0
 40
2.4861258042780312
 50
285.0046208121170821
 51
285.4395548288430859
  0
ARC
  5
15EE3
  8
0
 10
3510.269044577900786
 20
194.423369586740904
 30
0.0
 40
0.0326030932808341
 50
203.1973871508699858
 51
280.6535959360953143
  0
ARC
  5
15EE4
  8
0
 10
3510.3838124760200117
 20
194.4807361806728068
 30
0.0
 40
0.1608650286045817
 50
191.4141921289757136
 51
205.8773621888246907
  0
ARC
  5
15EE5
  8
0
 10
3510.2306051436039525
 20
194.4697456178147092
 30
0.0
 40
0.0039828946248846
 50
142.8721690513717135
 51
177.2577790436259022
  0
ARC
  5
15EE6
  8
0
 10
3510.228150337939951
 20
194.4714385121515932
 30
0.0
 40
0.0010125160164757
 50
42.2668263451680133
 51
135.3824279091095093
  0
ARC
  5
15EE7
  8
0
 10
3510.215896982418144
 20
194.4602688293850008
 30
0.0
 40
0.0175928206111857
 50
19.473822140095649
 51
42.3462359201193621
  0
ARC
  5
15EE8
  8
0
 10
3510.1386585222439862
 20
194.4289751713066039
 30
0.0
 40
0.1009151772433139
 50
11.9037712175075594
 51
21.6056975622243783
  0
ARC
  5
15EE9
  8
0
 10
3510.1536729139897943
 20
194.4300234924099016
 30
0.0
 40
0.0860323639255562
 50
1.04296760849848
 51
13.2832943153892593
  0
ARC
  5
15EEA
  8
0
 10
3510.2275411393620743
 20
194.4314292843201883
 30
0.0
 40
0.0121509411603088
 50
340.4475272745183929
 51
0.7553600964535852
  0
ARC
  5
15EEB
  8
0
 10
3510.2377881428819819
 20
194.4279667703792995
 30
0.0
 40
0.0013463643492345
 50
259.6516383145997224
 51
333.3431213696777036
  0
ARC
  5
15EEC
  8
0
 10
3510.2496492622299229
 20
194.4389122997224035
 30
0.0
 40
0.0172346925866386
 50
197.2481993380434062
 51
225.3926305250847122
  0
ARC
  5
15EED
  8
0
 10
3510.3405878121570822
 20
194.4736102177515988
 30
0.0
 40
0.114538479853049
 50
188.693597638288793
 51
200.3377245567974114
  0
ARC
  5
15EEE
  8
0
 10
3510.2794534286858834
 20
194.4659573250876861
 30
0.0
 40
0.0529762481019842
 50
175.6926759596960039
 51
190.506034088721691
  0
ARC
  5
15EEF
  8
0
 10
3510.5371563988919661
 20
194.3120613035524116
 30
0.0
 40
0.1922855691271689
 50
182.1996567510925047
 51
192.9750399560892902
  0
ARC
  5
15EF0
  8
0
 10
3510.3948569612798565
 20
194.3065955643209008
 30
0.0
 40
0.0498812003389055
 50
155.7101528435148055
 51
182.1996567510925047
  0
ARC
  5
15EF1
  8
0
 10
3510.3714020641750722
 20
194.3171808533001865
 30
0.0
 40
0.0241483314551546
 50
121.5290093576269044
 51
155.7101528435252078
  0
ARC
  5
15EF2
  8
0
 10
3510.3842125198948452
 20
194.2962998279087117
 30
0.0
 40
0.0486457802437724
 50
109.7949933060149021
 51
121.5290093576277002
  0
ARC
  5
15EF3
  8
0
 10
3510.4174450477930804
 20
194.2039676161336956
 30
0.0
 40
0.1467765004171282
 50
100.8669532622895986
 51
109.7949933060149021
  0
ARC
  5
15EF4
  8
0
 10
3510.3860060461538524
 20
194.3677366825232866
 30
0.0
 40
0.0199829608741169
 50
280.8669532622637917
 51
330.2112742713551938
  0
ARC
  5
15EF5
  8
0
 10
3510.5227158015782152
 20
194.3546734587185938
 30
0.0
 40
0.1194084558152676
 50
171.2186337111621981
 51
178.4952595906075032
  0
ARC
  5
15EF6
  8
0
 10
3510.418917921245793
 20
194.3711670280027022
 30
0.0
 40
0.0143165041127299
 50
141.7745356693150995
 51
173.0358344826385917
  0
ARC
  5
15EF7
  8
0
 10
3510.4103274092749416
 20
194.3765926064911866
 30
0.0
 40
0.0043405503251361
 50
59.4135153790092119
 51
127.731899651108094
  0
ARC
  5
15EF8
  8
0
 10
3510.3766373038101847
 20
194.342583169888286
 30
0.0
 40
0.052091114837575
 50
21.3321739000099484
 51
46.4369073659002112
  0
ARC
  5
15EF9
  8
0
 10
3510.0753641937199063
 20
194.2113489171638037
 30
0.0
 40
0.3806729476758447
 50
12.3950953246173494
 51
23.2361349345989616
  0
ARC
  5
15EFA
  8
0
 10
3510.0926500445571037
 20
194.2064149015550925
 30
0.0
 40
0.3649488006910679
 50
2.242546464178595
 51
13.7343124316476395
  0
ARC
  5
15EFB
  8
0
 10
3510.3899047699442235
 20
194.217927090741
 30
0.0
 40
0.0674713840168294
 50
345.063903624496902
 51
2.3513727939662972
  0
ARC
  5
15EFC
  8
0
 10
3510.4463737898681757
 20
194.2029768599929014
 30
0.0
 40
0.0090575960197609
 50
309.3406372489563978
 51
344.3725329017025274
  0
ARC
  5
15EFD
  8
0
 10
3510.4499755751571684
 20
194.1994671811488047
 30
0.0
 40
0.0040984991075019
 50
233.6071431474335895
 51
301.4775845835591213
  0
ARC
  5
15EFE
  8
0
 10
3510.4702300998519604
 20
194.2250030903296079
 30
0.0
 40
0.036689599220375
 50
197.7810444810716035
 51
231.8057943724350878
  0
ARC
  5
15EFF
  8
0
 10
3510.4231973265491433
 20
194.193377162403209
 30
0.0
 40
0.0237350483182645
 50
59.3615810705676594
 51
105.3025021972465964
  0
ARC
  5
15F00
  8
0
 10
3509.7550728256860566
 20
196.6126768158381992
 30
0.0
 40
2.4861258042780312
 50
285.0046208121170821
 51
285.4395548288430859
  0
ARC
  5
15F01
  8
0
 10
3510.3926958426040983
 20
194.2433567043883897
 30
0.0
 40
0.0326030932808341
 50
203.1973871508699858
 51
280.6535959360953143
  0
ARC
  5
15F02
  8
0
 10
3510.5074637407237788
 20
194.3007232983202925
 30
0.0
 40
0.1608650286045817
 50
191.4141921289757136
 51
205.8773621888246907
  0
ARC
  5
15F03
  8
0
 10
3510.3542564083090838
 20
194.2897327354623087
 30
0.0
 40
0.0039828946248846
 50
142.8721690513717135
 51
177.2577790436259022
  0
ARC
  5
15F04
  8
0
 10
3510.3518016026441728
 20
194.2914256297991926
 30
0.0
 40
0.0010125160164757
 50
42.2668263451680133
 51
135.3824279091095093
  0
ARC
  5
15F05
  8
0
 10
3510.3395482471219111
 20
194.2802559470324866
 30
0.0
 40
0.0175928206111857
 50
19.473822140095649
 51
42.3462359201193621
  0
ARC
  5
15F06
  8
0
 10
3510.2623097869482081
 20
194.2489622889540897
 30
0.0
 40
0.1009151772433139
 50
11.9037712175075594
 51
21.6056975622243783
  0
ARC
  5
15F07
  8
0
 10
3510.2773241786940162
 20
194.2500106100573873
 30
0.0
 40
0.0860323639255562
 50
1.04296760849848
 51
13.2832943153892593
  0
ARC
  5
15F08
  8
0
 10
3510.3511924040658414
 20
194.2514164019677025
 30
0.0
 40
0.0121509411603088
 50
340.4475272745183929
 51
0.7553600964535852
  0
ARC
  5
15F09
  8
0
 10
3510.3614394075848395
 20
194.2479538880268137
 30
0.0
 40
0.0013463643492345
 50
259.6516383145997224
 51
333.3431213696777036
  0
ARC
  5
15F0A
  8
0
 10
3510.3733005269327805
 20
194.2588994173698893
 30
0.0
 40
0.0172346925866386
 50
197.2481993380434062
 51
225.3926305250847122
  0
ARC
  5
15F0B
  8
0
 10
3510.4642390768599398
 20
194.293597335399113
 30
0.0
 40
0.114538479853049
 50
188.693597638288793
 51
200.3377245567974114
  0
ARC
  5
15F0C
  8
0
 10
3510.4031046933901052
 20
194.2859444427352003
 30
0.0
 40
0.0529762481019842
 50
175.6926759596960039
 51
190.506034088721691
  0
ARC
  5
15F0D
  8
0
 10
3510.4294178775089676
 20
194.1909582871128066
 30
0.0
 40
0.1922855691271689
 50
182.1996567510925047
 51
192.9750399560892902
  0
ARC
  5
15F0E
  8
0
 10
3510.2871184398959485
 20
194.1854925478812959
 30
0.0
 40
0.0498812003389055
 50
155.7101528435148055
 51
182.1996567510925047
  0
ARC
  5
15F0F
  8
0
 10
3510.2636635427911642
 20
194.1960778368606952
 30
0.0
 40
0.0241483314551546
 50
121.5290093576269044
 51
155.7101528435252078
  0
ARC
  5
15F10
  8
0
 10
3510.2764739985109372
 20
194.175196811469192
 30
0.0
 40
0.0486457802437724
 50
109.7949933060149021
 51
121.5290093576277002
  0
ARC
  5
15F11
  8
0
 10
3510.3097065264078083
 20
194.0828645996940907
 30
0.0
 40
0.1467765004171282
 50
100.8669532622895986
 51
109.7949933060149021
  0
ARC
  5
15F12
  8
0
 10
3510.2782675247699444
 20
194.2466336660837101
 30
0.0
 40
0.0199829608741169
 50
280.8669532622637917
 51
330.2112742713551938
  0
ARC
  5
15F13
  8
0
 10
3510.4149772801938525
 20
194.2335704422791025
 30
0.0
 40
0.1194084558152676
 50
171.2186337111621981
 51
178.4952595906075032
  0
ARC
  5
15F14
  8
0
 10
3510.311179399861885
 20
194.2500640115630972
 30
0.0
 40
0.0143165041127299
 50
141.7745356693150995
 51
173.0358344826385917
  0
ARC
  5
15F15
  8
0
 10
3510.3025888878910337
 20
194.2554895900516954
 30
0.0
 40
0.0043405503251361
 50
59.4135153790092119
 51
127.731899651108094
  0
ARC
  5
15F16
  8
0
 10
3510.268898782425822
 20
194.2214801534487094
 30
0.0
 40
0.052091114837575
 50
21.3321739000099484
 51
46.4369073659002112
  0
ARC
  5
15F17
  8
0
 10
3509.9676256723350889
 20
194.0902459007241987
 30
0.0
 40
0.3806729476758447
 50
12.3950953246173494
 51
23.2361349345989616
  0
ARC
  5
15F18
  8
0
 10
3509.9849115231741052
 20
194.0853118851156012
 30
0.0
 40
0.3649488006910679
 50
2.242546464178595
 51
13.7343124316476395
  0
ARC
  5
15F19
  8
0
 10
3510.2821662485598608
 20
194.0968240743013951
 30
0.0
 40
0.0674713840168294
 50
345.063903624496902
 51
2.3513727939662972
  0
ARC
  5
15F1A
  8
0
 10
3510.3386352684829035
 20
194.0818738435532964
 30
0.0
 40
0.0090575960197609
 50
309.3406372489563978
 51
344.3725329017025274
  0
ARC
  5
15F1B
  8
0
 10
3510.3422370537718962
 20
194.0783641647093134
 30
0.0
 40
0.0040984991075019
 50
233.6071431474335895
 51
301.4775845835591213
  0
ARC
  5
15F1C
  8
0
 10
3510.3624915784680525
 20
194.1039000738900882
 30
0.0
 40
0.036689599220375
 50
197.7810444810716035
 51
231.8057943724350878
  0
ARC
  5
15F1D
  8
0
 10
3510.3154588051647806
 20
194.072274145963604
 30
0.0
 40
0.0237350483182645
 50
59.3615810705676594
 51
105.3025021972465964
  0
ARC
  5
15F1E
  8
0
 10
3509.6473343043021487
 20
196.4915737993985942
 30
0.0
 40
2.4861258042780312
 50
285.0046208121170821
 51
285.4395548288430859
  0
ARC
  5
15F1F
  8
0
 10
3510.2849573212201904
 20
194.1222536879488132
 30
0.0
 40
0.0326030932808341
 50
203.1973871508699858
 51
280.6535959360953143
  0
ARC
  5
15F20
  8
0
 10
3510.3997252193389613
 20
194.1796202818808013
 30
0.0
 40
0.1608650286045817
 50
191.4141921289757136
 51
205.8773621888246907
  0
ARC
  5
15F21
  8
0
 10
3510.2465178869251758
 20
194.1686297190227037
 30
0.0
 40
0.0039828946248846
 50
142.8721690513717135
 51
177.2577790436259022
  0
ARC
  5
15F22
  8
0
 10
3510.2440630812598101
 20
194.1703226133595876
 30
0.0
 40
0.0010125160164757
 50
42.2668263451680133
 51
135.3824279091095093
  0
ARC
  5
15F23
  8
0
 10
3510.2318097257380032
 20
194.15915293059291
 30
0.0
 40
0.0175928206111857
 50
19.473822140095649
 51
42.3462359201193621
  0
ARC
  5
15F24
  8
0
 10
3510.1545712655652096
 20
194.1278592725145131
 30
0.0
 40
0.1009151772433139
 50
11.9037712175075594
 51
21.6056975622243783
  0
ARC
  5
15F25
  8
0
 10
3510.1695856573101082
 20
194.1289075936178961
 30
0.0
 40
0.0860323639255562
 50
1.04296760849848
 51
13.2832943153892593
  0
ARC
  5
15F26
  8
0
 10
3510.2434538826819335
 20
194.1303133855282113
 30
0.0
 40
0.0121509411603088
 50
340.4475272745183929
 51
0.7553600964535852
  0
ARC
  5
15F27
  8
0
 10
3510.2537008862009316
 20
194.126850871587294
 30
0.0
 40
0.0013463643492345
 50
259.6516383145997224
 51
333.3431213696777036
  0
ARC
  5
15F28
  8
0
 10
3510.2655620055488725
 20
194.1377964009303128
 30
0.0
 40
0.0172346925866386
 50
197.2481993380434062
 51
225.3926305250847122
  0
ARC
  5
15F29
  8
0
 10
3510.3565005554760319
 20
194.1724943189595081
 30
0.0
 40
0.114538479853049
 50
188.693597638288793
 51
200.3377245567974114
  0
ARC
  5
15F2A
  8
0
 10
3510.2953661720048331
 20
194.164841426295709
 30
0.0
 40
0.0529762481019842
 50
175.6926759596960039
 51
190.506034088721691
  0
ARC
  5
15F2B
  8
0
 10
3510.5321694006479447
 20
194.0378795528966975
 30
0.0
 40
0.1922855691271689
 50
182.1996567510925047
 51
192.9750399560892902
  0
ARC
  5
15F2C
  8
0
 10
3510.3898699630371993
 20
194.0324138136651868
 30
0.0
 40
0.0498812003389055
 50
155.7101528435148055
 51
182.1996567510925047
  0
ARC
  5
15F2D
  8
0
 10
3510.3664150659310508
 20
194.0429991026445009
 30
0.0
 40
0.0241483314551546
 50
121.5290093576269044
 51
155.7101528435252078
  0
ARC
  5
15F2E
  8
0
 10
3510.3792255216508238
 20
194.0221180772529976
 30
0.0
 40
0.0486457802437724
 50
109.7949933060149021
 51
121.5290093576277002
  0
ARC
  5
15F2F
  8
0
 10
3510.4124580495490591
 20
193.9297858654778963
 30
0.0
 40
0.1467765004171282
 50
100.8669532622895986
 51
109.7949933060149021
  0
ARC
  5
15F30
  8
0
 10
3510.381019047909831
 20
194.0935549318674873
 30
0.0
 40
0.0199829608741169
 50
280.8669532622637917
 51
330.2112742713551938
  0
ARC
  5
15F31
  8
0
 10
3510.5177288033328296
 20
194.0804917080629082
 30
0.0
 40
0.1194084558152676
 50
171.2186337111621981
 51
178.4952595906075032
  0
ARC
  5
15F32
  8
0
 10
3510.4139309230022263
 20
194.0969852773469881
 30
0.0
 40
0.0143165041127299
 50
141.7745356693150995
 51
173.0358344826385917
  0
ARC
  5
15F33
  8
0
 10
3510.4053404110309202
 20
194.102410855835501
 30
0.0
 40
0.0043405503251361
 50
59.4135153790092119
 51
127.731899651108094
  0
ARC
  5
15F34
  8
0
 10
3510.3716503055670728
 20
194.0684014192326003
 30
0.0
 40
0.052091114837575
 50
21.3321739000099484
 51
46.4369073659002112
  0
ARC
  5
15F35
  8
0
 10
3510.0703771954749755
 20
193.9371671665080896
 30
0.0
 40
0.3806729476758447
 50
12.3950953246173494
 51
23.2361349345989616
  0
ARC
  5
15F36
  8
0
 10
3510.0876630463130823
 20
193.9322331508994068
 30
0.0
 40
0.3649488006910679
 50
2.242546464178595
 51
13.7343124316476395
  0
ARC
  5
15F37
  8
0
 10
3510.3849177717002021
 20
193.943745340085286
 30
0.0
 40
0.0674713840168294
 50
345.063903624496902
 51
2.3513727939662972
  0
ARC
  5
15F38
  8
0
 10
3510.44138679162279
 20
193.9287951093371021
 30
0.0
 40
0.0090575960197609
 50
309.3406372489563978
 51
344.3725329017025274
  0
ARC
  5
15F39
  8
0
 10
3510.4449885769117827
 20
193.9252854304932043
 30
0.0
 40
0.0040984991075019
 50
233.6071431474335895
 51
301.4775845835591213
  0
ARC
  5
15F3A
  8
0
 10
3510.465243101607939
 20
193.9508213396738938
 30
0.0
 40
0.036689599220375
 50
197.7810444810716035
 51
231.8057943724350878
  0
ARC
  5
15F3B
  8
0
 10
3510.4182103283051219
 20
193.9191954117474097
 30
0.0
 40
0.0237350483182645
 50
59.3615810705676594
 51
105.3025021972465964
  0
ARC
  5
15F3C
  8
0
 10
3509.7500858274420352
 20
196.3384950651825136
 30
0.0
 40
2.4861258042780312
 50
285.0046208121170821
 51
285.4395548288430859
  0
ARC
  5
15F3D
  8
0
 10
3510.3877088443609864
 20
193.9691749537327041
 30
0.0
 40
0.0326030932808341
 50
203.1973871508699858
 51
280.6535959360953143
  0
ARC
  5
15F3E
  8
0
 10
3510.5024767424788479
 20
194.0265415476646069
 30
0.0
 40
0.1608650286045817
 50
191.4141921289757136
 51
205.8773621888246907
  0
ARC
  5
15F3F
  8
0
 10
3510.3492694100650624
 20
194.0155509848065094
 30
0.0
 40
0.0039828946248846
 50
142.8721690513717135
 51
177.2577790436259022
  0
ARC
  5
15F40
  8
0
 10
3510.3468146044001514
 20
194.017243879143507
 30
0.0
 40
0.0010125160164757
 50
42.2668263451680133
 51
135.3824279091095093
  0
ARC
  5
15F41
  8
0
 10
3510.3345612488769802
 20
194.006074196376801
 30
0.0
 40
0.0175928206111857
 50
19.473822140095649
 51
42.3462359201193621
  0
ARC
  5
15F42
  8
0
 10
3510.2573227887028224
 20
193.9747805382984041
 30
0.0
 40
0.1009151772433139
 50
11.9037712175075594
 51
21.6056975622243783
  0
ARC
  5
15F43
  8
0
 10
3510.2723371804499948
 20
193.9758288594017017
 30
0.0
 40
0.0860323639255562
 50
1.04296760849848
 51
13.2832943153892593
  0
ARC
  5
15F44
  8
0
 10
3510.34620540582182
 20
193.9772346513119885
 30
0.0
 40
0.0121509411603088
 50
340.4475272745183929
 51
0.7553600964535852
  0
ARC
  5
15F45
  8
0
 10
3510.3564524093408181
 20
193.9737721373710997
 30
0.0
 40
0.0013463643492345
 50
259.6516383145997224
 51
333.3431213696777036
  0
ARC
  5
15F46
  8
0
 10
3510.3683135286892139
 20
193.9847176667142037
 30
0.0
 40
0.0172346925866386
 50
197.2481993380434062
 51
225.3926305250847122
  0
ARC
  5
15F47
  8
0
 10
3510.4592520786168279
 20
194.019415584743399
 30
0.0
 40
0.114538479853049
 50
188.693597638288793
 51
200.3377245567974114
  0
ARC
  5
15F48
  8
0
 10
3510.3981176951460839
 20
194.0117626920795999
 30
0.0
 40
0.0529762481019842
 50
175.6926759596960039
 51
190.506034088721691
  0
ARC
  5
15F49
  8
0
 10
3510.6716223560288199
 20
193.813374284222192
 30
0.0
 40
0.1922855691271689
 50
182.1996567510925047
 51
192.9750399560892902
  0
ARC
  5
15F4A
  8
0
 10
3510.5293229184171651
 20
193.8079085449907097
 30
0.0
 40
0.0498812003389055
 50
155.7101528435148055
 51
182.1996567510925047
  0
ARC
  5
15F4B
  8
0
 10
3510.505868021311926
 20
193.8184938339701091
 30
0.0
 40
0.0241483314551546
 50
121.5290093576269044
 51
155.7101528435252078
  0
ARC
  5
15F4C
  8
0
 10
3510.5186784770321538
 20
193.7976128085784921
 30
0.0
 40
0.0486457802437724
 50
109.7949933060149021
 51
121.5290093576277002
  0
ARC
  5
15F4D
  8
0
 10
3510.5519110049299343
 20
193.7052805968035045
 30
0.0
 40
0.1467765004171282
 50
100.8669532622895986
 51
109.7949933060149021
  0
ARC
  5
15F4E
  8
0
 10
3510.5204720032911609
 20
193.8690496631930955
 30
0.0
 40
0.0199829608741169
 50
280.8669532622637917
 51
330.2112742713551938
  0
ARC
  5
15F4F
  8
0
 10
3510.657181758715069
 20
193.855986439388488
 30
0.0
 40
0.1194084558152676
 50
171.2186337111621981
 51
178.4952595906075032
  0
ARC
  5
15F50
  8
0
 10
3510.5533838783831015
 20
193.8724800086725111
 30
0.0
 40
0.0143165041127299
 50
141.7745356693150995
 51
173.0358344826385917
  0
ARC
  5
15F51
  8
0
 10
3510.5447933664117954
 20
193.8779055871611092
 30
0.0
 40
0.0043405503251361
 50
59.4135153790092119
 51
127.731899651108094
  0
ARC
  5
15F52
  8
0
 10
3510.5111032609470385
 20
193.8438961505580949
 30
0.0
 40
0.052091114837575
 50
21.3321739000099484
 51
46.4369073659002112
  0
ARC
  5
15F53
  8
0
 10
3510.2098301508558507
 20
193.7126618978336126
 30
0.0
 40
0.3806729476758447
 50
12.3950953246173494
 51
23.2361349345989616
  0
ARC
  5
15F54
  8
0
 10
3510.2271160016939575
 20
193.7077278822249014
 30
0.0
 40
0.3649488006910679
 50
2.242546464178595
 51
13.7343124316476395
  0
ARC
  5
15F55
  8
0
 10
3510.5243707270801679
 20
193.7192400714108089
 30
0.0
 40
0.0674713840168294
 50
345.063903624496902
 51
2.3513727939662972
  0
ARC
  5
15F56
  8
0
 10
3510.5808397470032105
 20
193.7042898406627103
 30
0.0
 40
0.0090575960197609
 50
309.3406372489563978
 51
344.3725329017025274
  0
ARC
  5
15F57
  8
0
 10
3510.5844415322931127
 20
193.7007801618186988
 30
0.0
 40
0.0040984991075019
 50
233.6071431474335895
 51
301.4775845835591213
  0
ARC
  5
15F58
  8
0
 10
3510.6046960569888142
 20
193.726316070999502
 30
0.0
 40
0.036689599220375
 50
197.7810444810716035
 51
231.8057943724350878
  0
ARC
  5
15F59
  8
0
 10
3510.5576632836859972
 20
193.6946901430729895
 30
0.0
 40
0.0237350483182645
 50
59.3615810705676594
 51
105.3025021972465964
  0
ARC
  5
15F5A
  8
0
 10
3509.8895387828229104
 20
196.1139897965080081
 30
0.0
 40
2.4861258042780312
 50
285.0046208121170821
 51
285.4395548288430859
  0
ARC
  5
15F5B
  8
0
 10
3510.5271617997409521
 20
193.7446696850581986
 30
0.0
 40
0.0326030932808341
 50
203.1973871508699858
 51
280.6535959360953143
  0
ARC
  5
15F5C
  8
0
 10
3510.6419296978601778
 20
193.8020362789901014
 30
0.0
 40
0.1608650286045817
 50
191.4141921289757136
 51
205.8773621888246907
  0
ARC
  5
15F5D
  8
0
 10
3510.4887223654450281
 20
193.7910457161320892
 30
0.0
 40
0.0039828946248846
 50
142.8721690513717135
 51
177.2577790436259022
  0
ARC
  5
15F5E
  8
0
 10
3510.4862675597810266
 20
193.7927386104690015
 30
0.0
 40
0.0010125160164757
 50
42.2668263451680133
 51
135.3824279091095093
  0
ARC
  5
15F5F
  8
0
 10
3510.4740142042578555
 20
193.7815689277022955
 30
0.0
 40
0.0175928206111857
 50
19.473822140095649
 51
42.3462359201193621
  0
ARC
  5
15F60
  8
0
 10
3510.3967757440850619
 20
193.7502752696238986
 30
0.0
 40
0.1009151772433139
 50
11.9037712175075594
 51
21.6056975622243783
  0
ARC
  5
15F61
  8
0
 10
3510.41179013583087
 20
193.7513235907273099
 30
0.0
 40
0.0860323639255562
 50
1.04296760849848
 51
13.2832943153892593
  0
ARC
  5
15F62
  8
0
 10
3510.48565836120315
 20
193.7527293826375967
 30
0.0
 40
0.0121509411603088
 50
340.4475272745183929
 51
0.7553600964535852
  0
ARC
  5
15F63
  8
0
 10
3510.4959053647221481
 20
193.7492668686967079
 30
0.0
 40
0.0013463643492345
 50
259.6516383145997224
 51
333.3431213696777036
  0
ARC
  5
15F64
  8
0
 10
3510.5077664840700891
 20
193.7602123980396982
 30
0.0
 40
0.0172346925866386
 50
197.2481993380434062
 51
225.3926305250847122
  0
ARC
  5
15F65
  8
0
 10
3510.5987050339967936
 20
193.7949103160688935
 30
0.0
 40
0.114538479853049
 50
188.693597638288793
 51
200.3377245567974114
  0
ARC
  5
15F66
  8
0
 10
3510.5375706505269591
 20
193.7872574234050944
 30
0.0
 40
0.0529762481019842
 50
175.6926759596960039
 51
190.506034088721691
  0
ARC
  5
15F67
  8
0
 10
3510.6648200202421322
 20
193.5485087358838996
 30
0.0
 40
0.1922855691271689
 50
182.1996567510925047
 51
192.9750399560892902
  0
ARC
  5
15F68
  8
0
 10
3510.5225205826291131
 20
193.5430429966523889
 30
0.0
 40
0.0498812003389055
 50
155.7101528435148055
 51
182.1996567510925047
  0
ARC
  5
15F69
  8
0
 10
3510.499065685523874
 20
193.553628285631703
 30
0.0
 40
0.0241483314551546
 50
121.5290093576269044
 51
155.7101528435252078
  0
ARC
  5
15F6A
  8
0
 10
3510.5118761412441017
 20
193.5327472602401997
 30
0.0
 40
0.0486457802437724
 50
109.7949933060149021
 51
121.5290093576277002
  0
ARC
  5
15F6B
  8
0
 10
3510.5451086691418823
 20
193.4404150484652121
 30
0.0
 40
0.1467765004171282
 50
100.8669532622895986
 51
109.7949933060149021
  0
ARC
  5
15F6C
  8
0
 10
3510.5136696675040184
 20
193.6041841148546894
 30
0.0
 40
0.0199829608741169
 50
280.8669532622637917
 51
330.2112742713551938
  0
ARC
  5
15F6D
  8
0
 10
3510.650379422927017
 20
193.5911208910501102
 30
0.0
 40
0.1194084558152676
 50
171.2186337111621981
 51
178.4952595906075032
  0
ARC
  5
15F6E
  8
0
 10
3510.5465815425950495
 20
193.6076144603341049
 30
0.0
 40
0.0143165041127299
 50
141.7745356693150995
 51
173.0358344826385917
  0
ARC
  5
15F6F
  8
0
 10
3510.5379910306241982
 20
193.6130400388227031
 30
0.0
 40
0.0043405503251361
 50
59.4135153790092119
 51
127.731899651108094
  0
ARC
  5
15F70
  8
0
 10
3510.5043009251589865
 20
193.5790306022198024
 30
0.0
 40
0.052091114837575
 50
21.3321739000099484
 51
46.4369073659002112
  0
ARC
  5
15F71
  8
0
 10
3510.2030278150691629
 20
193.4477963494952917
 30
0.0
 40
0.3806729476758447
 50
12.3950953246173494
 51
23.2361349345989616
  0
ARC
  5
15F72
  8
0
 10
3510.220313665906815
 20
193.4428623338866089
 30
0.0
 40
0.3649488006910679
 50
2.242546464178595
 51
13.7343124316476395
  0
ARC
  5
15F73
  8
0
 10
3510.5175683912930253
 20
193.454374523072488
 30
0.0
 40
0.0674713840168294
 50
345.063903624496902
 51
2.3513727939662972
  0
ARC
  5
15F74
  8
0
 10
3510.574037411216068
 20
193.4394242923243041
 30
0.0
 40
0.0090575960197609
 50
309.3406372489563978
 51
344.3725329017025274
  0
ARC
  5
15F75
  8
0
 10
3510.5776391965059702
 20
193.4359146134802927
 30
0.0
 40
0.0040984991075019
 50
233.6071431474335895
 51
301.4775845835591213
  0
ARC
  5
15F76
  8
0
 10
3510.5978937212021265
 20
193.4614505226610959
 30
0.0
 40
0.036689599220375
 50
197.7810444810716035
 51
231.8057943724350878
  0
ARC
  5
15F77
  8
0
 10
3510.5508609478979452
 20
193.429824594734697
 30
0.0
 40
0.0237350483182645
 50
59.3615810705676594
 51
105.3025021972465964
  0
ARC
  5
15F78
  8
0
 10
3509.8827364470348584
 20
195.849124248169602
 30
0.0
 40
2.4861258042780312
 50
285.0046208121170821
 51
285.4395548288430859
  0
ARC
  5
15F79
  8
0
 10
3510.5203594639538096
 20
193.4798041367199062
 30
0.0
 40
0.0326030932808341
 50
203.1973871508699858
 51
280.6535959360953143
  0
ARC
  5
15F7A
  8
0
 10
3510.6351273620730353
 20
193.537170730651809
 30
0.0
 40
0.1608650286045817
 50
191.4141921289757136
 51
205.8773621888246907
  0
ARC
  5
15F7B
  8
0
 10
3510.4819200296578856
 20
193.5261801677937115
 30
0.0
 40
0.0039828946248846
 50
142.8721690513717135
 51
177.2577790436259022
  0
ARC
  5
15F7C
  8
0
 10
3510.4794652239929746
 20
193.5278730621307091
 30
0.0
 40
0.0010125160164757
 50
42.2668263451680133
 51
135.3824279091095093
  0
ARC
  5
15F7D
  8
0
 10
3510.4672118684711677
 20
193.516703379364003
 30
0.0
 40
0.0175928206111857
 50
19.473822140095649
 51
42.3462359201193621
  0
ARC
  5
15F7E
  8
0
 10
3510.3899734082970099
 20
193.4854097212856061
 30
0.0
 40
0.1009151772433139
 50
11.9037712175075594
 51
21.6056975622243783
  0
ARC
  5
15F7F
  8
0
 10
3510.404987800042818
 20
193.4864580423889038
 30
0.0
 40
0.0860323639255562
 50
1.04296760849848
 51
13.2832943153892593
  0
ARC
  5
15F80
  8
0
 10
3510.478856025415098
 20
193.4878638342991906
 30
0.0
 40
0.0121509411603088
 50
340.4475272745183929
 51
0.7553600964535852
  0
ARC
  5
15F81
  8
0
 10
3510.4891030289340961
 20
193.4844013203583017
 30
0.0
 40
0.0013463643492345
 50
259.6516383145997224
 51
333.3431213696777036
  0
ARC
  5
15F82
  8
0
 10
3510.5009641482820371
 20
193.4953468497012921
 30
0.0
 40
0.0172346925866386
 50
197.2481993380434062
 51
225.3926305250847122
  0
ARC
  5
15F83
  8
0
 10
3510.5919026982101059
 20
193.5300447677306011
 30
0.0
 40
0.114538479853049
 50
188.693597638288793
 51
200.3377245567974114
  0
ARC
  5
15F84
  8
0
 10
3510.5307683147389071
 20
193.5223918750666883
 30
0.0
 40
0.0529762481019842
 50
175.6926759596960039
 51
190.506034088721691
  0
ARC
  5
15F85
  8
0
 10
3510.8092654019537804
 20
193.3105344932235141
 30
0.0
 40
0.1922855691271689
 50
182.1996567510925047
 51
192.9750399560892902
  0
ARC
  5
15F86
  8
0
 10
3510.6669659643421255
 20
193.3050687539918897
 30
0.0
 40
0.0498812003389055
 50
155.7101528435148055
 51
182.1996567510925047
  0
ARC
  5
15F87
  8
0
 10
3510.6435110672368864
 20
193.3156540429712891
 30
0.0
 40
0.0241483314551546
 50
121.5290093576269044
 51
155.7101528435252078
  0
ARC
  5
15F88
  8
0
 10
3510.6563215229571142
 20
193.2947730175797005
 30
0.0
 40
0.0486457802437724
 50
109.7949933060149021
 51
121.5290093576277002
  0
ARC
  5
15F89
  8
0
 10
3510.6895540508548947
 20
193.2024408058047129
 30
0.0
 40
0.1467765004171282
 50
100.8669532622895986
 51
109.7949933060149021
  0
ARC
  5
15F8A
  8
0
 10
3510.6581150492161214
 20
193.3662098721943892
 30
0.0
 40
0.0199829608741169
 50
280.8669532622637917
 51
330.2112742713551938
  0
ARC
  5
15F8B
  8
0
 10
3510.79482480463912
 20
193.3531466483896963
 30
0.0
 40
0.1194084558152676
 50
171.2186337111621981
 51
178.4952595906075032
  0
ARC
  5
15F8C
  8
0
 10
3510.691026924308062
 20
193.369640217673691
 30
0.0
 40
0.0143165041127299
 50
141.7745356693150995
 51
173.0358344826385917
  0
ARC
  5
15F8D
  8
0
 10
3510.6824364123372106
 20
193.3750657961622892
 30
0.0
 40
0.0043405503251361
 50
59.4135153790092119
 51
127.731899651108094
  0
ARC
  5
15F8E
  8
0
 10
3510.648746306871999
 20
193.3410563595593032
 30
0.0
 40
0.052091114837575
 50
21.3321739000099484
 51
46.4369073659002112
  0
ARC
  5
15F8F
  8
0
 10
3510.3474731967808111
 20
193.2098221068349062
 30
0.0
 40
0.3806729476758447
 50
12.3950953246173494
 51
23.2361349345989616
  0
ARC
  5
15F90
  8
0
 10
3510.364759047618918
 20
193.204888091226195
 30
0.0
 40
0.3649488006910679
 50
2.242546464178595
 51
13.7343124316476395
  0
ARC
  5
15F91
  8
0
 10
3510.6620137730060378
 20
193.2164002804119889
 30
0.0
 40
0.0674713840168294
 50
345.063903624496902
 51
2.3513727939662972
  0
ARC
  5
15F92
  8
0
 10
3510.7184827929290805
 20
193.2014500496638902
 30
0.0
 40
0.0090575960197609
 50
309.3406372489563978
 51
344.3725329017025274
  0
ARC
  5
15F93
  8
0
 10
3510.7220845782180731
 20
193.1979403708199072
 30
0.0
 40
0.0040984991075019
 50
233.6071431474335895
 51
301.4775845835591213
  0
ARC
  5
15F94
  8
0
 10
3510.7423391029137747
 20
193.2234762800007104
 30
0.0
 40
0.036689599220375
 50
197.7810444810716035
 51
231.8057943724350878
  0
ARC
  5
15F95
  8
0
 10
3510.6953063296109576
 20
193.1918503520741979
 30
0.0
 40
0.0237350483182645
 50
59.3615810705676594
 51
105.3025021972465964
  0
ARC
  5
15F96
  8
0
 10
3510.0271818287478709
 20
195.6111500055091881
 30
0.0
 40
2.4861258042780312
 50
285.0046208121170821
 51
285.4395548288430859
  0
ARC
  5
15F97
  8
0
 10
3510.6648048456659126
 20
193.241829894059407
 30
0.0
 40
0.0326030932808341
 50
203.1973871508699858
 51
280.6535959360953143
  0
ARC
  5
15F98
  8
0
 10
3510.7795727437851383
 20
193.2991964879913951
 30
0.0
 40
0.1608650286045817
 50
191.4141921289757136
 51
205.8773621888246907
  0
ARC
  5
15F99
  8
0
 10
3510.6263654113708981
 20
193.2882059251332976
 30
0.0
 40
0.0039828946248846
 50
142.8721690513717135
 51
177.2577790436259022
  0
ARC
  5
15F9A
  8
0
 10
3510.6239106057050776
 20
193.2898988194702099
 30
0.0
 40
0.0010125160164757
 50
42.2668263451680133
 51
135.3824279091095093
  0
ARC
  5
15F9B
  8
0
 10
3510.6116572501828159
 20
193.2787291367035891
 30
0.0
 40
0.0175928206111857
 50
19.473822140095649
 51
42.3462359201193621
  0
ARC
  5
15F9C
  8
0
 10
3510.5344187900100223
 20
193.2474354786251922
 30
0.0
 40
0.1009151772433139
 50
11.9037712175075594
 51
21.6056975622243783
  0
ARC
  5
15F9D
  8
0
 10
3510.5494331817558304
 20
193.2484837997284899
 30
0.0
 40
0.0860323639255562
 50
1.04296760849848
 51
13.2832943153892593
  0
ARC
  5
15F9E
  8
0
 10
3510.6233014071272009
 20
193.2498895916388051
 30
0.0
 40
0.0121509411603088
 50
340.4475272745183929
 51
0.7553600964535852
  0
ARC
  5
15F9F
  8
0
 10
3510.633548410646199
 20
193.2464270776978879
 30
0.0
 40
0.0013463643492345
 50
259.6516383145997224
 51
333.3431213696777036
  0
ARC
  5
15FA0
  8
0
 10
3510.6454095299950495
 20
193.2573726070409066
 30
0.0
 40
0.0172346925866386
 50
197.2481993380434062
 51
225.3926305250847122
  0
ARC
  5
15FA1
  8
0
 10
3510.7363480799222089
 20
193.2920705250701019
 30
0.0
 40
0.114538479853049
 50
188.693597638288793
 51
200.3377245567974114
  0
ARC
  5
15FA2
  8
0
 10
3510.67521369645101
 20
193.2844176324063028
 30
0.0
 40
0.0529762481019842
 50
175.6926759596960039
 51
190.506034088721691
  0
ARC
  5
15FA3
  8
0
 10
3510.7894214784018914
 20
193.0952224524916119
 30
0.0
 40
0.1922855691271689
 50
182.1996567510925047
 51
192.9750399560892902
  0
ARC
  5
15FA4
  8
0
 10
3510.6471220407897817
 20
193.0897567132601012
 30
0.0
 40
0.0498812003389055
 50
155.7101528435148055
 51
182.1996567510925047
  0
ARC
  5
15FA5
  8
0
 10
3510.6236671436849974
 20
193.1003420022395005
 30
0.0
 40
0.0241483314551546
 50
121.5290093576269044
 51
155.7101528435252078
  0
ARC
  5
15FA6
  8
0
 10
3510.6364775994052252
 20
193.079460976847912
 30
0.0
 40
0.0486457802437724
 50
109.7949933060149021
 51
121.5290093576277002
  0
ARC
  5
15FA7
  8
0
 10
3510.6697101273030057
 20
192.9871287650728959
 30
0.0
 40
0.1467765004171282
 50
100.8669532622895986
 51
109.7949933060149021
  0
ARC
  5
15FA8
  8
0
 10
3510.6382711256637776
 20
193.1508978314624869
 30
0.0
 40
0.0199829608741169
 50
280.8669532622637917
 51
330.2112742713551938
  0
ARC
  5
15FA9
  8
0
 10
3510.7749808810867762
 20
193.1378346076579078
 30
0.0
 40
0.1194084558152676
 50
171.2186337111621981
 51
178.4952595906075032
  0
ARC
  5
15FAA
  8
0
 10
3510.671183000756173
 20
193.1543281769419025
 30
0.0
 40
0.0143165041127299
 50
141.7745356693150995
 51
173.0358344826385917
  0
ARC
  5
15FAB
  8
0
 10
3510.6625924887848669
 20
193.1597537554305006
 30
0.0
 40
0.0043405503251361
 50
59.4135153790092119
 51
127.731899651108094
  0
ARC
  5
15FAC
  8
0
 10
3510.6289023833201099
 20
193.1257443188274863
 30
0.0
 40
0.052091114837575
 50
21.3321739000099484
 51
46.4369073659002112
  0
ARC
  5
15FAD
  8
0
 10
3510.3276292732289221
 20
192.994510066103004
 30
0.0
 40
0.3806729476758447
 50
12.3950953246173494
 51
23.2361349345989616
  0
ARC
  5
15FAE
  8
0
 10
3510.344915124067029
 20
192.9895760504942928
 30
0.0
 40
0.3649488006910679
 50
2.242546464178595
 51
13.7343124316476395
  0
ARC
  5
15FAF
  8
0
 10
3510.6421698494541488
 20
193.0010882396802003
 30
0.0
 40
0.0674713840168294
 50
345.063903624496902
 51
2.3513727939662972
  0
ARC
  5
15FB0
  8
0
 10
3510.6986388693771914
 20
192.986138008931988
 30
0.0
 40
0.0090575960197609
 50
309.3406372489563978
 51
344.3725329017025274
  0
ARC
  5
15FB1
  8
0
 10
3510.7022406546661841
 20
192.9826283300880903
 30
0.0
 40
0.0040984991075019
 50
233.6071431474335895
 51
301.4775845835591213
  0
ARC
  5
15FB2
  8
0
 10
3510.7224951793618857
 20
193.0081642392688934
 30
0.0
 40
0.036689599220375
 50
197.7810444810716035
 51
231.8057943724350878
  0
ARC
  5
15FB3
  8
0
 10
3510.6754624060590686
 20
192.9765383113424093
 30
0.0
 40
0.0237350483182645
 50
59.3615810705676594
 51
105.3025021972465964
  0
ARC
  5
15FB4
  8
0
 10
3510.0073379051959819
 20
195.3958379647773995
 30
0.0
 40
2.4861258042780312
 50
285.0046208121170821
 51
285.4395548288430859
  0
ARC
  5
15FB5
  8
0
 10
3510.6449609221140236
 20
193.02651785332759
 30
0.0
 40
0.0326030932808341
 50
203.1973871508699858
 51
280.6535959360953143
  0
ARC
  5
15FB6
  8
0
 10
3510.7597288202341588
 20
193.0838844472596065
 30
0.0
 40
0.1608650286045817
 50
191.4141921289757136
 51
205.8773621888246907
  0
ARC
  5
15FB7
  8
0
 10
3510.6065214878180996
 20
193.072893884401509
 30
0.0
 40
0.0039828946248846
 50
142.8721690513717135
 51
177.2577790436259022
  0
ARC
  5
15FB8
  8
0
 10
3510.6040666821540981
 20
193.0745867787383929
 30
0.0
 40
0.0010125160164757
 50
42.2668263451680133
 51
135.3824279091095093
  0
ARC
  5
15FB9
  8
0
 10
3510.5918133266318364
 20
193.0634170959716869
 30
0.0
 40
0.0175928206111857
 50
19.473822140095649
 51
42.3462359201193621
  0
ARC
  5
15FBA
  8
0
 10
3510.5145748664581333
 20
193.0321234378934037
 30
0.0
 40
0.1009151772433139
 50
11.9037712175075594
 51
21.6056975622243783
  0
ARC
  5
15FBB
  8
0
 10
3510.5295892582039414
 20
193.0331717589965876
 30
0.0
 40
0.0860323639255562
 50
1.04296760849848
 51
13.2832943153892593
  0
ARC
  5
15FBC
  8
0
 10
3510.6034574835762214
 20
193.0345775509069881
 30
0.0
 40
0.0121509411603088
 50
340.4475272745183929
 51
0.7553600964535852
  0
ARC
  5
15FBD
  8
0
 10
3510.6137044870952195
 20
193.0311150369660993
 30
0.0
 40
0.0013463643492345
 50
259.6516383145997224
 51
333.3431213696777036
  0
ARC
  5
15FBE
  8
0
 10
3510.6255656064431605
 20
193.0420605663090896
 30
0.0
 40
0.0172346925866386
 50
197.2481993380434062
 51
225.3926305250847122
  0
ARC
  5
15FBF
  8
0
 10
3510.7165041563698651
 20
193.0767584843383986
 30
0.0
 40
0.114538479853049
 50
188.693597638288793
 51
200.3377245567974114
  0
ARC
  5
15FC0
  8
0
 10
3510.6553697729000305
 20
193.0691055916744858
 30
0.0
 40
0.0529762481019842
 50
175.6926759596960039
 51
190.506034088721691
  0
ARC
  5
15FC1
  8
0
 10
3510.9470275371791104
 20
192.8183516331372118
 30
0.0
 40
0.1922855691271689
 50
182.1996567510925047
 51
192.9750399560892902
  0
ARC
  5
15FC2
  8
0
 10
3510.8047280995670008
 20
192.8128858939057011
 30
0.0
 40
0.0498812003389055
 50
155.7101528435148055
 51
182.1996567510925047
  0
ARC
  5
15FC3
  8
0
 10
3510.7812732024608522
 20
192.8234711828849868
 30
0.0
 40
0.0241483314551546
 50
121.5290093576269044
 51
155.7101528435252078
  0
ARC
  5
15FC4
  8
0
 10
3510.79408365818108
 20
192.8025901574933982
 30
0.0
 40
0.0486457802437724
 50
109.7949933060149021
 51
121.5290093576277002
  0
ARC
  5
15FC5
  8
0
 10
3510.8273161860788605
 20
192.7102579457184106
 30
0.0
 40
0.1467765004171282
 50
100.8669532622895986
 51
109.7949933060149021
  0
ARC
  5
15FC6
  8
0
 10
3510.7958771844409966
 20
192.8740270121080016
 30
0.0
 40
0.0199829608741169
 50
280.8669532622637917
 51
330.2112742713551938
  0
ARC
  5
15FC7
  8
0
 10
3510.9325869398639952
 20
192.860963788303394
 30
0.0
 40
0.1194084558152676
 50
171.2186337111621981
 51
178.4952595906075032
  0
ARC
  5
15FC8
  8
0
 10
3510.8287890595320277
 20
192.8774573575873887
 30
0.0
 40
0.0143165041127299
 50
141.7745356693150995
 51
173.0358344826385917
  0
ARC
  5
15FC9
  8
0
 10
3510.8201985475611764
 20
192.8828829360759869
 30
0.0
 40
0.0043405503251361
 50
59.4135153790092119
 51
127.731899651108094
  0
ARC
  5
15FCA
  8
0
 10
3510.7865084420968742
 20
192.8488734994730862
 30
0.0
 40
0.052091114837575
 50
21.3321739000099484
 51
46.4369073659002112
  0
ARC
  5
15FCB
  8
0
 10
3510.4852353320047769
 20
192.7176392467486039
 30
0.0
 40
0.3806729476758447
 50
12.3950953246173494
 51
23.2361349345989616
  0
ARC
  5
15FCC
  8
0
 10
3510.5025211828437932
 20
192.7127052311398074
 30
0.0
 40
0.3649488006910679
 50
2.242546464178595
 51
13.7343124316476395
  0
ARC
  5
15FCD
  8
0
 10
3510.7997759082300036
 20
192.7242174203256866
 30
0.0
 40
0.0674713840168294
 50
345.063903624496902
 51
2.3513727939662972
  0
ARC
  5
15FCE
  8
0
 10
3510.8562449281530462
 20
192.7092671895775879
 30
0.0
 40
0.0090575960197609
 50
309.3406372489563978
 51
344.3725329017025274
  0
ARC
  5
15FCF
  8
0
 10
3510.8598467134429484
 20
192.7057575107336049
 30
0.0
 40
0.0040984991075019
 50
233.6071431474335895
 51
301.4775845835591213
  0
ARC
  5
15FD0
  8
0
 10
3510.8801012381381952
 20
192.7312934199144081
 30
0.0
 40
0.036689599220375
 50
197.7810444810716035
 51
231.8057943724350878
  0
ARC
  5
15FD1
  8
0
 10
3510.8330684648358329
 20
192.6996674919878956
 30
0.0
 40
0.0237350483182645
 50
59.3615810705676594
 51
105.3025021972465964
  0
ARC
  5
15FD2
  8
0
 10
3510.1649439639718366
 20
195.1189671454229142
 30
0.0
 40
2.4861258042780312
 50
285.0046208121170821
 51
285.4395548288430859
  0
ARC
  5
15FD3
  8
0
 10
3510.8025669808907878
 20
192.7496470339731047
 30
0.0
 40
0.0326030932808341
 50
203.1973871508699858
 51
280.6535959360953143
  0
ARC
  5
15FD4
  8
0
 10
3510.917334879009104
 20
192.8070136279050928
 30
0.0
 40
0.1608650286045817
 50
191.4141921289757136
 51
205.8773621888246907
  0
ARC
  5
15FD5
  8
0
 10
3510.7641275465948638
 20
192.7960230650469953
 30
0.0
 40
0.0039828946248846
 50
142.8721690513717135
 51
177.2577790436259022
  0
ARC
  5
15FD6
  8
0
 10
3510.7616727409299529
 20
192.7977159593839076
 30
0.0
 40
0.0010125160164757
 50
42.2668263451680133
 51
135.3824279091095093
  0
ARC
  5
15FD7
  8
0
 10
3510.7494193854081459
 20
192.7865462766172868
 30
0.0
 40
0.0175928206111857
 50
19.473822140095649
 51
42.3462359201193621
  0
ARC
  5
15FD8
  8
0
 10
3510.6721809252339881
 20
192.7552526185388899
 30
0.0
 40
0.1009151772433139
 50
11.9037712175075594
 51
21.6056975622243783
  0
ARC
  5
15FD9
  8
0
 10
3510.6871953169797962
 20
192.7563009396421876
 30
0.0
 40
0.0860323639255562
 50
1.04296760849848
 51
13.2832943153892593
  0
ARC
  5
15FDA
  8
0
 10
3510.7610635423520762
 20
192.7577067315525028
 30
0.0
 40
0.0121509411603088
 50
340.4475272745183929
 51
0.7553600964535852
  0
ARC
  5
15FDB
  8
0
 10
3510.7713105458719838
 20
192.754244217611614
 30
0.0
 40
0.0013463643492345
 50
259.6516383145997224
 51
333.3431213696777036
  0
ARC
  5
15FDC
  8
0
 10
3510.7831716652190153
 20
192.7651897469546043
 30
0.0
 40
0.0172346925866386
 50
197.2481993380434062
 51
225.3926305250847122
  0
ARC
  5
15FDD
  8
0
 10
3510.8741102151470841
 20
192.7998876649839133
 30
0.0
 40
0.114538479853049
 50
188.693597638288793
 51
200.3377245567974114
  0
ARC
  5
15FDE
  8
0
 10
3510.8129758316758853
 20
192.7922347723200005
 30
0.0
 40
0.0529762481019842
 50
175.6926759596960039
 51
190.506034088721691
  0
ARC
  5
15FDF
  8
0
 10
3510.9116583180598354
 20
192.6498970574783129
 30
0.0
 40
0.1922855691271689
 50
182.1996567510925047
 51
192.9750399560892902
  0
ARC
  5
15FE0
  8
0
 10
3510.7693588804481806
 20
192.6444313182468022
 30
0.0
 40
0.0498812003389055
 50
155.7101528435148055
 51
182.1996567510925047
  0
ARC
  5
15FE1
  8
0
 10
3510.745903983343851
 20
192.6550166072262016
 30
0.0
 40
0.0241483314551546
 50
121.5290093576269044
 51
155.7101528435252078
  0
ARC
  5
15FE2
  8
0
 10
3510.7587144390631693
 20
192.634135581834613
 30
0.0
 40
0.0486457802437724
 50
109.7949933060149021
 51
121.5290093576277002
  0
ARC
  5
15FE3
  8
0
 10
3510.7919469669609498
 20
192.541803370059597
 30
0.0
 40
0.1467765004171282
 50
100.8669532622895986
 51
109.7949933060149021
  0
ARC
  5
15FE4
  8
0
 10
3510.760507965323086
 20
192.705572436449188
 30
0.0
 40
0.0199829608741169
 50
280.8669532622637917
 51
330.2112742713551938
  0
ARC
  5
15FE5
  8
0
 10
3510.8972177207460845
 20
192.6925092126446089
 30
0.0
 40
0.1194084558152676
 50
171.2186337111621981
 51
178.4952595906075032
  0
ARC
  5
15FE6
  8
0
 10
3510.7934198404141171
 20
192.7090027819286036
 30
0.0
 40
0.0143165041127299
 50
141.7745356693150995
 51
173.0358344826385917
  0
ARC
  5
15FE7
  8
0
 10
3510.7848293284428109
 20
192.7144283604172017
 30
0.0
 40
0.0043405503251361
 50
59.4135153790092119
 51
127.731899651108094
  0
ARC
  5
15FE8
  8
0
 10
3510.751139222978054
 20
192.6804189238141873
 30
0.0
 40
0.052091114837575
 50
21.3321739000099484
 51
46.4369073659002112
  0
ARC
  5
15FE9
  8
0
 10
3510.4498661128877757
 20
192.549184671089705
 30
0.0
 40
0.3806729476758447
 50
12.3950953246173494
 51
23.2361349345989616
  0
ARC
  5
15FEA
  8
0
 10
3510.4671519637258825
 20
192.5442506554809938
 30
0.0
 40
0.3649488006910679
 50
2.242546464178595
 51
13.7343124316476395
  0
ARC
  5
15FEB
  8
0
 10
3510.7644066891120929
 20
192.5557628446669014
 30
0.0
 40
0.0674713840168294
 50
345.063903624496902
 51
2.3513727939662972
  0
ARC
  5
15FEC
  8
0
 10
3510.8208757090351355
 20
192.5408126139186891
 30
0.0
 40
0.0090575960197609
 50
309.3406372489563978
 51
344.3725329017025274
  0
ARC
  5
15FED
  8
0
 10
3510.8244774943241282
 20
192.5373029350747913
 30
0.0
 40
0.0040984991075019
 50
233.6071431474335895
 51
301.4775845835591213
  0
ARC
  5
15FEE
  8
0
 10
3510.8447320190198297
 20
192.5628388442555945
 30
0.0
 40
0.036689599220375
 50
197.7810444810716035
 51
231.8057943724350878
  0
ARC
  5
15FEF
  8
0
 10
3510.7976992457170127
 20
192.5312129163291104
 30
0.0
 40
0.0237350483182645
 50
59.3615810705676594
 51
105.3025021972465964
  0
ARC
  5
15FF0
  8
0
 10
3510.1295747448539259
 20
194.9505125697641006
 30
0.0
 40
2.4861258042780312
 50
285.0046208121170821
 51
285.4395548288430859
  0
ARC
  5
15FF1
  8
0
 10
3510.7671977617728771
 20
192.5811924583142911
 30
0.0
 40
0.0326030932808341
 50
203.1973871508699858
 51
280.6535959360953143
  0
ARC
  5
15FF2
  8
0
 10
3510.8819656598911934
 20
192.6385590522461939
 30
0.0
 40
0.1608650286045817
 50
191.4141921289757136
 51
205.8773621888246907
  0
ARC
  5
15FF3
  8
0
 10
3510.7287583274769531
 20
192.6275684893882101
 30
0.0
 40
0.0039828946248846
 50
142.8721690513717135
 51
177.2577790436259022
  0
ARC
  5
15FF4
  8
0
 10
3510.7263035218120422
 20
192.629261383725094
 30
0.0
 40
0.0010125160164757
 50
42.2668263451680133
 51
135.3824279091095093
  0
ARC
  5
15FF5
  8
0
 10
3510.7140501662897805
 20
192.6180917009583879
 30
0.0
 40
0.0175928206111857
 50
19.473822140095649
 51
42.3462359201193621
  0
ARC
  5
15FF6
  8
0
 10
3510.6368117061160774
 20
192.5867980428801047
 30
0.0
 40
0.1009151772433139
 50
11.9037712175075594
 51
21.6056975622243783
  0
ARC
  5
15FF7
  8
0
 10
3510.6518260978618855
 20
192.5878463639834024
 30
0.0
 40
0.0860323639255562
 50
1.04296760849848
 51
13.2832943153892593
  0
ARC
  5
15FF8
  8
0
 10
3510.7256943232341655
 20
192.5892521558936892
 30
0.0
 40
0.0121509411603088
 50
340.4475272745183929
 51
0.7553600964535852
  0
ARC
  5
15FF9
  8
0
 10
3510.7359413267531636
 20
192.5857896419528004
 30
0.0
 40
0.0013463643492345
 50
259.6516383145997224
 51
333.3431213696777036
  0
ARC
  5
15FFA
  8
0
 10
3510.7478024461011046
 20
192.5967351712957907
 30
0.0
 40
0.0172346925866386
 50
197.2481993380434062
 51
225.3926305250847122
  0
ARC
  5
15FFB
  8
0
 10
3510.8387409960291734
 20
192.631433089324986
 30
0.0
 40
0.114538479853049
 50
188.693597638288793
 51
200.3377245567974114
  0
ARC
  5
15FFC
  8
0
 10
3510.7776066125570651
 20
192.6237801966611869
 30
0.0
 40
0.0529762481019842
 50
175.6926759596960039
 51
190.506034088721691
  0
ARC
  5
15FFD
  8
0
 10
3511.0828639807127729
 20
192.3269246005696971
 30
0.0
 40
0.1922855691271689
 50
182.1996567510925047
 51
192.9750399560892902
  0
ARC
  5
15FFE
  8
0
 10
3510.940564543101118
 20
192.3214588613381011
 30
0.0
 40
0.0498812003389055
 50
155.7101528435148055
 51
182.1996567510925047
  0
ARC
  5
15FFF
  8
0
 10
3510.9171096459949695
 20
192.3320441503175005
 30
0.0
 40
0.0241483314551546
 50
121.5290093576269044
 51
155.7101528435252078
  0
ARC
  5
16000
  8
0
 10
3510.9299201017161067
 20
192.3111631249259119
 30
0.0
 40
0.0486457802437724
 50
109.7949933060149021
 51
121.5290093576277002
  0
ARC
  5
16001
  8
0
 10
3510.9631526296138873
 20
192.2188309131508959
 30
0.0
 40
0.1467765004171282
 50
100.8669532622895986
 51
109.7949933060149021
  0
ARC
  5
16002
  8
0
 10
3510.9317136279751139
 20
192.3825999795404869
 30
0.0
 40
0.0199829608741169
 50
280.8669532622637917
 51
330.2112742713551938
  0
ARC
  5
16003
  8
0
 10
3511.0684233833981125
 20
192.3695367557359077
 30
0.0
 40
0.1194084558152676
 50
171.2186337111621981
 51
178.4952595906075032
  0
ARC
  5
16004
  8
0
 10
3510.9646255030670545
 20
192.3860303250199024
 30
0.0
 40
0.0143165041127299
 50
141.7745356693150995
 51
173.0358344826385917
  0
ARC
  5
16005
  8
0
 10
3510.9560349910962032
 20
192.3914559035085006
 30
0.0
 40
0.0043405503251361
 50
59.4135153790092119
 51
127.731899651108094
  0
ARC
  5
16006
  8
0
 10
3510.9223448856309915
 20
192.3574464669054862
 30
0.0
 40
0.052091114837575
 50
21.3321739000099484
 51
46.4369073659002112
  0
ARC
  5
16007
  8
0
 10
3510.6210717755398036
 20
192.2262122141810039
 30
0.0
 40
0.3806729476758447
 50
12.3950953246173494
 51
23.2361349345989616
  0
ARC
  5
16008
  8
0
 10
3510.6383576263779105
 20
192.2212781985722927
 30
0.0
 40
0.3649488006910679
 50
2.242546464178595
 51
13.7343124316476395
  0
ARC
  5
16009
  8
0
 10
3510.9356123517641208
 20
192.2327903877582003
 30
0.0
 40
0.0674713840168294
 50
345.063903624496902
 51
2.3513727939662972
  0
ARC
  5
1600A
  8
0
 10
3510.992081371688073
 20
192.2178401570101016
 30
0.0
 40
0.0090575960197609
 50
309.3406372489563978
 51
344.3725329017025274
  0
ARC
  5
1600B
  8
0
 10
3510.9956831569770657
 20
192.2143304781660902
 30
0.0
 40
0.0040984991075019
 50
233.6071431474335895
 51
301.4775845835591213
  0
ARC
  5
1600C
  8
0
 10
3511.015937681673222
 20
192.2398663873468934
 30
0.0
 40
0.036689599220375
 50
197.7810444810716035
 51
231.8057943724350878
  0
ARC
  5
1600D
  8
0
 10
3510.9689049083699501
 20
192.2082404594204093
 30
0.0
 40
0.0237350483182645
 50
59.3615810705676594
 51
105.3025021972465964
  0
ARC
  5
1600E
  8
0
 10
3510.3007804075068634
 20
194.6275401128553995
 30
0.0
 40
2.4861258042780312
 50
285.0046208121170821
 51
285.4395548288430859
  0
ARC
  5
1600F
  8
0
 10
3510.9384034244249051
 20
192.25822000140559
 30
0.0
 40
0.0326030932808341
 50
203.1973871508699858
 51
280.6535959360953143
  0
ARC
  5
16010
  8
0
 10
3511.0531713225441308
 20
192.3155865953376065
 30
0.0
 40
0.1608650286045817
 50
191.4141921289757136
 51
205.8773621888246907
  0
ARC
  5
16011
  8
0
 10
3510.8999639901289811
 20
192.3045960324795089
 30
0.0
 40
0.0039828946248846
 50
142.8721690513717135
 51
177.2577790436259022
  0
ARC
  5
16012
  8
0
 10
3510.8975091844649796
 20
192.3062889268163929
 30
0.0
 40
0.0010125160164757
 50
42.2668263451680133
 51
135.3824279091095093
  0
ARC
  5
16013
  8
0
 10
3510.8852558289418084
 20
192.2951192440498005
 30
0.0
 40
0.0175928206111857
 50
19.473822140095649
 51
42.3462359201193621
  0
ARC
  5
16014
  8
0
 10
3510.8080173687690149
 20
192.2638255859714036
 30
0.0
 40
0.1009151772433139
 50
11.9037712175075594
 51
21.6056975622243783
  0
ARC
  5
16015
  8
0
 10
3510.8230317605139135
 20
192.2648739070745876
 30
0.0
 40
0.0860323639255562
 50
1.04296760849848
 51
13.2832943153892593
  0
ARC
  5
16016
  8
0
 10
3510.8968999858861935
 20
192.266279698984988
 30
0.0
 40
0.0121509411603088
 50
340.4475272745183929
 51
0.7553600964535852
  0
ARC
  5
16017
  8
0
 10
3510.9071469894051916
 20
192.2628171850440992
 30
0.0
 40
0.0013463643492345
 50
259.6516383145997224
 51
333.3431213696777036
  0
ARC
  5
16018
  8
0
 10
3510.919008108754042
 20
192.2737627143870895
 30
0.0
 40
0.0172346925866386
 50
197.2481993380434062
 51
225.3926305250847122
  0
ARC
  5
16019
  8
0
 10
3511.0099466586812014
 20
192.3084606324163133
 30
0.0
 40
0.114538479853049
 50
188.693597638288793
 51
200.3377245567974114
  0
ARC
  5
1601A
  8
0
 10
3510.948812275210912
 20
192.3008077397525142
 30
0.0
 40
0.0529762481019842
 50
175.6926759596960039
 51
190.506034088721691
  0
ARC
  5
1601B
  8
0
 10
3511.1399993646728035
 20
192.0056149306834072
 30
0.0
 40
0.1922855691271689
 50
182.1996567510925047
 51
192.9750399560892902
  0
ARC
  5
1601C
  8
0
 10
3510.9976999270620581
 20
192.0001491914518965
 30
0.0
 40
0.0498812003389055
 50
155.7101528435148055
 51
182.1996567510925047
  0
ARC
  5
1601D
  8
0
 10
3510.9742450299559096
 20
192.0107344804312106
 30
0.0
 40
0.0241483314551546
 50
121.5290093576269044
 51
155.7101528435252078
  0
ARC
  5
1601E
  8
0
 10
3510.9870554856761373
 20
191.9898534550397073
 30
0.0
 40
0.0486457802437724
 50
109.7949933060149021
 51
121.5290093576277002
  0
ARC
  5
1601F
  8
0
 10
3511.0202880135739179
 20
191.8975212432646913
 30
0.0
 40
0.1467765004171282
 50
100.8669532622895986
 51
109.7949933060149021
  0
ARC
  5
16020
  8
0
 10
3510.988849011936054
 20
192.0612903096543107
 30
0.0
 40
0.0199829608741169
 50
280.8669532622637917
 51
330.2112742713551938
  0
ARC
  5
16021
  8
0
 10
3511.1255587673590526
 20
192.0482270858495895
 30
0.0
 40
0.1194084558152676
 50
171.2186337111621981
 51
178.4952595906075032
  0
ARC
  5
16022
  8
0
 10
3511.0217608870270851
 20
192.0647206551336126
 30
0.0
 40
0.0143165041127299
 50
141.7745356693150995
 51
173.0358344826385917
  0
ARC
  5
16023
  8
0
 10
3511.013170375055779
 20
192.0701462336222107
 30
0.0
 40
0.0043405503251361
 50
59.4135153790092119
 51
127.731899651108094
  0
ARC
  5
16024
  8
0
 10
3510.9794802695910221
 20
192.0361367970193101
 30
0.0
 40
0.052091114837575
 50
21.3321739000099484
 51
46.4369073659002112
  0
ARC
  5
16025
  8
0
 10
3510.6782071595011985
 20
191.9049025442947993
 30
0.0
 40
0.3806729476758447
 50
12.3950953246173494
 51
23.2361349345989616
  0
ARC
  5
16026
  8
0
 10
3510.6954930103379411
 20
191.8999685286860881
 30
0.0
 40
0.3649488006910679
 50
2.242546464178595
 51
13.7343124316476395
  0
ARC
  5
16027
  8
0
 10
3510.9927477357250609
 20
191.9114807178719957
 30
0.0
 40
0.0674713840168294
 50
345.063903624496902
 51
2.3513727939662972
  0
ARC
  5
16028
  8
0
 10
3511.0492167556481036
 20
191.896530487123897
 30
0.0
 40
0.0090575960197609
 50
309.3406372489563978
 51
344.3725329017025274
  0
ARC
  5
16029
  8
0
 10
3511.0528185409380058
 20
191.8930208082798003
 30
0.0
 40
0.0040984991075019
 50
233.6071431474335895
 51
301.4775845835591213
  0
ARC
  5
1602A
  8
0
 10
3511.0730730656327978
 20
191.9185567174606035
 30
0.0
 40
0.036689599220375
 50
197.7810444810716035
 51
231.8057943724350878
  0
ARC
  5
1602B
  8
0
 10
3511.0260402923308902
 20
191.8869307895342047
 30
0.0
 40
0.0237350483182645
 50
59.3615810705676594
 51
105.3025021972465964
  0
ARC
  5
1602C
  8
0
 10
3510.357915791466894
 20
194.3062304429691096
 30
0.0
 40
2.4861258042780312
 50
285.0046208121170821
 51
285.4395548288430859
  0
ARC
  5
1602D
  8
0
 10
3510.9955388083858452
 20
191.9369103315194138
 30
0.0
 40
0.0326030932808341
 50
203.1973871508699858
 51
280.6535959360953143
  0
ARC
  5
1602E
  8
0
 10
3511.1103067065050709
 20
191.9942769254512882
 30
0.0
 40
0.1608650286045817
 50
191.4141921289757136
 51
205.8773621888246907
  0
ARC
  5
1602F
  8
0
 10
3510.9570993740899212
 20
191.9832863625931907
 30
0.0
 40
0.0039828946248846
 50
142.8721690513717135
 51
177.2577790436259022
  0
ARC
  5
16030
  8
0
 10
3510.9546445684250102
 20
191.9849792569301883
 30
0.0
 40
0.0010125160164757
 50
42.2668263451680133
 51
135.3824279091095093
  0
ARC
  5
16031
  8
0
 10
3510.942391212901839
 20
191.9738095741635107
 30
0.0
 40
0.0175928206111857
 50
19.473822140095649
 51
42.3462359201193621
  0
ARC
  5
16032
  8
0
 10
3510.8651527527290455
 20
191.9425159160851138
 30
0.0
 40
0.1009151772433139
 50
11.9037712175075594
 51
21.6056975622243783
  0
ARC
  5
16033
  8
0
 10
3510.8801671444748536
 20
191.9435642371884114
 30
0.0
 40
0.0860323639255562
 50
1.04296760849848
 51
13.2832943153892593
  0
ARC
  5
16034
  8
0
 10
3510.9540353698471336
 20
191.9449700290986982
 30
0.0
 40
0.0121509411603088
 50
340.4475272745183929
 51
0.7553600964535852
  0
ARC
  5
16035
  8
0
 10
3510.9642823733661317
 20
191.9415075151578094
 30
0.0
 40
0.0013463643492345
 50
259.6516383145997224
 51
333.3431213696777036
  0
ARC
  5
16036
  8
0
 10
3510.9761434927140726
 20
191.9524530445009134
 30
0.0
 40
0.0172346925866386
 50
197.2481993380434062
 51
225.3926305250847122
  0
ARC
  5
16037
  8
0
 10
3511.0670820426421415
 20
191.9871509625301087
 30
0.0
 40
0.114538479853049
 50
188.693597638288793
 51
200.3377245567974114
  0
ARC
  5
16038
  8
0
 10
3511.0059476591709426
 20
191.9794980698661959
 30
0.0
 40
0.0529762481019842
 50
175.6926759596960039
 51
190.506034088721691
  0
ARC
  5
16039
  8
0
 10
3510.3021666092058695
 20
194.939553623149493
 30
0.0
 40
0.1922855691271689
 50
182.1996567510925047
 51
192.9750399560892902
  0
ARC
  5
1603A
  8
0
 10
3510.1598671715942146
 20
194.934087883917897
 30
0.0
 40
0.0498812003389055
 50
155.7101528435148055
 51
182.1996567510925047
  0
ARC
  5
1603B
  8
0
 10
3510.1364122744889755
 20
194.9446731728972964
 30
0.0
 40
0.0241483314551546
 50
121.5290093576269044
 51
155.7101528435252078
  0
ARC
  5
1603C
  8
0
 10
3510.1492227302092033
 20
194.9237921475057078
 30
0.0
 40
0.0486457802437724
 50
109.7949933060149021
 51
121.5290093576277002
  0
ARC
  5
1603D
  8
0
 10
3510.1824552581069838
 20
194.8314599357306918
 30
0.0
 40
0.1467765004171282
 50
100.8669532622895986
 51
109.7949933060149021
  0
ARC
  5
1603E
  8
0
 10
3510.15101625646912
 20
194.9952290021203112
 30
0.0
 40
0.0199829608741169
 50
280.8669532622637917
 51
330.2112742713551938
  0
ARC
  5
1603F
  8
0
 10
3510.2877260118921185
 20
194.9821657783157036
 30
0.0
 40
0.1194084558152676
 50
171.2186337111621981
 51
178.4952595906075032
  0
ARC
  5
16040
  8
0
 10
3510.1839281315601511
 20
194.9986593475996983
 30
0.0
 40
0.0143165041127299
 50
141.7745356693150995
 51
173.0358344826385917
  0
ARC
  5
16041
  8
0
 10
3510.175337619588845
 20
195.0040849260882965
 30
0.0
 40
0.0043405503251361
 50
59.4135153790092119
 51
127.731899651108094
  0
ARC
  5
16042
  8
0
 10
3510.141647514124088
 20
194.9700754894853105
 30
0.0
 40
0.052091114837575
 50
21.3321739000099484
 51
46.4369073659002112
  0
ARC
  5
16043
  8
0
 10
3509.8403744040338097
 20
194.8388412367607998
 30
0.0
 40
0.3806729476758447
 50
12.3950953246173494
 51
23.2361349345989616
  0
ARC
  5
16044
  8
0
 10
3509.8576602548719165
 20
194.8339072211520886
 30
0.0
 40
0.3649488006910679
 50
2.242546464178595
 51
13.7343124316476395
  0
ARC
  5
16045
  8
0
 10
3510.1549149802572174
 20
194.8454194103379962
 30
0.0
 40
0.0674713840168294
 50
345.063903624496902
 51
2.3513727939662972
  0
ARC
  5
16046
  8
0
 10
3510.2113840001811695
 20
194.8304691795898975
 30
0.0
 40
0.0090575960197609
 50
309.3406372489563978
 51
344.3725329017025274
  0
ARC
  5
16047
  8
0
 10
3510.2149857854701622
 20
194.8269595007458861
 30
0.0
 40
0.0040984991075019
 50
233.6071431474335895
 51
301.4775845835591213
  0
ARC
  5
16048
  8
0
 10
3510.2352403101658638
 20
194.8524954099266893
 30
0.0
 40
0.036689599220375
 50
197.7810444810716035
 51
231.8057943724350878
  0
ARC
  5
16049
  8
0
 10
3510.1882075368630467
 20
194.8208694820002052
 30
0.0
 40
0.0237350483182645
 50
59.3615810705676594
 51
105.3025021972465964
  0
ARC
  5
1604A
  8
0
 10
3509.52008303599996
 20
197.2401691354351954
 30
0.0
 40
2.4861258042780312
 50
285.0046208121170821
 51
285.4395548288430859
  0
ARC
  5
1604B
  8
0
 10
3510.1577060529189112
 20
194.8708490239853859
 30
0.0
 40
0.0326030932808341
 50
203.1973871508699858
 51
280.6535959360953143
  0
ARC
  5
1604C
  8
0
 10
3510.2724739510367726
 20
194.9282156179172887
 30
0.0
 40
0.1608650286045817
 50
191.4141921289757136
 51
205.8773621888246907
  0
ARC
  5
1604D
  8
0
 10
3510.1192666186220777
 20
194.9172250550593049
 30
0.0
 40
0.0039828946248846
 50
142.8721690513717135
 51
177.2577790436259022
  0
ARC
  5
1604E
  8
0
 10
3510.1168118129580762
 20
194.9189179493961888
 30
0.0
 40
0.0010125160164757
 50
42.2668263451680133
 51
135.3824279091095093
  0
ARC
  5
1604F
  8
0
 10
3510.1045584574358145
 20
194.9077482666295964
 30
0.0
 40
0.0175928206111857
 50
19.473822140095649
 51
42.3462359201193621
  0
ARC
  5
16050
  8
0
 10
3510.0273199972621114
 20
194.8764546085510858
 30
0.0
 40
0.1009151772433139
 50
11.9037712175075594
 51
21.6056975622243783
  0
ARC
  5
16051
  8
0
 10
3510.0423343890079195
 20
194.8775029296544972
 30
0.0
 40
0.0860323639255562
 50
1.04296760849848
 51
13.2832943153892593
  0
ARC
  5
16052
  8
0
 10
3510.1162026143801995
 20
194.8789087215648124
 30
0.0
 40
0.0121509411603088
 50
340.4475272745183929
 51
0.7553600964535852
  0
ARC
  5
16053
  8
0
 10
3510.1264496178991976
 20
194.8754462076238951
 30
0.0
 40
0.0013463643492345
 50
259.6516383145997224
 51
333.3431213696777036
  0
ARC
  5
16054
  8
0
 10
3510.1383107372471386
 20
194.8863917369669991
 30
0.0
 40
0.0172346925866386
 50
197.2481993380434062
 51
225.3926305250847122
  0
ARC
  5
16055
  8
0
 10
3510.2292492871752074
 20
194.9210896549961092
 30
0.0
 40
0.114538479853049
 50
188.693597638288793
 51
200.3377245567974114
  0
ARC
  5
16056
  8
0
 10
3510.1681149037040086
 20
194.9134367623323101
 30
0.0
 40
0.0529762481019842
 50
175.6926759596960039
 51
190.506034088721691
  0
ARC
  5
16057
  8
0
 10
3509.9802156011969601
 20
195.289020956765512
 30
0.0
 40
0.3903042724351978
 50
286.3972275465695247
 51
289.5401177019373904
  0
ARC
  5
16058
  8
0
 10
3510.1099191626622087
 20
194.8206110915249099
 30
0.0
 40
0.0959865001208654
 50
101.7352114586139038
 51
108.9367326240509044
  0
ARC
  5
16059
  8
0
 10
3510.0887207629120894
 20
194.882397264581499
 30
0.0
 40
0.0306649620730225
 50
108.9367326240509044
 51
177.6538513084192061
  0
ARC
  5
1605A
  8
0
 10
3510.3903986956429435
 20
194.8998584749789131
 30
0.0
 40
0.3327121061371611
 50
182.7918934641018893
 51
191.0386775500739986
  0
ARC
  5
1605B
  8
0
 10
3510.3616806801678649
 20
194.8847713215951103
 30
0.0
 40
0.3017802869905732
 50
189.2709349034263084
 51
196.2677773728493094
  0
ARC
  5
1605C
  8
0
 10
3510.0997010425371627
 20
194.8075730381424933
 30
0.0
 40
0.0286732580693935
 50
194.8289873099458021
 51
284.3933139322231227
  0
ARC
  5
1605D
  8
0
 10
-629.9507607660407302
 20
15296.5103307383596984
 30
0.0
 40
15658.9380825394491694
 50
285.3306753210126772
 51
285.3307319029107134
  0
ARC
  5
1605E
  8
0
 10
3510.1276658518731892
 20
194.752838183298195
 30
0.0
 40
0.0316100843905962
 50
51.8413645999901291
 51
100.8010985522361977
  0
ARC
  5
1605F
  8
0
 10
3510.132467176461887
 20
194.7589486507687013
 30
0.0
 40
0.0238389499479821
 50
7.8682284670746769
 51
51.8413646000116302
  0
ARC
  5
16060
  8
0
 10
3509.1938217308647836
 20
194.6846535652732939
 30
0.0
 40
0.9677410532359033
 50
6.0978460939121621
 51
9.2013363605640421
  0
ARC
  5
16061
  8
0
 10
3510.0381929756767931
 20
194.7748587152036066
 30
0.0
 40
0.1185651184966377
 50
353.8769571553921196
 51
6.0978460939137813
  0
ARC
  5
16062
  8
0
 10
3510.0277818400959404
 20
194.991558530388204
 30
0.0
 40
0.0062920112777707
 50
172.0253940953525102
 51
185.1412884040128972
  0
ARC
  5
16063
  8
0
 10
3509.9906481445700592
 20
194.9809638821066073
 30
0.0
 40
0.0329616660157387
 50
17.9457131580134686
 51
20.3592974964809912
  0
ARC
  5
16064
  8
0
 10
3509.5396361331531807
 20
194.895145373737904
 30
0.0
 40
0.491825150020027
 50
7.7441854586276353
 51
11.2528732375401308
  0
ARC
  5
16065
  8
0
 10
3509.5995114754878159
 20
194.9005315440984134
 30
0.0
 40
0.4317787456457989
 50
6.7955295767903046
 51
8.1066072976601724
  0
ARC
  5
16066
  8
0
 10
3509.940817929566947
 20
194.9407442829840136
 30
0.0
 40
0.0881130012627109
 50
3.648277034026806
 51
7.091631419814755
  0
ARC
  5
16067
  8
0
 10
3510.0186586291638378
 20
194.9466421700925025
 30
0.0
 40
0.0100979354208247
 50
353.114541378541503
 51
358.3478908314831983
  0
ARC
  5
16068
  8
0
 10
3510.0395687629588792
 20
194.9500226157259135
 30
0.0
 40
0.0118136113145375
 50
189.5022628196190908
 51
202.8688156487127117
  0
ARC
  5
16069
  8
0
 10
3510.5465068713829169
 20
195.0473614501665054
 30
0.0
 40
0.5280090210397136
 50
186.1281970231017908
 51
190.8386755129716903
  0
ARC
  5
1606A
  8
0
 10
3510.069437499185824
 20
194.8604452675901939
 30
0.0
 40
0.0062920112777707
 50
172.0253940953525102
 51
185.1412884040128972
  0
ARC
  5
1606B
  8
0
 10
3510.0323038036599428
 20
194.8498506193085973
 30
0.0
 40
0.0329616660157387
 50
17.9457131580134686
 51
20.3592974964809912
  0
ARC
  5
1606C
  8
0
 10
3509.5812917922430643
 20
194.764032110939894
 30
0.0
 40
0.491825150020027
 50
7.7441854586276353
 51
11.2528732375401308
  0
ARC
  5
1606D
  8
0
 10
3509.6411671345781542
 20
194.7694182813004034
 30
0.0
 40
0.4317787456457989
 50
6.7955295767903046
 51
8.1066072976601724
  0
ARC
  5
1606E
  8
0
 10
3509.9824735886568305
 20
194.8096310201858898
 30
0.0
 40
0.0881130012627109
 50
3.648277034026806
 51
7.091631419814755
  0
ARC
  5
1606F
  8
0
 10
3510.0603142882550856
 20
194.8155289072944925
 30
0.0
 40
0.0100979354208247
 50
353.114541378541503
 51
358.3478908314831983
  0
ARC
  5
16070
  8
0
 10
3510.0812244220492175
 20
194.8189093529279035
 30
0.0
 40
0.0118136113145375
 50
189.5022628196190908
 51
202.8688156487127117
  0
ARC
  5
16071
  8
0
 10
3510.5881625304728004
 20
194.9162481873684953
 30
0.0
 40
0.5280090210397136
 50
186.1281970231017908
 51
190.8386755129716903
  0
ARC
  5
16072
  8
0
 10
3516.5470554421099223
 20
195.8736576503659137
 30
0.0
 40
6.5131654832052499
 50
189.6275077707217065
 51
191.108246246611003
  0
ARC
  5
16073
  8
0
 10
3510.1011813363261354
 20
194.6957103926999935
 30
0.0
 40
0.0394857153711517
 50
285.3958579579572188
 51
8.1525695603008224
  0
ARC
  5
16074
  8
0
 10
3508.5159206932380584
 20
200.4525883865530034
 30
0.0
 40
6.0106410091676823
 50
285.2655773856213273
 51
285.3958579579572188
  0
ARC
  5
16075
  8
0
 10
3510.1058882258539597
 20
194.6268968437171054
 30
0.0
 40
0.0281236581332164
 50
105.2655773856469068
 51
202.1782597400938926
  0
ARC
  5
16076
  8
0
 10
3534.9823364944090827
 20
199.4345797023885893
 30
0.0
 40
25.3643465102405301
 50
190.9506522787864924
 51
191.4015169905962068
  0
ARC
  5
16077
  8
0
 10
3510.1454942545201448
 20
194.4260576333155086
 30
0.0
 40
0.0275352202428554
 50
191.7036497950734883
 51
234.5975165197664865
  0
ARC
  5
16078
  8
0
 10
3510.3213638781608097
 20
194.5874358851104944
 30
0.0
 40
0.1922855691271689
 50
182.1996567510925047
 51
192.9750399560892902
  0
ARC
  5
16079
  8
0
 10
3510.1790644405491548
 20
194.5819701458788984
 30
0.0
 40
0.0498812003389055
 50
155.7101528435148055
 51
182.1996567510925047
  0
ARC
  5
1607A
  8
0
 10
3510.1556095434439158
 20
194.5925554348582978
 30
0.0
 40
0.0241483314551546
 50
121.5290093576269044
 51
155.7101528435252078
  0
ARC
  5
1607B
  8
0
 10
3510.1684199991641435
 20
194.5716744094667092
 30
0.0
 40
0.0486457802437724
 50
109.7949933060149021
 51
121.5290093576277002
  0
ARC
  5
1607C
  8
0
 10
3510.201652527061924
 20
194.4793421976916932
 30
0.0
 40
0.1467765004171282
 50
100.8669532622895986
 51
109.7949933060149021
  0
ARC
  5
1607D
  8
0
 10
3510.1702135254240602
 20
194.6431112640813126
 30
0.0
 40
0.0199829608741169
 50
280.8669532622637917
 51
330.2112742713551938
  0
ARC
  5
1607E
  8
0
 10
3510.3069232808470588
 20
194.630048040276705
 30
0.0
 40
0.1194084558152676
 50
171.2186337111621981
 51
178.4952595906075032
  0
ARC
  5
1607F
  8
0
 10
3510.2031254005150913
 20
194.6465416095606997
 30
0.0
 40
0.0143165041127299
 50
141.7745356693150995
 51
173.0358344826385917
  0
ARC
  5
16080
  8
0
 10
3510.1945348885437852
 20
194.6519671880492979
 30
0.0
 40
0.0043405503251361
 50
59.4135153790092119
 51
127.731899651108094
  0
ARC
  5
16081
  8
0
 10
3510.1608447830790283
 20
194.6179577514463119
 30
0.0
 40
0.052091114837575
 50
21.3321739000099484
 51
46.4369073659002112
  0
ARC
  5
16082
  8
0
 10
3509.8595716729892047
 20
194.4867234987218865
 30
0.0
 40
0.3806729476758447
 50
12.3950953246173494
 51
23.2361349345989616
  0
ARC
  5
16083
  8
0
 10
3509.8768575238268568
 20
194.4817894831132037
 30
0.0
 40
0.3649488006910679
 50
6.0559406258873736
 51
13.7343124316476395
  0
ARC
  5
16084
  8
0
 10
3510.254437579120804
 20
194.5003776718876907
 30
0.0
 40
0.036689599220375
 50
197.7810444810716035
 51
205.6712683963573909
  0
ARC
  5
16085
  8
0
 10
3510.2074048058179869
 20
194.4687517439612066
 30
0.0
 40
0.0237350483182645
 50
59.3615810705676594
 51
105.3025021972465964
  0
ARC
  5
16086
  8
0
 10
3509.5392803049539907
 20
196.8880513973961968
 30
0.0
 40
2.4861258042780312
 50
285.0046208121170821
 51
285.4395548288430859
  0
ARC
  5
16087
  8
0
 10
3510.1769033218738514
 20
194.5187312859463873
 30
0.0
 40
0.0326030932808341
 50
203.1973871508699858
 51
280.6535959360953143
  0
ARC
  5
16088
  8
0
 10
3510.2916712199921676
 20
194.5760978798784038
 30
0.0
 40
0.1608650286045817
 50
191.4141921289757136
 51
205.8773621888246907
  0
ARC
  5
16089
  8
0
 10
3510.1384638875770179
 20
194.5651073170203063
 30
0.0
 40
0.0039828946248846
 50
142.8721690513717135
 51
177.2577790436259022
  0
ARC
  5
1608A
  8
0
 10
3510.1360090819130164
 20
194.5668002113571902
 30
0.0
 40
0.0010125160164757
 50
42.2668263451680133
 51
135.3824279091095093
  0
ARC
  5
1608B
  8
0
 10
3510.1237557263912095
 20
194.5556305285905125
 30
0.0
 40
0.0175928206111857
 50
19.473822140095649
 51
42.3462359201193621
  0
ARC
  5
1608C
  8
0
 10
3510.0465172662170517
 20
194.5243368705122009
 30
0.0
 40
0.1009151772433139
 50
11.9037712175075594
 51
21.6056975622243783
  0
ARC
  5
1608D
  8
0
 10
3510.0615316579628598
 20
194.5253851916154986
 30
0.0
 40
0.0860323639255562
 50
1.04296760849848
 51
13.2832943153892593
  0
ARC
  5
1608E
  8
0
 10
3510.1353998833351397
 20
194.5267909835258138
 30
0.0
 40
0.0121509411603088
 50
340.4475272745183929
 51
0.7553600964535852
  0
ARC
  5
1608F
  8
0
 10
3510.1456468868541378
 20
194.5233284695848965
 30
0.0
 40
0.0013463643492345
 50
259.6516383145997224
 51
333.3431213696777036
  0
ARC
  5
16090
  8
0
 10
3510.1575080062020788
 20
194.5342739989278869
 30
0.0
 40
0.0172346925866386
 50
197.2481993380434062
 51
225.3926305250847122
  0
ARC
  5
16091
  8
0
 10
3510.2484465561301477
 20
194.5689719169571106
 30
0.0
 40
0.114538479853049
 50
188.693597638288793
 51
200.3377245567974114
  0
ARC
  5
16092
  8
0
 10
3510.1873121726589488
 20
194.5613190242933115
 30
0.0
 40
0.0529762481019842
 50
175.6926759596960039
 51
190.506034088721691
  0
ARC
  5
16093
  8
0
 10
3510.1479662647197983
 20
194.5067289046920109
 30
0.0
 40
0.0382877762266311
 50
285.0619905522933095
 51
327.7739161581939129
  0
ARC
  5
16094
  8
0
 10
3510.4988562699450085
 20
193.2028341555082136
 30
0.0
 40
1.3119956431766751
 50
105.0619905522932953
 51
105.598967308133993
  0
ARC
  5
16095
  8
0
 10
3510.1537381164239378
 20
194.4389945034419043
 30
0.0
 40
0.0285631573430769
 50
105.5989673081344051
 51
186.3331924352461044
  0
ARC
  5
16096
  8
0
 10
3510.4397890650539011
 20
194.4603667900734933
 30
0.0
 40
0.315394616857119
 50
184.4594587277946971
 51
190.366464703590708
  0
ARC
  5
16097
  8
0
 10
3512.0479189236120874
 20
194.7468316609034105
 30
0.0
 40
1.9488371340496691
 50
190.1435091581986967
 51
194.499969603839503
  0
ARC
  5
16098
  8
0
 10
3510.2845121568097966
 20
194.2843552209668871
 30
0.0
 40
0.1259580842466729
 50
191.6673497364859031
 51
208.8850363127668004
  0
ARC
  5
16099
  8
0
 10
3510.196810555788943
 20
194.2399629674744119
 30
0.0
 40
0.0279429831464199
 50
216.0704778427987947
 51
281.9699861963981107
  0
ARC
  5
1609A
  8
0
 10
3510.2401281830161679
 20
194.0823066759114113
 30
0.0
 40
0.135615100007536
 50
101.2364604267139043
 51
106.0622824482732938
  0
ARC
  5
1609B
  8
0
 10
3510.2192421142231069
 20
194.1765503769414067
 30
0.0
 40
0.0391655954543622
 50
53.3153602923679912
 51
98.1313450508253737
  0
ARC
  5
1609C
  8
0
 10
3510.1325584120950225
 20
194.4046110220261028
 30
0.0
 40
0.0003060979840051
 50
35.2155279992880708
 51
186.1879098183968892
  0
ARC
  5
1609D
  8
0
 10
3509.9856769731891291
 20
194.345675112218089
 30
0.0
 40
0.1585621705011567
 50
13.0028408930912001
 51
21.8885778826792006
  0
ARC
  5
1609E
  8
0
 10
3508.734575657817004
 20
194.0246460612814872
 30
0.0
 40
1.4501530561651821
 50
10.3230016123696196
 51
14.2396252237836496
  0
ARC
  5
1609F
  8
0
 10
3509.9982510321938207
 20
194.2510965549323885
 30
0.0
 40
0.166393582964976
 50
3.5334453383965401
 51
11.5841034655092106
  0
ARC
  5
160A0
  8
0
 10
3510.1616828774840542
 20
194.2611882353951955
 30
0.0
 40
0.0026504607588525
 50
342.4831004279628246
 51
3.5334453383494049
  0
ARC
  5
160A1
  8
0
 10
3510.1638948001618701
 20
194.2604901015149039
 30
0.0
 40
0.0003309795998676
 50
223.4679368231134902
 51
342.483100427384727
  0
ARC
  5
160A2
  8
0
 10
3510.4308518541988633
 20
194.3588242438100906
 30
0.0
 40
0.2847960935546717
 50
192.3546406237279882
 51
200.2476526882975065
  0
ARC
  5
160A3
  8
0
 10
3511.5807296572679661
 20
194.643011430981403
 30
0.0
 40
1.469189620810502
 50
190.5271626058861045
 51
193.5861335466051969
  0
ARC
  5
160A4
  8
0
 10
3510.3433739709889778
 20
194.4175768754809894
 30
0.0
 40
0.2115196705106
 50
183.5233068432966945
 51
191.7263637892395138
  0
ARC
  5
160A5
  8
0
 10
3507.3385128993468243
 20
193.7203652714881059
 30
0.0
 40
2.9589927534460001
 50
9.7003835178270155
 51
15.0786029627377403
  0
ARC
  5
160A6
  8
0
 10
3509.8985061590519763
 20
194.1250562255465013
 30
0.0
 40
0.3847267850202507
 50
14.93863173362646
 51
18.7559004323284206
  0
ARC
  5
160A7
  8
0
 10
3510.2110907096830488
 20
194.2312002836351894
 30
0.0
 40
0.0546121649853863
 50
18.7559004323268717
 51
24.6672971580145202
  0
ARC
  5
160A8
  8
0
 10
3510.2469069310691339
 20
194.2476491437319055
 30
0.0
 40
0.0151993915111695
 50
24.667297158001201
 51
36.9845597010430396
  0
ARC
  5
160A9
  8
0
 10
3510.2586295267301466
 20
194.2564778012734905
 30
0.0
 40
0.0005240910719257
 50
36.9845597007199771
 51
186.4171452782987046
  0
ARC
  5
160AA
  8
0
 10
3510.3187441713671433
 20
194.2470237637631101
 30
0.0
 40
0.0613590477814504
 50
171.1920659993508025
 51
204.1420259693119874
  0
ARC
  5
160AB
  8
0
 10
3510.1856494274688885
 20
194.2074369588081879
 30
0.0
 40
0.0197204397079079
 50
125.4047055561654958
 51
191.8186154760292936
  0
ARC
  5
160AC
  8
0
 10
3512.6758999766088891
 20
194.7285218579191906
 30
0.0
 40
2.5639054309317681
 50
191.8186154760292936
 51
194.4712484807135127
  0
ARC
  5
160AD
  8
0
 10
3510.2127485824839823
 20
194.0928261237174866
 30
0.0
 40
0.0200454000223025
 50
194.471248480707203
 51
284.2461008660999937
  0
ARC
  5
160AE
  8
0
 10
3510.1058495205311374
 20
194.5138622818726049
 30
0.0
 40
0.4544402157376668
 50
284.2461008660999937
 51
286.1950600516889835
  0
ARC
  5
160AF
  8
0
 10
3510.2415104886918016
 20
194.0391469018304065
 30
0.0
 40
0.0393317702032326
 50
25.1564785674483709
 51
103.0988310424322947
  0
ARC
  5
160B0
  8
0
 10
3514.7957003620967953
 20
195.0960639484382
 30
0.0
 40
4.6353395747792767
 50
192.4947191636350965
 51
192.9316633516295099
  0
LINE
  5
160B1
  8
0
 10
3510.2998537151111123
 20
194.0075553584536863
 30
0.0
 11
3510.2862061113792151
 21
194.0556912112809016
 31
0.0
  0
ARC
  5
160B2
  8
0
 10
3510.0908801712621425
 20
194.0003118864559895
 30
0.0
 40
0.2030248568545442
 50
15.8292335230225998
 51
20.9408333235246111
  0
ARC
  5
160B3
  8
0
 10
3510.2422420425350538
 20
194.0582350000786107
 30
0.0
 40
0.0409585026441254
 50
20.9408333235200388
 51
26.6835144546960983
  0
ARC
  5
160B4
  8
0
 10
3510.2763462458888171
 20
194.0753753343103938
 30
0.0
 40
0.0027893037527614
 50
26.6835144547135599
 51
43.8410631244324165
  0
ARC
  5
160B5
  8
0
 10
3510.2781601082288034
 20
194.077117262916488
 30
0.0
 40
0.0002744654165724
 50
43.8410631250669169
 51
175.9667031065220897
  0
ARC
  5
160B6
  8
0
 10
3510.3051408294418252
 20
194.0752148301988882
 30
0.0
 40
0.0273221745141984
 50
175.9667031065303036
 51
196.3230198414806864
  0
ARC
  5
160B7
  8
0
 10
3510.2436274793881239
 20
194.0670661825525087
 30
0.0
 40
0.0352955907054393
 50
346.3337393534005741
 51
0.7624720231331366
  0
ARC
  5
160B8
  8
0
 10
3510.1804778197019914
 20
194.0848479810451011
 30
0.0
 40
0.1008861841076593
 50
343.3054802911747174
 51
344.9943081582609921
  0
ARC
  5
160B9
  8
0
 10
3510.2399533978909858
 20
194.0679006179753117
 30
0.0
 40
0.0390583560892557
 50
285.2729397090889165
 51
342.0548944387883807
  0
LINE
  5
160BA
  8
0
 10
3510.250242051179157
 20
194.0302217274143004
 30
0.0
 11
3510.2334614221867923
 21
194.0256138148207015
 31
0.0
  0
ARC
  5
160BB
  8
0
 10
3510.2391420882840976
 20
194.005970816793706
 30
0.0
 40
0.020459282896261
 50
106.9608448484020045
 51
191.8217137156999001
  0
ARC
  5
160BC
  8
0
 10
3511.7067738967571131
 20
194.3131555932936863
 30
0.0
 40
1.519894380576001
 50
191.8217137156999001
 51
196.2091492889786934
  0
ARC
  5
160BD
  8
0
 10
3510.2693250116940362
 20
193.895289161652812
 30
0.0
 40
0.0229402557422839
 50
196.2091492889771871
 51
266.346438864124309
  0
ARC
  5
160BE
  8
0
 10
3508.5098565492280613
 20
193.3990871575867914
 30
0.0
 40
1.916289627757197
 50
12.3119084977485809
 51
15.9617073247508205
  0
ARC
  5
160BF
  8
0
 10
3508.910811639232179
 20
193.5137692300332901
 30
0.0
 40
1.499256101598254
 50
15.9617073247508205
 51
19.3367328042155613
  0
ARC
  5
160C0
  8
0
 10
3510.117740681423129
 20
193.9372986298650119
 30
0.0
 40
0.2201724978395948
 50
19.3367328042155613
 51
27.3867745549818515
  0
ARC
  5
160C1
  8
0
 10
3510.2998392117419826
 20
194.0316362216896948
 30
0.0
 40
0.0150884760925219
 50
27.3867745549963004
 51
45.5683433161996376
  0
ARC
  5
160C2
  8
0
 10
3510.3092069164399618
 20
194.0411916397441132
 30
0.0
 40
0.0017071493459236
 50
45.5683433161684803
 51
127.3690415201690058
  0
ARC
  5
160C3
  8
0
 10
3510.3161981242651564
 20
194.0387781897053969
 30
0.0
 40
0.0088686421408896
 50
154.842045168061901
 51
178.1310914456805108
  0
ARC
  5
160C4
  8
0
 10
3510.420503517474117
 20
194.0369276766502935
 30
0.0
 40
0.1131895445278699
 50
178.9168113197140997
 51
186.6251017559270906
  0
ARC
  5
160C5
  8
0
 10
3510.2728517132159141
 20
194.0313803772594952
 30
0.0
 40
0.0360102711388866
 50
318.5766648354348263
 51
347.9598395347391033
  0
ARC
  5
160C6
  8
0
 10
3510.2710698486498586
 20
194.03226267983149
 30
0.0
 40
0.037933661807996
 50
285.3527985834509764
 51
319.3580676475622226
  0
ARC
  5
160C7
  8
0
 10
3510.2861358357417885
 20
193.9604457756217926
 30
0.0
 40
0.035593104737103
 50
98.1121798430241938
 51
173.1283216496888997
  0
ARC
  5
160C8
  8
0
 10
3510.7846219314319569
 20
194.0156584467175094
 30
0.0
 40
0.5362498218861689
 50
185.4524319649898985
 51
195.4951641545490872
  0
ARC
  5
160C9
  8
0
 10
3510.9287387909230347
 20
194.0208178512388031
 30
0.0
 40
0.6773372570601593
 50
192.6577141657786001
 51
203.0571470917020918
  0
ARC
  5
160CA
  8
0
 10
3510.3309357404527873
 20
193.7704522039869914
 30
0.0
 40
0.0294757293553774
 50
210.3935361179242989
 51
282.4347817050418143
  0
ARC
  5
160CB
  8
0
 10
3510.3573993710429022
 20
193.6863582348310047
 30
0.0
 40
0.0588544164227268
 50
92.9025460040785163
 51
109.986822117952201
  0
ARC
  5
160CC
  8
0
 10
3510.5443210576981983
 20
193.7753199602666996
 30
0.0
 40
0.1922855691271689
 50
182.1996567510925047
 51
192.9750399560892902
  0
ARC
  5
160CD
  8
0
 10
3510.4020216200860887
 20
193.7698542210351889
 30
0.0
 40
0.0498812003389055
 50
155.7101528435148055
 51
182.1996567510925047
  0
ARC
  5
160CE
  8
0
 10
3510.3785667229808496
 20
193.780439510014503
 30
0.0
 40
0.0241483314551546
 50
121.5290093576269044
 51
155.7101528435252078
  0
ARC
  5
160CF
  8
0
 10
3510.3913771787010774
 20
193.7595584846229997
 30
0.0
 40
0.0486457802437724
 50
109.7949933060149021
 51
121.5290093576277002
  0
ARC
  5
160D0
  8
0
 10
3510.4246097065979484
 20
193.6672262728480121
 30
0.0
 40
0.1467765004171282
 50
100.8669532622895986
 51
109.7949933060149021
  0
ARC
  5
160D1
  8
0
 10
3510.3931707049600845
 20
193.8309953392374894
 30
0.0
 40
0.0199829608741169
 50
280.8669532622637917
 51
330.2112742713551938
  0
ARC
  5
160D2
  8
0
 10
3510.5298804603839926
 20
193.8179321154329102
 30
0.0
 40
0.1194084558152676
 50
171.2186337111621981
 51
178.4952595906075032
  0
ARC
  5
160D3
  8
0
 10
3510.4260825800520252
 20
193.8344256847169049
 30
0.0
 40
0.0143165041127299
 50
141.7745356693150995
 51
173.0358344826385917
  0
ARC
  5
160D4
  8
0
 10
3510.4174920680811738
 20
193.8398512632055031
 30
0.0
 40
0.0043405503251361
 50
59.4135153790092119
 51
127.731899651108094
  0
ARC
  5
160D5
  8
0
 10
3510.3838019626159621
 20
193.8058418266026024
 30
0.0
 40
0.052091114837575
 50
21.3321739000099484
 51
46.4369073659002112
  0
ARC
  5
160D6
  8
0
 10
3510.0825288525247743
 20
193.6746075738780917
 30
0.0
 40
0.3806729476758447
 50
12.3950953246173494
 51
23.2361349345989616
  0
ARC
  5
160D7
  8
0
 10
3510.0998147033637906
 20
193.6696735582694089
 30
0.0
 40
0.3649488006910679
 50
2.242546464178595
 51
13.7343124316476395
  0
ARC
  5
160D8
  8
0
 10
3510.3970694287490915
 20
193.681185747455288
 30
0.0
 40
0.0674713840168294
 50
345.063903624496902
 51
2.3513727939662972
  0
ARC
  5
160D9
  8
0
 10
3510.4535384486721341
 20
193.6662355167071041
 30
0.0
 40
0.0090575960197609
 50
309.3406372489563978
 51
344.3725329017025274
  0
ARC
  5
160DA
  8
0
 10
3510.4571402339620363
 20
193.6627258378630927
 30
0.0
 40
0.0040984991075019
 50
233.6071431474335895
 51
301.4775845835591213
  0
ARC
  5
160DB
  8
0
 10
3510.4773947586581926
 20
193.6882617470438959
 30
0.0
 40
0.036689599220375
 50
197.7810444810716035
 51
231.8057943724350878
  0
ARC
  5
160DC
  8
0
 10
3510.4303619853549208
 20
193.656635819117497
 30
0.0
 40
0.0237350483182645
 50
59.3615810705676594
 51
105.3025021972465964
  0
ARC
  5
160DD
  8
0
 10
3509.762237484491834
 20
196.075935472552402
 30
0.0
 40
2.4861258042780312
 50
285.0046208121170821
 51
285.4395548288430859
  0
ARC
  5
160DE
  8
0
 10
3510.3998605014098757
 20
193.7066153611025925
 30
0.0
 40
0.0326030932808341
 50
203.1973871508699858
 51
280.6535959360953143
  0
ARC
  5
160DF
  8
0
 10
3510.5146283995291014
 20
193.763981955034609
 30
0.0
 40
0.1608650286045817
 50
191.4141921289757136
 51
205.8773621888246907
  0
ARC
  5
160E0
  8
0
 10
3510.3614210671139517
 20
193.7529913921765115
 30
0.0
 40
0.0039828946248846
 50
142.8721690513717135
 51
177.2577790436259022
  0
ARC
  5
160E1
  8
0
 10
3510.3589662614499503
 20
193.7546842865135091
 30
0.0
 40
0.0010125160164757
 50
42.2668263451680133
 51
135.3824279091095093
  0
ARC
  5
160E2
  8
0
 10
3510.3467129059267791
 20
193.743514603746803
 30
0.0
 40
0.0175928206111857
 50
19.473822140095649
 51
42.3462359201193621
  0
ARC
  5
160E3
  8
0
 10
3510.2694744457539855
 20
193.7122209456684061
 30
0.0
 40
0.1009151772433139
 50
11.9037712175075594
 51
21.6056975622243783
  0
ARC
  5
160E4
  8
0
 10
3510.2844888374997936
 20
193.7132692667717038
 30
0.0
 40
0.0860323639255562
 50
1.04296760849848
 51
13.2832943153892593
  0
ARC
  5
160E5
  8
0
 10
3510.3583570628720736
 20
193.7146750586819905
 30
0.0
 40
0.0121509411603088
 50
340.4475272745183929
 51
0.7553600964535852
  0
ARC
  5
160E6
  8
0
 10
3510.3686040663910717
 20
193.7112125447411017
 30
0.0
 40
0.0013463643492345
 50
259.6516383145997224
 51
333.3431213696777036
  0
ARC
  5
160E7
  8
0
 10
3510.3804651857390127
 20
193.7221580740842057
 30
0.0
 40
0.0172346925866386
 50
197.2481993380434062
 51
225.3926305250847122
  0
ARC
  5
160E8
  8
0
 10
3510.4714037356670815
 20
193.756855992113401
 30
0.0
 40
0.114538479853049
 50
188.693597638288793
 51
200.3377245567974114
  0
ARC
  5
160E9
  8
0
 10
3510.4102693521949732
 20
193.7492030994494883
 30
0.0
 40
0.0529762481019842
 50
175.6926759596960039
 51
190.506034088721691
  0
ARC
  5
160EA
  8
0
 10
3510.2597596074178909
 20
193.9313110349889087
 30
0.0
 40
0.0005848612775523
 50
31.5946266323090086
 51
164.1367782126802979
  0
ARC
  5
160EB
  8
0
 10
3510.2038694813841175
 20
193.8969344249630069
 30
0.0
 40
0.0662008464105388
 50
18.9931627331603394
 51
31.5946266323090086
  0
ARC
  5
160EC
  8
0
 10
3509.535109501270199
 20
193.6667511602948082
 30
0.0
 40
0.7734661759268021
 50
13.7830168839494895
 51
18.9931627331618813
  0
ARC
  5
160ED
  8
0
 10
3509.5345022571591471
 20
193.6666021976747913
 30
0.0
 40
0.7740914240952831
 50
10.1009784185015405
 51
13.7830168839494895
  0
ARC
  5
160EE
  8
0
 10
3510.2267038498030161
 20
193.7899142764298972
 30
0.0
 40
0.0709919193130199
 50
2.4501097823165918
 51
10.1009784185047398
  0
ARC
  5
160EF
  8
0
 10
3510.2749864862330469
 20
193.7919802212730929
 30
0.0
 40
0.0226651036856074
 50
354.4716044431157798
 51
2.4501097823019502
  0
ARC
  5
160F0
  8
0
 10
3510.2965656981000393
 20
193.7898915852597952
 30
0.0
 40
0.0009850486762284
 50
231.4194607820545002
 51
354.4716044431256137
  0
ARC
  5
160F1
  8
0
 10
3510.4717488056389811
 20
193.8747853444940858
 30
0.0
 40
0.1955582069993605
 50
195.1756565252613882
 51
205.9793766737415126
  0
ARC
  5
160F2
  8
0
 10
3511.1795067935181578
 20
194.0941783042115958
 30
0.0
 40
0.9364416902384888
 50
191.5951924620515001
 51
196.795180776100409
  0
ARC
  5
160F3
  8
0
 10
3510.3681844303841899
 20
193.9312653972534974
 30
0.0
 40
0.108987604698826
 50
179.891964195000412
 51
193.4271427703195911
  0
ARC
  5
160F4
  8
0
 10
3510.2858352976509195
 20
193.9924532205230889
 30
0.0
 40
0.0629216138302645
 50
186.6307953931107875
 51
191.294917321571404
  0
ARC
  5
160F5
  8
0
 10
3510.2257250434017806
 20
193.9854654841296053
 30
0.0
 40
0.0024065650749287
 50
163.7880679013370013
 51
186.6307953931689951
  0
ARC
  5
160F6
  8
0
 10
3510.2232330817309958
 20
193.9856931217942986
 30
0.0
 40
0.0004797456668368
 50
20.749096045798531
 51
67.8225949703701332
  0
ARC
  5
160F7
  8
0
 10
3509.8639829452999948
 20
193.8621072253748139
 30
0.0
 40
0.3803928430049094
 50
13.7893308666375898
 51
18.9859920922067715
  0
ARC
  5
160F8
  8
0
 10
3509.5029862279311601
 20
193.7596570445392956
 30
0.0
 40
0.7555242087785322
 50
11.0874298307541697
 51
14.8095976111886696
  0
ARC
  5
160F9
  8
0
 10
3510.236290035411912
 20
193.9030989786054988
 30
0.0
 40
0.0083266595955011
 50
353.1015752249708726
 51
12.8399117256156501
  0
ARC
  5
160FA
  8
0
 10
3510.2471040297277796
 20
193.9044251935019076
 30
0.0
 40
0.0034499467432134
 50
199.2022061465557101
 51
222.4004242970788994
  0
ARC
  5
160FB
  8
0
 10
3510.9006205647870047
 20
194.1110201019473891
 30
0.0
 40
0.6888427869579949
 50
195.0753704255971002
 51
197.5515142389760115
  0
ARC
  5
160FC
  8
0
 10
3509.8917341445740021
 20
193.9144798406192081
 30
0.0
 40
0.338819178818505
 50
9.8555780609830546
 51
11.1722956537431397
  0
ARC
  5
160FD
  8
0
 10
3510.3211226159419311
 20
193.7594761163827002
 30
0.0
 40
0.0384085087230196
 50
284.9592665627267252
 51
332.018243927185722
  0
ARC
  5
160FE
  8
0
 10
3510.6491042651409771
 20
192.5319418253156982
 30
0.0
 40
1.232186784026422
 50
104.9592665627266967
 51
105.7008026573150943
  0
ARC
  5
160FF
  8
0
 10
3510.321187368173014
 20
193.6984806077689996
 30
0.0
 40
0.0204350675906373
 50
105.7008026573150943
 51
194.7048918100853996
  0
ARC
  5
16100
  8
0
 10
3511.5698345632517885
 20
193.9876411656111941
 30
0.0
 40
1.3021182751930349
 50
193.0648089466120894
 51
198.2807555408043925
  0
ARC
  5
16101
  8
0
 10
3510.3518188945308793
 20
193.5846963842307957
 30
0.0
 40
0.0191895189576593
 50
196.6406726773323044
 51
288.4543573662411973
  0
ARC
  5
16102
  8
0
 10
3510.4062265772267892
 20
193.4216574512547027
 30
0.0
 40
0.1526880235030233
 50
101.526352444035993
 51
108.4543573662410978
  0
ARC
  5
16103
  8
0
 10
3510.3836891893452048
 20
193.5321720498014031
 30
0.0
 40
0.0398987937667047
 50
49.7806936210918423
 51
101.526352444061601
  0
ARC
  5
16104
  8
0
 10
3510.3875992207040326
 20
193.5367957859041042
 30
0.0
 40
0.0338434423503148
 50
30.2014111182385285
 51
49.7806936211169813
  0
ARC
  5
16105
  8
0
 10
3510.4702687408480415
 20
193.571687402468001
 30
0.0
 40
0.0563286326210914
 50
198.4931700440708937
 51
209.0128443628435946
  0
ARC
  5
16106
  8
0
 10
3510.4225782753769636
 20
193.5452517911174937
 30
0.0
 40
0.0018014136735331
 50
209.3917687382395059
 51
238.5119360109283093
  0
ARC
  5
16107
  8
0
 10
3510.4217707768439141
 20
193.5439334568816037
 30
0.0
 40
0.0002554320951725
 50
238.5119360106210991
 51
349.2310284831789886
  0
ARC
  5
16108
  8
0
 10
3510.3086766746960166
 20
193.5381310759667883
 30
0.0
 40
0.113491026784753
 50
2.9064748556875828
 51
14.1837603478782004
  0
ARC
  5
16109
  8
0
 10
3508.8438851834198431
 20
193.2115335911300065
 30
0.0
 40
1.614208962810725
 50
12.6828550612752995
 51
15.3468592032978499
  0
ARC
  5
1610A
  8
0
 10
3494.2862858624239379
 20
189.1701592014649975
 30
0.0
 40
16.7223595594808998
 50
15.4990672316964293
 51
15.6295561150620603
  0
ARC
  5
1610B
  8
0
 10
3510.1150791080440285
 20
193.6318764857387862
 30
0.0
 40
0.1960288388438187
 50
9.8441179706750521
 51
12.6720552799492694
  0
ARC
  5
1610C
  8
0
 10
3510.3243682026700299
 20
193.678934571846213
 30
0.0
 40
0.0184854697635187
 50
182.255811219169999
 51
192.6720552799444874
  0
ARC
  5
1610D
  8
0
 10
3510.3085540973738716
 20
193.6783116275302916
 30
0.0
 40
0.0026590998091747
 50
172.9674037374201987
 51
182.2558112191618989
  0
ARC
  5
1610E
  8
0
 10
3510.3060782632301198
 20
193.6786170516056131
 30
0.0
 40
0.0001644979228728
 50
18.5653913267280117
 51
172.9674037392703951
  0
ARC
  5
1610F
  8
0
 10
3510.2480599759937832
 20
193.6504725864053
 30
0.0
 40
0.0646475225662915
 50
17.0366707524162599
 51
25.8593025386049007
  0
ARC
  5
16110
  8
0
 10
3509.3216737032621495
 20
193.3561978944568125
 30
0.0
 40
1.0366469837692689
 50
14.8916688108384498
 51
17.5863467501348794
  0
ARC
  5
16111
  8
0
 10
3509.9169928202941264
 20
193.5140468886638985
 30
0.0
 40
0.4207568408523302
 50
11.8475630470476307
 51
14.9522686824525
  0
ARC
  5
16112
  8
0
 10
3510.29411583978208
 20
193.5930659065643908
 30
0.0
 40
0.0354443975618597
 50
4.6369201206860158
 51
11.9944850840505399
  0
ARC
  5
16113
  8
0
 10
3510.3278127453800153
 20
193.5958514478110999
 30
0.0
 40
0.001633433958789
 50
344.347238835505209
 51
2.8011889764944429
  0
ARC
  5
16114
  8
0
 10
3510.3292709009838291
 20
193.5954510162634108
 30
0.0
 40
0.0001215686435957
 50
206.6198078258586008
 51
340.6502579281162184
  0
ARC
  5
16115
  8
0
 10
3510.3887499102211223
 20
193.6244470802049022
 30
0.0
 40
0.0662919796397428
 50
196.5823680819979984
 51
205.9904263969395117
  0
ARC
  5
16116
  8
0
 10
3509.8651495703720684
 20
193.4584989033741067
 30
0.0
 40
0.4829882782675488
 50
17.7229728358446614
 51
18.6016018841152189
  0
ARC
  5
16117
  8
0
 10
3507.8564358869198259
 20
190.6120155814153065
 30
0.0
 40
3.4229647556721772
 50
20.7595353953331596
 51
22.2937217996429986
  0
ARC
  5
16118
  8
0
 10
3510.881399848671208
 20
191.7586476312251023
 30
0.0
 40
0.1879729430797737
 50
12.0915026212940404
 51
20.7595353953316391
  0
ARC
  5
16119
  8
0
 10
3511.0158629216189183
 20
191.7874531586138005
 30
0.0
 40
0.0504590296207599
 50
3.096065539482153
 51
12.0915026212892602
  0
ARC
  5
1611A
  8
0
 10
3511.0646683974619009
 20
191.7900930074472967
 30
0.0
 40
0.0015822122728015
 50
231.894734905920501
 51
3.096065539540692
  0
ARC
  5
1611B
  8
0
 10
3510.7661726028159137
 20
191.5610060734967988
 30
0.0
 40
0.3747395568424075
 50
37.445082945130153
 51
39.8119560293875665
  0
ARC
  5
1611C
  8
0
 10
3511.0393730589398729
 20
191.7782157217662018
 30
0.0
 40
0.0270408693649052
 50
57.1812216388514827
 51
105.122348263148595
  0
ARC
  5
1611D
  8
0
 10
3510.276510876491102
 20
194.5352254206123064
 30
0.0
 40
2.8335646626861188
 50
284.8830934470639136
 51
285.4700064514414066
  0
ARC
  5
1611E
  8
0
 10
3510.9986462531101097
 20
191.8255025709844972
 30
0.0
 40
0.0293321962939076
 50
214.5079313757435955
 51
281.1236792292045834
  0
ARC
  5
1611F
  8
0
 10
3511.2429133943837769
 20
191.9646527365646023
 30
0.0
 40
0.3103588322115081
 50
193.822733516444913
 51
210.125431211071799
  0
ARC
  5
16120
  8
0
 10
3510.9696390108711057
 20
191.8957922516295866
 30
0.0
 40
0.0285899977100775
 50
111.9263855327088066
 51
190.6629941045574981
  0
ARC
  5
16121
  8
0
 10
3511.0024696320519979
 20
191.7942702229298959
 30
0.0
 40
0.1352334053112667
 50
105.8908334284218995
 51
108.7666461207847988
  0
ARC
  5
16122
  8
0
 10
3511.0957723128040016
 20
191.9119420509287011
 30
0.0
 40
0.1529347980844324
 50
195.349630080909094
 51
201.9358361295454927
  0
ARC
  5
16123
  8
0
 10
3511.4658762091958124
 20
192.0609918239676972
 30
0.0
 40
0.5519244332469445
 50
201.9358361295454927
 51
203.2755331010845907
  0
ARC
  5
16124
  8
0
 10
3511.0547803175040826
 20
191.8841540333953901
 30
0.0
 40
0.1044074655912333
 50
203.2755331010845907
 51
207.9190405682263076
  0
ARC
  5
16125
  8
0
 10
3511.0014097901798777
 20
191.8558730814874878
 30
0.0
 40
0.044006923973136
 50
207.9190405682219023
 51
213.7405765598959988
  0
ARC
  5
16126
  8
0
 10
3510.9670152131898249
 20
191.8328995414466931
 30
0.0
 40
0.0026454628249896
 50
213.7405765599627898
 51
235.5888729249589915
  0
ARC
  5
16127
  8
0
 10
3510.9656457756268537
 20
191.8309003613011043
 30
0.0
 40
0.0002222252189965
 50
235.5888729246184994
 51
345.8277909810036022
  0
ARC
  5
16128
  8
0
 10
3510.8923875060158935
 20
191.8184147797882133
 30
0.0
 40
0.0745179389910304
 50
9.6030484581498499
 51
23.2851517524713501
  0
ARC
  5
16129
  8
0
 10
3510.7193657546031318
 20
191.7565785283827893
 30
0.0
 40
0.2581536662582473
 50
20.7012336056024218
 51
25.8475528375460293
  0
ARC
  5
1612A
  8
0
 10
3510.9170186874130195
 20
191.8523301492000996
 30
0.0
 40
0.0385288617898519
 50
25.8475528375489603
 51
33.9901402863756985
  0
ARC
  5
1612B
  8
0
 10
3510.9461753453228994
 20
191.8719892639932141
 30
0.0
 40
0.0033636588913828
 50
33.9901402864091722
 51
46.306790416534902
  0
ARC
  5
1612C
  8
0
 10
3510.9477840088311495
 20
191.8736730336671883
 30
0.0
 40
0.0010349513966105
 50
46.3067904163642083
 51
64.2973056470156621
  0
ARC
  5
1612D
  8
0
 10
3510.9481346078719071
 20
191.8744014370066964
 30
0.0
 40
0.000226563424731
 50
64.2973056468394759
 51
177.6728857790170082
  0
ARC
  5
1612E
  8
0
 10
3510.9566872074501589
 20
191.8740538751492863
 30
0.0
 40
0.0087862222259341
 50
177.6728857789910023
 51
197.1781721252156956
  0
LINE
  5
1612F
  8
0
 10
3510.902039020275879
 20
192.0790267701979985
 30
0.0
 11
3510.9589630761611261
 21
191.9223141743945007
 31
0.0
  0
LINE
  5
16130
  8
0
 10
3510.8854335934838673
 20
192.1377739591621037
 30
0.0
 11
3510.9053408445729474
 21
192.0813020676210101
 31
0.0
  0
ARC
  5
16131
  8
0
 10
3510.7953964371431539
 20
192.0425448936593966
 30
0.0
 40
0.1165756889680039
 50
14.20176289553015
 51
19.4183747564736606
  0
ARC
  5
16132
  8
0
 10
3510.8657364496939408
 20
192.060345955965289
 30
0.0
 40
0.044018158794172
 50
11.8206380347234603
 51
14.2017628955317292
  0
ARC
  5
16133
  8
0
 10
3510.9061003217361758
 20
192.0687935829876096
 30
0.0
 40
0.0027797717204127
 50
0.5174183279980712
 51
11.8206380347537507
  0
ARC
  5
16134
  8
0
 10
3510.9087770019291384
 20
192.0688177558157861
 30
0.0
 40
0.0001029823787469
 50
221.1576889554362992
 51
0.5174183293824275
  0
ARC
  5
16135
  8
0
 10
3510.9386369138219379
 20
192.0859178181152913
 30
0.0
 40
0.0345106568609863
 50
201.4260052865386115
 51
209.8324165654497051
  0
ARC
  5
16136
  8
0
 10
3510.8876294106771638
 20
192.0631443663270943
 30
0.0
 40
0.0214449901272245
 50
28.2997418139895984
 51
47.7835223868929475
  0
ARC
  5
16137
  8
0
 10
3510.8829220610318771
 20
192.05931995706311
 30
0.0
 40
0.0274557209836635
 50
45.8704341768698427
 51
105.3378132678826944
  0
LINE
  5
16138
  8
0
 10
3510.8756597601459362
 20
192.0857977893118118
 30
0.0
 11
3510.851309505619156
 21
192.0791200141107993
 31
0.0
  0
ARC
  5
16139
  8
0
 10
3510.8440287370740407
 20
192.1060033302381953
 30
0.0
 40
0.0278498136759091
 50
202.4183607561213023
 51
285.0471047026370002
  0
ARC
  5
1613A
  8
0
 10
3511.6477844269370507
 20
192.4375888841921949
 30
0.0
 40
0.8973164252142426
 50
197.1598511755829861
 51
202.4183607561213023
  0
ARC
  5
1613B
  8
0
 10
3510.8144332247761668
 20
192.180263365526514
 30
0.0
 40
0.0251406122617578
 50
131.0147124357339123
 51
197.1598511755829861
  0
ARC
  5
1613C
  8
0
 10
3510.9017810375639783
 20
192.1215683433239008
 30
0.0
 40
0.0082052869202672
 50
351.3127467397914074
 51
15.7828855677420101
  0
ARC
  5
1613D
  8
0
 10
3510.9093355916838846
 20
192.1204140540748995
 30
0.0
 40
0.0005630574271927
 50
222.7255434991147069
 51
351.312746740233024
  0
ARC
  5
1613E
  8
0
 10
3510.9668802047631289
 20
192.1613374888885915
 30
0.0
 40
0.0711709140455342
 50
206.869147435407001
 51
215.4765694005893124
  0
ARC
  5
1613F
  8
0
 10
3510.8841797926570507
 20
192.1121086029885987
 30
0.0
 40
0.0256959631854791
 50
41.6079096662440975
 51
87.2032170490634542
  0
ARC
  5
16140
  8
0
 10
3510.8974922595921271
 20
192.0178254978725079
 30
0.0
 40
0.120553078741517
 50
95.7407746023316832
 51
108.4993899693382957
  0
ARC
  5
16141
  8
0
 10
3510.8454581764381146
 20
192.1636906723373102
 30
0.0
 40
0.0344215015086561
 50
252.7921441804732865
 51
293.6047815589910215
  0
ARC
  5
16142
  8
0
 10
3511.3436300028370169
 20
192.3816346011271889
 30
0.0
 40
0.5753727401975443
 50
198.4824816857544931
 51
204.1933810689546078
  0
ARC
  5
16143
  8
0
 10
3510.8443554696400497
 20
192.1573210521343924
 30
0.0
 40
0.0280231007894987
 50
204.1933810689546078
 51
251.0927683411267139
  0
ARC
  5
16144
  8
0
 10
3510.9535979543102258
 20
192.2565846456396912
 30
0.0
 40
0.165892385728357
 50
190.7173398724733033
 51
200.2255103127868949
  0
ARC
  5
16145
  8
0
 10
3510.8163483735579575
 20
192.2306080457620112
 30
0.0
 40
0.0262061975863045
 50
142.0843507262416097
 51
190.7173398724685001
  0
ARC
  5
16146
  8
0
 10
3510.8201148597509018
 20
192.2276742637135101
 30
0.0
 40
0.0309804509674752
 50
107.6141908703419006
 51
142.0843507262416097
  0
ARC
  5
16147
  8
0
 10
3510.8222247031571897
 20
192.2210289056976933
 30
0.0
 40
0.0379526975464338
 50
103.0472454131411979
 51
107.6141908703419006
  0
ARC
  5
16148
  8
0
 10
3509.4839028097158007
 20
191.7076718565265026
 30
0.0
 40
1.4862360501952181
 50
17.2405484939101683
 51
20.8382896901224193
  0
ARC
  5
16149
  8
0
 10
3510.6490111820457969
 20
192.0692369062786042
 30
0.0
 40
0.2663152312578794
 50
11.8225956933075995
 51
17.2405484939086193
  0
ARC
  5
1614A
  8
0
 10
3510.547410221382961
 20
192.1751872825591931
 30
0.0
 40
0.367785850834312
 50
8.1762547424640992
 51
11.0021443645305208
  0
ARC
  5
1614B
  8
0
 10
3510.8919371987021805
 20
192.2246886388240057
 30
0.0
 40
0.0197208822257901
 50
351.4833797269362208
 51
8.176254742468938
  0
ARC
  5
1614C
  8
0
 10
3510.9089836283878867
 20
192.2221359773710105
 30
0.0
 40
0.0024843847416274
 50
304.998341630302491
 51
351.4833797269491242
  0
ARC
  5
1614D
  8
0
 10
3510.9103656875358865
 20
192.2225158633482067
 30
0.0
 40
0.0024153964707368
 50
220.6296636004016989
 51
271.0168923217067913
  0
ARC
  5
1614E
  8
0
 10
3510.9583822788949874
 20
192.2620481168956985
 30
0.0
 40
0.0646113154744974
 50
207.3123141340963969
 51
219.508309460390393
  0
ARC
  5
1614F
  8
0
 10
3510.8853975096731119
 20
192.2145277386352973
 30
0.0
 40
0.0237088087860211
 50
48.9294102422397685
 51
72.2030518956113809
  0
ARC
  5
16150
  8
0
 10
3510.8842275771289678
 20
192.213134221915908
 30
0.0
 40
0.02540254251297
 50
70.6510115411237507
 51
105.9454921213396972
  0
ARC
  5
16151
  8
0
 10
3389.0480471123369171
 20
636.6101272720857196
 30
0.0
 40
460.7703696238613134
 50
285.3283738498499247
 51
285.3314992347043244
  0
ARC
  5
16152
  8
0
 10
3510.845907338276902
 20
192.2588098804199888
 30
0.0
 40
0.0287852097534333
 50
229.7075277393435897
 51
284.2830224159375803
  0
ARC
  5
16153
  8
0
 10
3510.8680981815241466
 20
192.2781340917753141
 30
0.0
 40
0.058044651592084
 50
200.2942190775268898
 51
225.3310464769147927
  0
ARC
  5
16154
  8
0
 10
3511.086974364190155
 20
192.3805960398661909
 30
0.0
 40
0.2995527992417052
 50
190.1896220606161876
 51
204.158197404034496
  0
ARC
  5
16155
  8
0
 10
3510.8210942868199709
 20
192.3305030160105957
 30
0.0
 40
0.0290929533685892
 50
128.2760848165625873
 51
185.7203857044262065
  0
ARC
  5
16156
  8
0
 10
3510.8481257210428339
 20
192.2695730710788098
 30
0.0
 40
0.0951158040560655
 50
101.0621261589894004
 51
118.2725171820407013
  0
ARC
  5
16157
  8
0
 10
3510.823315028322213
 20
192.3877539226000124
 30
0.0
 40
0.0256843292605671
 50
284.7989840298495778
 51
349.3839830454975868
  0
ARC
  5
16158
  8
0
 10
3510.8261980137881437
 20
192.3906543058577086
 30
0.0
 40
0.0236282869143856
 50
341.1551124468095963
 51
14.7944894199630799
  0
ARC
  5
16159
  8
0
 10
3510.8500716636208381
 20
192.396959539887888
 30
0.0
 40
0.0010639615155383
 50
100.1600378856806941
 51
194.7944894200103079
  0
ARC
  5
1615A
  8
0
 10
3510.8426541682079005
 20
192.3884360443344974
 30
0.0
 40
0.0119945784516406
 50
35.1860578458694135
 51
52.9324004813977211
  0
ARC
  5
1615B
  8
0
 10
3510.3458868119369072
 20
192.1217461542142928
 30
0.0
 40
0.575735472446373
 50
18.4862377373143083
 51
28.3737380939544401
  0
ARC
  5
1615C
  8
0
 10
3527.5962936018941036
 20
198.3120393488048876
 30
0.0
 40
17.8191095080427608
 50
199.2361572179694917
 51
199.5361579394268858
  0
ARC
  5
1615D
  8
0
 10
3510.7646676425188161
 20
192.3786156373481901
 30
0.0
 40
0.0278167853040062
 50
24.3146013953548383
 51
105.1224592196955001
  0
LINE
  5
1615E
  8
0
 10
3510.7574107177410951
 20
192.405469139678786
 30
0.0
 11
3510.7335798723302105
 21
192.3990290615689958
 31
0.0
  0
ARC
  5
1615F
  8
0
 10
3510.7263992373182191
 20
192.4256002614829981
 30
0.0
 40
0.0275243561967595
 50
199.5971975061056867
 51
285.1224592196695085
  0
LINE
  5
16160
  8
0
 10
3510.700469260844784
 20
192.4163684412858117
 30
0.0
 11
3510.674063290032791
 21
192.4913497918101939
 31
0.0
  0
ARC
  5
16161
  8
0
 10
3510.7000703524481651
 20
192.5004689658399002
 30
0.0
 40
0.0275595107074187
 50
162.197267397775903
 51
199.3228203529668008
  0
ARC
  5
16162
  8
0
 10
3510.6944015778631183
 20
192.5982910747075891
 30
0.0
 40
0.0289922604634008
 50
287.8899006614299765
 51
308.4002613844294274
  0
ARC
  5
16163
  8
0
 10
3510.6389060501428503
 20
192.7702121403542037
 30
0.0
 40
0.2096483049513091
 50
283.0624813931013932
 51
287.8899006614299765
  0
ARC
  5
16164
  8
0
 10
3510.6939073854628077
 20
192.538965881157111
 30
0.0
 40
0.0280760449425953
 50
105.7436788067574014
 51
197.6450050223776884
  0
ARC
  5
16165
  8
0
 10
3511.0332036539070941
 20
192.6320243347408905
 30
0.0
 40
0.3798813826093022
 50
195.507816473072495
 51
198.912611873355587
  0
ARC
  5
16166
  8
0
 10
3508.067879132690905
 20
191.5283202925494095
 30
0.0
 40
2.7843328685376831
 50
19.4617825459551206
 51
20.6204564507246104
  0
ARC
  5
16167
  8
0
 10
3510.7199833219688117
 20
192.4654892709986882
 30
0.0
 40
0.0284846379766569
 50
199.4617825459519906
 51
284.4436510808930052
  0
ARC
  5
16168
  8
0
 10
3510.5228890688540559
 20
193.2306999914077039
 30
0.0
 40
0.818670433369072
 50
284.4436510808930052
 51
286.1549529176361943
  0
ARC
  5
16169
  8
0
 10
3510.7579819903130556
 20
192.4191237360635967
 30
0.0
 40
0.0262702154097282
 50
57.6237232888193702
 51
106.1549529176367059
  0
ARC
  5
1616A
  8
0
 10
3510.7560062748098062
 20
192.4160076554950933
 30
0.0
 40
0.0299598508739683
 50
34.8340357333512429
 51
57.6237232888211111
  0
ARC
  5
1616B
  8
0
 10
3510.8324973005769607
 20
192.4549496125403891
 30
0.0
 40
0.0563034237034237
 50
202.8114788973668112
 51
208.8982509062176121
  0
ARC
  5
1616C
  8
0
 10
3510.7836195511131336
 20
192.4278664773833896
 30
0.0
 40
0.0004333947354327
 50
196.8756940702625116
 51
351.9181805648743762
  0
ARC
  5
1616D
  8
0
 10
3510.7143249699029184
 20
192.4162973456676866
 30
0.0
 40
0.0706670297660527
 50
9.3724219380244822
 51
16.2353558704247014
  0
ARC
  5
1616E
  8
0
 10
3508.8704664837459859
 20
191.8605630949037106
 30
0.0
 40
1.9964507999840659
 50
16.7536541853386893
 51
20.7572735501402406
  0
ARC
  5
1616F
  8
0
 10
3510.7416402975741221
 20
192.4919848385316072
 30
0.0
 40
0.0884258202275446
 50
96.1442922545488443
 51
109.4726824710652977
  0
ARC
  5
16170
  8
0
 10
3510.7597043311629932
 20
192.3707088029530894
 30
0.0
 40
0.2100936284752276
 50
103.0785635315605049
 51
106.0773259944109981
  0
ARC
  5
16171
  8
0
 10
3510.6942447911301315
 20
192.5995520942234123
 30
0.0
 40
0.0279313750477201
 50
239.575343999737612
 51
285.1024103528764044
  0
ARC
  5
16172
  8
0
 10
3510.6974182910312265
 20
192.6035855338085128
 30
0.0
 40
0.0330237608731071
 50
203.2916905863056911
 51
238.371274968566695
  0
ARC
  5
16173
  8
0
 10
3511.0135053569370029
 20
192.7464408336583972
 30
0.0
 40
0.379888716456191
 50
198.2127600773497136
 51
204.2311177464914067
  0
ARC
  5
16174
  8
0
 10
3510.9303794477477823
 20
192.7268625274334113
 30
0.0
 40
0.2949005184462917
 50
191.1595808752634014
 51
199.6473863610376895
  0
ARC
  5
16175
  8
0
 10
3510.6693807778237897
 20
192.6734562580656132
 30
0.0
 40
0.0285625393088261
 50
106.2580598957662943
 51
187.3812354219998895
  0
ARC
  5
16176
  8
0
 10
3510.3811194372678983
 20
193.7395491588964944
 30
0.0
 40
1.075820191371204
 50
285.1004879480054228
 51
286.0999383411638064
  0
ARC
  5
16177
  8
0
 10
3510.6714890680809731
 20
192.7309708019772927
 30
0.0
 40
0.0262850035447528
 50
287.6506984454907183
 51
357.9860821258831152
  0
ARC
  5
16178
  8
0
 10
3510.7203970999980811
 20
192.7384464515201046
 30
0.0
 40
0.0241471653405124
 50
178.6928117021176092
 51
200.3552920571113987
  0
ARC
  5
16179
  8
0
 10
3510.7010344709269702
 20
192.7388882815251065
 30
0.0
 40
0.0047794959321646
 50
160.1133672771113083
 51
178.6928117021795117
  0
ARC
  5
1617A
  8
0
 10
3510.6970904590129976
 20
192.7402003843729972
 30
0.0
 40
0.0006335773980545
 50
42.783872326862479
 51
150.3229136387859057
  0
ARC
  5
1617B
  8
0
 10
3510.6557286696252049
 20
192.7074542783082052
 30
0.0
 40
0.0533868621484078
 50
22.6111521254075782
 51
38.4209868301314614
  0
ARC
  5
1617C
  8
0
 10
3510.0487834243008365
 20
192.4345552504072998
 30
0.0
 40
0.7188421965314137
 50
19.1913916774607785
 51
24.0912491792167209
  0
ARC
  5
1617D
  8
0
 10
3398.7564696657759669
 20
154.7471130572913012
 30
0.0
 40
118.1847148202603961
 50
18.7344259290503992
 51
18.8052804392749593
  0
ARC
  5
1617E
  8
0
 10
3509.962268409823082
 20
192.7250153858288115
 30
0.0
 40
0.7395569506430999
 50
16.2992401012849513
 51
21.3679008515968896
  0
ARC
  5
1617F
  8
0
 10
3509.9964072555571875
 20
192.7349977914529973
 30
0.0
 40
0.7039885769085065
 50
12.1537515564344698
 51
16.2992401012849513
  0
ARC
  5
16180
  8
0
 10
3510.5493918856941491
 20
192.8540901539884089
 30
0.0
 40
0.1383252565653988
 50
5.2948765746072413
 51
12.15375155643288
  0
ARC
  5
16181
  8
0
 10
3510.6484706301271217
 20
192.8632724753587979
 30
0.0
 40
0.0388219268510616
 50
354.0465426322608096
 51
5.2948765746072413
  0
ARC
  5
16182
  8
0
 10
3510.685070775350141
 20
192.8594557020711875
 30
0.0
 40
0.0020233074665333
 50
246.7198486709106078
 51
354.0465426323078191
  0
ARC
  5
16183
  8
0
 10
3510.718074317780065
 20
192.8883128030460057
 30
0.0
 40
0.0456739506807789
 50
204.0202590767989932
 51
222.2602184286105
  0
ARC
  5
16184
  8
0
 10
3510.6593148195370304
 20
192.8502582939044885
 30
0.0
 40
0.0258684870499787
 50
48.7954677224788114
 51
105.3731160128264008
  0
ARC
  5
16185
  8
0
 10
3510.08761004336111
 20
194.911587288396305
 30
0.0
 40
2.1132724280579751
 50
284.8154404446805188
 51
285.5027981667519725
  0
ARC
  5
16186
  8
0
 10
3510.6230237159961689
 20
192.8984351171095
 30
0.0
 40
0.030273142846913
 50
204.0845848517749914
 51
279.4364498264806116
  0
ARC
  5
16187
  8
0
 10
3510.8134532495901112
 20
192.9940002502173115
 30
0.0
 40
0.2433101994532843
 50
197.4799252709744906
 51
206.3303177844996981
  0
ARC
  5
16188
  8
0
 10
3510.8152220354431847
 20
193.0025568853409084
 30
0.0
 40
0.2476850337584856
 50
188.9444831646368925
 51
199.2452654627188053
  0
ARC
  5
16189
  8
0
 10
3510.5997837988761603
 20
192.9693565062086122
 30
0.0
 40
0.0297129622061529
 50
115.0314362077391053
 51
190.2927385687019068
  0
ARC
  5
1618A
  8
0
 10
3510.7107778889799192
 20
192.6100326928867048
 30
0.0
 40
0.4055299756147993
 50
104.5321931794676971
 51
107.740282265579296
  0
ARC
  5
1618B
  8
0
 10
3510.6004744682709315
 20
193.031100232444004
 30
0.0
 40
0.0297650613416644
 50
286.6858043528475832
 51
307.3358299083466818
  0
ARC
  5
1618C
  8
0
 10
3507.6355283566831531
 20
192.0467725253365074
 30
0.0
 40
3.1035141699291651
 50
17.8318246170505894
 51
20.7445227984880702
  0
ARC
  5
1618D
  8
0
 10
3510.4876030421692121
 20
193.1270151944902977
 30
0.0
 40
0.053718400398846
 50
20.7445227984850185
 51
27.7092292334005599
  0
ARC
  5
1618E
  8
0
 10
3510.527098759531782
 20
193.1477590259609087
 30
0.0
 40
0.0091065383655279
 50
27.7092292334458392
 51
34.4132386493853488
  0
ARC
  5
1618F
  8
0
 10
3510.5344209260938442
 20
193.1527751034747951
 30
0.0
 40
0.0002310013796167
 50
34.4132386488351685
 51
157.8588127661961096
  0
ARC
  5
16190
  8
0
 10
3510.592443714746878
 20
193.1607288663576014
 30
0.0
 40
0.0587656759795414
 50
187.6930264372630006
 51
195.4134216636558108
  0
ARC
  5
16191
  8
0
 10
3510.5002890899518206
 20
193.1408514186088041
 30
0.0
 40
0.0357570642451479
 50
356.8989826838410977
 51
6.8400433960176938
  0
ARC
  5
16192
  8
0
 10
3510.4969135695500881
 20
193.1409803361657112
 30
0.0
 40
0.0391346529847954
 50
285.2545051953669031
 51
356.9778596444216987
  0
ARC
  5
16193
  8
0
 10
3510.5112519140398035
 20
193.0836792672604076
 30
0.0
 40
0.0199587801351824
 50
101.6834467039183068
 51
115.9858645551101972
  0
ARC
  5
16194
  8
0
 10
3510.5096299433230342
 20
193.0747161623490911
 30
0.0
 40
0.0278310415856083
 50
104.8290358845439982
 51
198.5904908902492991
  0
ARC
  5
16195
  8
0
 10
3514.3308701414630377
 20
194.2249584952670034
 30
0.0
 40
4.018422549541083
 50
196.765196523031193
 51
199.7099054648986964
  0
ARC
  5
16196
  8
0
 10
3510.5726327964212032
 20
192.8793023165289071
 30
0.0
 40
0.026547200173588
 50
201.1743630469171933
 51
285.3309216410337967
  0
ARC
  5
16197
  8
0
 10
3510.3394422751412094
 20
193.7665453892871881
 30
0.0
 40
0.9439214144955123
 50
284.7427942778850252
 51
285.5238477161549895
  0
ARC
  5
16198
  8
0
 10
3510.6023410455859448
 20
192.8193221489904943
 30
0.0
 40
0.0391089297184032
 50
39.6989296316701186
 51
105.2216148583001996
  0
ARC
  5
16199
  8
0
 10
3510.6107581787518939
 20
192.8257108164087867
 30
0.0
 40
0.0285556282007189
 50
19.6939909308744703
 51
40.6238658496428116
  0
ARC
  5
1619A
  8
0
 10
3510.6529855131661861
 20
192.8408253947847868
 30
0.0
 40
0.0162952162868885
 50
199.6939909308821086
 51
209.5391728719993125
  0
ARC
  5
1619B
  8
0
 10
3510.6447289556072064
 20
192.8356791620713011
 30
0.0
 40
0.0065872337692936
 50
205.9995859033705869
 51
216.5251675876060062
  0
ARC
  5
1619C
  8
0
 10
3510.6395935937380273
 20
192.8318757021860108
 30
0.0
 40
0.0001967526746024
 50
216.5251675883459939
 51
330.6503077010149241
  0
ARC
  5
1619D
  8
0
 10
3510.6087930344860979
 20
192.8292405268435914
 30
0.0
 40
0.031075932029405
 50
4.6859843881815744
 51
14.9107322852922906
  0
ARC
  5
1619E
  8
0
 10
3509.9017212967341948
 20
192.6513579633189863
 30
0.0
 40
0.7601771064312293
 50
14.1534941692511307
 51
16.6459723535566901
  0
ARC
  5
1619F
  8
0
 10
3510.6587994567130409
 20
193.3627564514094104
 30
0.0
 40
0.1922855691271689
 50
182.1996567510925047
 51
192.9750399560892902
  0
ARC
  5
161A0
  8
0
 10
3510.5165000191009312
 20
193.357290712177786
 30
0.0
 40
0.0498812003389055
 50
155.7101528435148055
 51
182.1996567510925047
  0
ARC
  5
161A1
  8
0
 10
3510.4930451219961469
 20
193.3678760011572138
 30
0.0
 40
0.0241483314551546
 50
121.5290093576269044
 51
155.7101528435252078
  0
ARC
  5
161A2
  8
0
 10
3510.5058555777150104
 20
193.3469949757657105
 30
0.0
 40
0.0486457802437724
 50
109.7949933060149021
 51
121.5290093576277002
  0
ARC
  5
161A3
  8
0
 10
3510.539088105612791
 20
193.2546627639906092
 30
0.0
 40
0.1467765004171282
 50
100.8669532622895986
 51
109.7949933060149021
  0
ARC
  5
161A4
  8
0
 10
3510.5076491039749271
 20
193.4184318303803138
 30
0.0
 40
0.0199829608741169
 50
280.8669532622637917
 51
330.2112742713551938
  0
ARC
  5
161A5
  8
0
 10
3510.6443588593979257
 20
193.4053686065755926
 30
0.0
 40
0.1194084558152676
 50
171.2186337111621981
 51
178.4952595906075032
  0
ARC
  5
161A6
  8
0
 10
3510.5405609790659582
 20
193.421862175859701
 30
0.0
 40
0.0143165041127299
 50
141.7745356693150995
 51
173.0358344826385917
  0
ARC
  5
161A7
  8
0
 10
3510.5319704670951069
 20
193.4272877543482139
 30
0.0
 40
0.0043405503251361
 50
59.4135153790092119
 51
127.731899651108094
  0
ARC
  5
161A8
  8
0
 10
3510.4982803616308047
 20
193.3932783177453132
 30
0.0
 40
0.052091114837575
 50
21.3321739000099484
 51
46.4369073659002112
  0
ARC
  5
161A9
  8
0
 10
3510.1970072515400716
 20
193.2620440650208025
 30
0.0
 40
0.3806729476758447
 50
12.3950953246173494
 51
23.2361349345989616
  0
ARC
  5
161AA
  8
0
 10
3510.2142931023790879
 20
193.2571100494120913
 30
0.0
 40
0.3649488006910679
 50
2.242546464178595
 51
13.7343124316476395
  0
ARC
  5
161AB
  8
0
 10
3510.511547827763934
 20
193.2686222385979988
 30
0.0
 40
0.0674713840168294
 50
345.063903624496902
 51
2.3513727939662972
  0
ARC
  5
161AC
  8
0
 10
3510.5680168476869767
 20
193.2536720078497865
 30
0.0
 40
0.0090575960197609
 50
309.3406372489563978
 51
344.3725329017025274
  0
ARC
  5
161AD
  8
0
 10
3510.5716186329768789
 20
193.2501623290058035
 30
0.0
 40
0.0040984991075019
 50
233.6071431474335895
 51
301.4775845835591213
  0
ARC
  5
161AE
  8
0
 10
3510.5918731576730352
 20
193.2756982381866067
 30
0.0
 40
0.036689599220375
 50
197.7810444810716035
 51
231.8057943724350878
  0
ARC
  5
161AF
  8
0
 10
3510.5448403843688538
 20
193.2440723102600941
 30
0.0
 40
0.0237350483182645
 50
59.3615810705676594
 51
105.3025021972465964
  0
ARC
  5
161B0
  8
0
 10
3509.8767158835071314
 20
195.6633719636951128
 30
0.0
 40
2.4861258042780312
 50
285.0046208121170821
 51
285.4395548288430859
  0
ARC
  5
161B1
  8
0
 10
3510.5143389004260825
 20
193.2940518522453885
 30
0.0
 40
0.0326030932808341
 50
203.1973871508699858
 51
280.6535959360953143
  0
ARC
  5
161B2
  8
0
 10
3510.629106798543944
 20
193.3514184461772913
 30
0.0
 40
0.1608650286045817
 50
191.4141921289757136
 51
205.8773621888246907
  0
ARC
  5
161B3
  8
0
 10
3510.4758994661287943
 20
193.3404278833191938
 30
0.0
 40
0.0039828946248846
 50
142.8721690513717135
 51
177.2577790436259022
  0
ARC
  5
161B4
  8
0
 10
3510.4734446604647928
 20
193.3421207776561914
 30
0.0
 40
0.0010125160164757
 50
42.2668263451680133
 51
135.3824279091095093
  0
ARC
  5
161B5
  8
0
 10
3510.4611913049429859
 20
193.3309510948895138
 30
0.0
 40
0.0175928206111857
 50
19.473822140095649
 51
42.3462359201193621
  0
ARC
  5
161B6
  8
0
 10
3510.3839528447688281
 20
193.2996574368110885
 30
0.0
 40
0.1009151772433139
 50
11.9037712175075594
 51
21.6056975622243783
  0
ARC
  5
161B7
  8
0
 10
3510.3989672365150909
 20
193.3007057579143861
 30
0.0
 40
0.0860323639255562
 50
1.04296760849848
 51
13.2832943153892593
  0
ARC
  5
161B8
  8
0
 10
3510.4728354618860067
 20
193.3021115498247013
 30
0.0
 40
0.0121509411603088
 50
340.4475272745183929
 51
0.7553600964535852
  0
ARC
  5
161B9
  8
0
 10
3510.4830824654059143
 20
193.2986490358838125
 30
0.0
 40
0.0013463643492345
 50
259.6516383145997224
 51
333.3431213696777036
  0
ARC
  5
161BA
  8
0
 10
3510.4949435847538552
 20
193.3095945652268881
 30
0.0
 40
0.0172346925866386
 50
197.2481993380434062
 51
225.3926305250847122
  0
ARC
  5
161BB
  8
0
 10
3510.5858821346819241
 20
193.3442924832561118
 30
0.0
 40
0.114538479853049
 50
188.693597638288793
 51
200.3377245567974114
  0
ARC
  5
161BC
  8
0
 10
3510.5247477512098158
 20
193.3366395905921991
 30
0.0
 40
0.0529762481019842
 50
175.6926759596960039
 51
190.506034088721691
  0
ARC
  5
161BD
  8
0
 10
3509.2952600909629837
 20
193.0111543813434878
 30
0.0
 40
1.256038897395982
 50
17.7256916721827302
 51
22.2051530515435509
  0
ARC
  5
161BE
  8
0
 10
3510.3471325969899226
 20
193.4405259619308026
 30
0.0
 40
0.1199069846534211
 50
22.2051530515450608
 51
30.5992003345263797
  0
ARC
  5
161BF
  8
0
 10
3510.4381759785169379
 20
193.4943671525913942
 30
0.0
 40
0.0141347239623337
 50
30.5992003345347889
 51
47.06773328596217
  0
ARC
  5
161C0
  8
0
 10
3510.4470526464288014
 20
193.5039088033900043
 30
0.0
 40
0.0011025202663087
 50
47.0677332857825022
 51
183.1444004350742034
  0
ARC
  5
161C1
  8
0
 10
3510.8408053285311325
 20
193.5255397265241868
 30
0.0
 40
0.3954489054385875
 50
183.1444004350759087
 51
185.5173560288783108
  0
ARC
  5
161C2
  8
0
 10
3510.4101516048749545
 20
193.4924769156926061
 30
0.0
 40
0.0373673369242367
 50
323.8791103385609063
 51
352.374546398447194
  0
ARC
  5
161C3
  8
0
 10
3510.4084399488319832
 20
193.4945044606353974
 30
0.0
 40
0.0399501379675902
 50
285.9977246217683273
 51
322.9772672180235986
  0
ARC
  5
161C4
  8
0
 10
3510.4223172163260642
 20
193.4260398556334053
 30
0.0
 40
0.0301980388452273
 50
95.447943408472014
 51
170.4513704886855976
  0
ARC
  5
161C5
  8
0
 10
3510.4654411168457955
 20
193.4247111766567002
 30
0.0
 40
0.07317854058691
 50
175.0313271500560859
 51
193.948486581467705
  0
ARC
  5
161C6
  8
0
 10
3511.5084320320711413
 20
193.6561723493418015
 30
0.0
 40
1.1415222844917869
 50
192.6043946466735122
 51
197.5578781767185887
  0
ARC
  5
161C7
  8
0
 10
3511.5430328538541289
 20
193.6555736396560974
 30
0.0
 40
1.1743821354677011
 50
197.0207720345495943
 51
200.9503992535699126
  0
ARC
  5
161C8
  8
0
 10
3510.4847055996451672
 20
193.2426867505120072
 30
0.0
 40
0.0390538235399178
 50
190.362378073697414
 51
259.1695100242197896
  0
ARC
  5
161C9
  8
0
 10
3510.477217006517094
 20
193.2600922889074866
 30
0.0
 40
0.0557639140092812
 50
270.1543498703869091
 51
290.5492950580921274
  0
ARC
  5
161CA
  8
0
 10
3510.5069349227242128
 20
193.1696744420781044
 30
0.0
 40
0.0395260273436848
 50
67.1738170760274755
 51
104.8709206023141007
  0
ARC
  5
161CB
  8
0
 10
3510.5113890392572102
 20
193.177885824570609
 30
0.0
 40
0.0302437856040736
 50
16.9947621850615285
 51
68.916612636756895
  0
ARC
  5
161CC
  8
0
 10
3510.5580963801180587
 20
193.1957494219876992
 30
0.0
 40
0.0199426429514609
 50
206.9034485472641052
 51
223.4546846819469863
  0
ARC
  5
161CD
  8
0
 10
3510.5444530149970888
 20
193.1829174066546102
 30
0.0
 40
0.0012149996143328
 50
226.6934815081285137
 51
20.6339647257119303
  0
ARC
  5
161CE
  8
0
 10
3510.0866286771488376
 20
193.1346387286770039
 30
0.0
 40
0.46153864348729
 50
6.0577861842158809
 51
16.1948324691079399
  0
ARC
  5
161CF
  8
0
 10
3509.8588840967768192
 20
193.2799714496553065
 30
0.0
 40
0.6115285899910818
 50
18.1267961478421995
 51
20.8241577441112113
  0
ARC
  5
161D0
  8
0
 10
3510.411728023841988
 20
193.4902439319075995
 30
0.0
 40
0.0200466169058331
 50
20.8241577441265484
 51
29.6100507097227599
  0
ARC
  5
161D1
  8
0
 10
3510.4289293760571127
 20
193.5000196515802884
 30
0.0
 40
0.000261490847324
 50
29.6100507098447814
 51
142.679301173337592
  0
ARC
  5
161D2
  8
0
 10
3510.5301139344169314
 20
193.5141747835884019
 30
0.0
 40
0.1023540220208557
 50
187.8596475025777863
 51
192.440304916799505
  0
ARC
  5
161D3
  8
0
 10
3510.400845272487004
 20
193.4890838868556102
 30
0.0
 40
0.0294751618158147
 50
355.7627666135683171
 51
5.9229223745596311
  0
ARC
  5
161D4
  8
0
 10
3510.3909674699229981
 20
193.4894021610101049
 30
0.0
 40
0.0393516425312412
 50
285.441804530899617
 51
356.3632733123441767
  0
ARC
  5
161D5
  8
0
 10
3514.4676559611411903
 20
178.5918679223582899
 30
0.0
 40
15.4059039059855998
 50
105.3038862034543968
 51
105.3584340553802008
  0
ARC
  5
161D6
  8
0
 10
3510.3926621001501189
 20
193.4283630646513075
 30
0.0
 40
0.0199636205559986
 50
105.5802009105032937
 51
193.365159920358991
  0
ARC
  5
161D7
  8
0
 10
3514.1182449916018413
 20
194.3920084247783109
 30
0.0
 40
3.8681515277987519
 50
194.4962100740318931
 51
197.9000549352078906
  0
ARC
  5
161D8
  8
0
 10
3510.4561248095042174
 20
193.2089767451743967
 30
0.0
 40
0.0196867166511617
 50
197.3594068214995048
 51
285.3222474637689174
  0
LINE
  5
161D9
  8
0
 10
3510.4613269763331118
 20
193.1899897951091987
 30
0.0
 11
3510.4785519612478311
 21
193.1949353143016026
 31
0.0
  0
ARC
  5
161DA
  8
0
 10
3510.4885882152411796
 20
193.1562697146472942
 30
0.0
 40
0.0399469021432842
 50
18.4062262049284087
 51
104.5508926786947939
  0
ARC
  5
161DB
  8
0
 10
6046.1080713055671367
 20
975.9767167228673088
 30
0.0
 40
2653.6695446725580041
 50
197.1560836826566003
 51
197.1569796393006015
  0
ARC
  5
161DC
  8
0
 10
3512.4862856645040665
 20
193.773928534025714
 30
0.0
 40
2.0510663606031958
 50
197.1569796393006015
 51
198.0350713914704102
  0
LINE
  5
161DD
  8
0
 10
3510.4302398690520022
 20
193.4869060767485962
 30
0.0
 11
3510.4094524397469286
 21
193.5626379105758019
 31
0.0
  0
ARC
  5
161DE
  8
0
 10
3510.4059118698760358
 20
193.3910854618262078
 30
0.0
 40
0.0046542967775306
 50
153.4435967875147071
 51
191.8929977737479931
  0
ARC
  5
161DF
  8
0
 10
3510.4012990231399272
 20
193.3914010342303129
 30
0.0
 40
0.0018216201561193
 50
26.6417321374567493
 51
75.7108850037034244
  0
ARC
  5
161E0
  8
0
 10
3509.7331662750211763
 20
193.111014647067492
 30
0.0
 40
0.726398649939029
 50
11.5379568071368901
 51
22.7753964124147501
  0
ARC
  5
161E1
  8
0
 10
3510.421458914051982
 20
193.2530945664314004
 30
0.0
 40
0.0236464415557504
 50
358.8831625992185081
 51
7.8073724728736593
  0
ARC
  5
161E2
  8
0
 10
3510.4442492356120056
 20
193.2528292420159914
 30
0.0
 40
0.0008737959137232
 50
191.6275473447063007
 51
347.0664050343671079
  0
ARC
  5
161E3
  8
0
 10
3510.9125306079881739
 20
193.4712670367030114
 30
0.0
 40
0.5175729777175198
 50
189.0195588333930914
 51
204.9851132829660116
  0
ARC
  5
161E4
  8
0
 10
3510.7986549758029469
 20
192.3090759538704049
 30
0.0
 40
0.00038331170597
 50
32.1935144104361299
 51
193.4417068816487131
  0
ARC
  5
161E5
  8
0
 10
3510.6684011278798607
 20
192.2381639289623081
 30
0.0
 40
0.1486882434581886
 50
14.8059983790675105
 51
28.5738426944503594
  0
ARC
  5
161E6
  8
0
 10
3510.7502110847858603
 20
192.257678617374296
 30
0.0
 40
0.0646399168960918
 50
7.8306783211056494
 51
16.6141242862895204
  0
ARC
  5
161E7
  8
0
 10
3510.8110163239161921
 20
192.2659568831680019
 30
0.0
 40
0.0032748659915903
 50
347.2405356089872726
 51
9.2899983329265048
  0
ARC
  5
161E8
  8
0
 10
3510.8138220850150901
 20
192.2653502834820074
 30
0.0
 40
0.0004053900639347
 50
229.2601127013710993
 51
343.2720579973886856
  0
ARC
  5
161E9
  8
0
 10
3510.8887403004641783
 20
192.3103156560435991
 30
0.0
 40
0.0877613399363532
 50
198.0988744349513979
 51
211.0549283053989882
  0
ARC
  5
161EA
  8
0
 10
3510.917516418724972
 20
192.3274258077804006
 30
0.0
 40
0.1206515751715212
 50
188.7908577182830072
 51
201.5791043483721126
  0
ARC
  5
161EB
  8
0
 10
3510.7971496106752056
 20
192.2082004619506961
 30
0.0
 40
0.00038331170597
 50
32.1935144104361299
 51
193.4417068816487131
  0
ARC
  5
161EC
  8
0
 10
3510.666895762753029
 20
192.1372884370425993
 30
0.0
 40
0.1486882434581886
 50
14.8059983790675105
 51
28.5738426944503594
  0
ARC
  5
161ED
  8
0
 10
3510.7487057196581191
 20
192.1568031254545872
 30
0.0
 40
0.0646399168960918
 50
7.8306783211056494
 51
16.6141242862895204
  0
ARC
  5
161EE
  8
0
 10
3510.8095109587889056
 20
192.1650813912484068
 30
0.0
 40
0.0032748659915903
 50
347.2405356089872726
 51
9.2899983329265048
  0
ARC
  5
161EF
  8
0
 10
3510.8123167198878036
 20
192.1644747915622986
 30
0.0
 40
0.0004053900639347
 50
229.2601127013710993
 51
343.2720579973886856
  0
ARC
  5
161F0
  8
0
 10
3510.8872349353359823
 20
192.2094401641238903
 30
0.0
 40
0.0877613399363532
 50
198.0988744349513979
 51
211.0549283053989882
  0
ARC
  5
161F1
  8
0
 10
3510.916011053596776
 20
192.2265503158606919
 30
0.0
 40
0.1206515751715212
 50
188.7908577182830072
 51
201.5791043483721126
  0
ARC
  5
161F2
  8
0
 10
3510.6472614011781843
 20
192.6528032711912033
 30
0.0
 40
0.00038331170597
 50
32.1935144104361299
 51
193.4417068816487131
  0
ARC
  5
161F3
  8
0
 10
3510.5170075532560077
 20
192.5818912462831065
 30
0.0
 40
0.1486882434581886
 50
14.8059983790675105
 51
28.5738426944503594
  0
ARC
  5
161F4
  8
0
 10
3510.5988175101620072
 20
192.6014059346950944
 30
0.0
 40
0.0646399168960918
 50
7.8306783211056494
 51
16.6141242862895204
  0
ARC
  5
161F5
  8
0
 10
3510.6596227492918842
 20
192.6096842004888003
 30
0.0
 40
0.0032748659915903
 50
347.2405356089872726
 51
9.2899983329265048
  0
ARC
  5
161F6
  8
0
 10
3510.6624285103907823
 20
192.6090776008028058
 30
0.0
 40
0.0004053900639347
 50
229.2601127013710993
 51
343.2720579973886856
  0
ARC
  5
161F7
  8
0
 10
3510.7373467258380515
 20
192.6540429733643123
 30
0.0
 40
0.0877613399363532
 50
198.0988744349513979
 51
211.0549283053989882
  0
ARC
  5
161F8
  8
0
 10
3510.7661228441002095
 20
192.6711531251011991
 30
0.0
 40
0.1206515751715212
 50
188.7908577182830072
 51
201.5791043483721126
  0
ARC
  5
161F9
  8
0
 10
3510.5754946032848238
 20
192.9506070670196038
 30
0.0
 40
0.00038331170597
 50
32.1935144104361299
 51
193.4417068816487131
  0
ARC
  5
161FA
  8
0
 10
3510.4452407553631019
 20
192.8796950421115071
 30
0.0
 40
0.1486882434581886
 50
14.8059983790675105
 51
28.5738426944503594
  0
ARC
  5
161FB
  8
0
 10
3510.527050712268192
 20
192.8992097305236086
 30
0.0
 40
0.0646399168960918
 50
7.8306783211056494
 51
16.6141242862895204
  0
ARC
  5
161FC
  8
0
 10
3510.5878559513989785
 20
192.9074879963172862
 30
0.0
 40
0.0032748659915903
 50
347.2405356089872726
 51
9.2899983329265048
  0
ARC
  5
161FD
  8
0
 10
3510.5906617124969671
 20
192.9068813966312064
 30
0.0
 40
0.0004053900639347
 50
229.2601127013710993
 51
343.2720579973886856
  0
ARC
  5
161FE
  8
0
 10
3510.6655799279460552
 20
192.9518467691927981
 30
0.0
 40
0.0877613399363532
 50
198.0988744349513979
 51
211.0549283053989882
  0
ARC
  5
161FF
  8
0
 10
3510.694356046206849
 20
192.9689569209295996
 30
0.0
 40
0.1206515751715212
 50
188.7908577182830072
 51
201.5791043483721126
  0
ARC
  5
16200
  8
0
 10
3510.7995574583160305
 20
192.1564984231224003
 30
0.0
 40
0.00038331170597
 50
32.1935144104361299
 51
193.4417068816487131
  0
ARC
  5
16201
  8
0
 10
3510.6693036103938539
 20
192.0855863982143035
 30
0.0
 40
0.1486882434581886
 50
14.8059983790675105
 51
28.5738426944503594
  0
ARC
  5
16202
  8
0
 10
3510.7511135672998535
 20
192.1051010866262914
 30
0.0
 40
0.0646399168960918
 50
7.8306783211056494
 51
16.6141242862895204
  0
ARC
  5
16203
  8
0
 10
3510.8119188064301852
 20
192.113379352420111
 30
0.0
 40
0.0032748659915903
 50
347.2405356089872726
 51
9.2899983329265048
  0
ARC
  5
16204
  8
0
 10
3510.8147245675290833
 20
192.112772752734088
 30
0.0
 40
0.0004053900639347
 50
229.2601127013710993
 51
343.2720579973886856
  0
ARC
  5
16205
  8
0
 10
3510.8896427829781715
 20
192.1577381252957082
 30
0.0
 40
0.0877613399363532
 50
198.0988744349513979
 51
211.0549283053989882
  0
ARC
  5
16206
  8
0
 10
3510.9184189012389652
 20
192.1748482770325097
 30
0.0
 40
0.1206515751715212
 50
188.7908577182830072
 51
201.5791043483721126
  0
ARC
  5
16207
  8
0
 10
3521.0983301263458998
 20
160.8095217077564882
 30
0.0
 40
37.1477952409531582
 50
106.5070974780134065
 51
107.314890588910103
  0
ARC
  5
16208
  8
0
 10
3510.5895069031921594
 20
196.2416507127013006
 30
0.0
 40
0.1902800116495441
 50
94.6163578873698157
 51
104.0309814953561016
  0
ARC
  5
16209
  8
0
 10
3510.5699177149240313
 20
196.3637834498337895
 30
0.0
 40
0.0676651610615909
 50
28.9310960205985701
 51
86.3778928598161428
  0
ARC
  5
1620A
  8
0
 10
3501.0684855301451535
 20
190.5423653776022945
 30
0.0
 40
11.2105831407140997
 50
17.4201265814097113
 51
31.4798497751437303
  0
ARC
  5
1620B
  8
0
 10
3499.4766260873489045
 20
189.3012035517442087
 30
0.0
 40
13.1201054253073206
 50
4.1830547866181673
 51
20.5120446042443412
  0
ARC
  5
1620C
  8
0
 10
3473.1013905972499742
 20
188.3520983812011025
 30
0.0
 40
39.5064009759797869
 50
357.7221058473547828
 51
2.7655142765293919
  0
ARC
  5
1620D
  8
0
 10
3511.5973766343049647
 20
186.7826306218445893
 30
0.0
 40
0.0201117099651202
 50
180.3547235320039022
 51
268.7852020584892898
  0
ARC
  5
1620E
  8
0
 10
3512.6391756147759224
 20
186.7428451470549078
 30
0.0
 40
0.0196782851068491
 50
358.928826763339714
 51
90.0
  0
LINE
  5
1620F
  8
0
 10
3512.6588504609890151
 20
186.742477273109813
 30
0.0
 11
3512.6265589137760799
 21
184.8921011406546029
 31
0.0
  0
ARC
  5
16210
  8
0
 10
3512.6068768726458984
 20
184.8924446918634032
 30
0.0
 40
0.0196850393015843
 50
269.9999997948161194
 51
359.0041811745340965
  0
LINE
  5
16211
  8
0
 10
3512.6068768725749578
 20
184.8727596525617969
 30
0.0
 11
3512.3490863772749435
 21
184.8727596525617969
 31
0.0
  0
LINE
  5
16212
  8
0
 10
3511.8305999515068834
 20
184.872759655329304
 30
0.0
 11
3511.5461833093759196
 21
184.8727596525617969
 31
0.0
  0
ARC
  5
16213
  8
0
 10
3511.5461833160211427
 20
184.892444698724205
 30
0.0
 40
0.0196850461623781
 50
181.0000193421792005
 51
269.9999806578111929
  0
LINE
  5
16214
  8
0
 10
3511.5265012681029475
 20
184.8921011406534092
 30
0.0
 11
3511.4942021573820057
 21
186.7424947530188035
 31
0.0
  0
ARC
  5
16215
  8
0
 10
3511.5138842816259057
 20
186.7428383097116864
 30
0.0
 40
0.0196851224521212
 50
89.9991685846292455
 51
181.0000114555195978
  0
ARC
  5
16216
  8
0
 10
3512.5877265880749292
 20
186.7233895738617093
 30
0.0
 40
0.039370078700028
 50
359.0000000000372893
 51
83.720420319529623
  0
ARC
  5
16217
  8
0
 10
3511.5650961301857933
 20
186.7235471415316113
 30
0.0
 40
0.0389782915495682
 50
89.4194456499335644
 51
181.2417124783154065
  0
LINE
  5
16218
  8
0
 10
3511.5138842816259057
 20
186.7625234321639027
 30
0.0
 11
3511.5611847729160218
 21
186.7625234321617995
 31
0.0
  0
LINE
  5
16219
  8
0
 10
3511.5261209955760933
 20
186.7233895738609135
 30
0.0
 11
3511.544887750575981
 21
185.6478993216445019
 31
0.0
  0
ARC
  5
1621A
  8
0
 10
3511.5842518330759958
 20
185.6485864242617936
 30
0.0
 40
0.0393700787000076
 50
181.002984382478104
 51
270.0
  0
LINE
  5
1621B
  8
0
 10
3511.5842518330759958
 20
185.6092163455618049
 30
0.0
 11
3511.6927816092488683
 21
185.6092163455618049
 31
0.0
  0
ARC
  5
1621C
  8
0
 10
3511.6741433519200655
 20
186.7235626300935962
 30
0.0
 40
0.0389669679371714
 50
0.7558952393805323
 51
88.9807230670051439
  0
LINE
  5
1621D
  8
0
 10
3511.713106928776142
 20
186.7240767009618025
 30
0.0
 11
3511.7319010068881653
 21
185.6494064829497006
 31
0.0
  0
ARC
  5
1621E
  8
0
 10
3511.6924058218851314
 20
185.6487157821379981
 30
0.0
 40
0.0395012241073221
 50
270.5450806958311887
 51
1.0018995409452449
  0
ARC
  5
1621F
  8
0
 10
3512.4791013861940883
 20
186.7235415007297092
 30
0.0
 40
0.0389969147303941
 50
91.5883277546445527
 51
178.6713186142474967
  0
LINE
  5
16220
  8
0
 10
3512.4401149566760978
 20
186.7244457528618113
 30
0.0
 11
3512.4213460245759961
 21
185.6494059675617905
 31
0.0
  0
ARC
  5
16221
  8
0
 10
3512.4610228684450703
 20
185.6486570605239876
 30
0.0
 40
0.039683911112903
 50
178.9186610215624
 51
268.9256912333859759
  0
LINE
  5
16222
  8
0
 10
3512.4602788297761435
 20
185.6089801250618052
 30
0.0
 11
3512.5698412176361671
 21
185.6092260788356896
 31
0.0
  0
ARC
  5
16223
  8
0
 10
3512.5689658292658351
 20
185.6485864243265098
 30
0.0
 40
0.0393700787649316
 50
271.2740688953588233
 51
358.9999999093647034
  0
ARC
  5
16224
  8
0
 10
99882.124795644034748
 20
-1495.9507016379629931
 30
0.0
 40
96384.1868653452547733
 50
178.9996804922976992
 51
179.0003195085812138
  0
LINE
  5
16225
  8
0
 10
3511.5947043133760417
 20
185.6092163455618049
 30
0.0
 11
3511.5960597871539903
 21
185.5316149372773964
 31
0.0
  0
LINE
  5
16226
  8
0
 10
3511.5960597871539903
 20
185.5316149372773964
 30
0.0
 11
3511.8315300909757752
 21
185.5316139326617986
 31
0.0
  0
LINE
  5
16227
  8
0
 10
3511.6574501502532257
 20
185.6092163455618049
 30
0.0
 11
3511.5960597871539903
 21
185.5316149372773964
 31
0.0
  0
LINE
  5
16228
  8
0
 10
3512.5583554690110759
 20
185.6092002947752917
 30
0.0
 11
3512.5570011998311202
 21
185.5316135829677933
 31
0.0
  0
LINE
  5
16229
  8
0
 10
3512.5570011998311202
 20
185.5316135829677933
 30
0.0
 11
3512.3216421955748956
 21
185.5316138683618021
 31
0.0
  0
ARC
  5
1622A
  8
0
 10
3511.7580990285759981
 20
185.6530551564617895
 30
0.0
 40
0.0787401575000277
 50
213.831535129681896
 51
270.0
  0
LINE
  5
1622B
  8
0
 10
3511.7580990285759981
 20
185.5743149989617962
 30
0.0
 11
3512.3951186337758372
 21
185.5743149989617109
 31
0.0
  0
ARC
  5
1622C
  8
0
 10
3512.3951186337758372
 20
185.6530551564615052
 30
0.0
 40
0.0787401574998228
 50
270.0
 51
325.9614180331670923
  0
LINE
  5
1622D
  8
0
 10
3512.5570011998311202
 20
185.5316135829677933
 30
0.0
 11
3512.4957339274960759
 21
185.6090597172945991
 31
0.0
  0
ARC
  5
1622E
  8
0
 10
3538.3966650975739867
 20
186.2378815351578965
 30
0.0
 40
26.5644507738671791
 50
181.4313684578388859
 51
184.5160751958985941
  0
LINE
  5
1622F
  8
0
 10
3511.8315300909757752
 20
185.5743149989617962
 30
0.0
 11
3511.8305298271279753
 21
184.819868519481787
 31
0.0
  0
ARC
  5
16230
  8
0
 10
3511.9016790605110145
 20
184.819868519481787
 30
0.0
 40
0.0711492333836859
 50
179.9999999999984084
 51
230.2402344926296109
  0
ARC
  5
16231
  8
0
 10
3511.8961722197141171
 20
184.8132495581330943
 30
0.0
 40
0.0625390101052614
 50
230.2402344926296109
 51
248.8963357025257892
  0
ARC
  5
16232
  8
0
 10
3514.9057380055692192
 20
185.55974868753961
 30
0.0
 40
2.5842489669673809
 50
179.6770463691491955
 51
180.6237937068368922
  0
ARC
  5
16233
  8
0
 10
3523.0474739666628921
 20
185.6483933377002984
 30
0.0
 40
10.7264674812409808
 50
180.6237937068368922
 51
184.1466919420952024
  0
ARC
  5
16234
  8
0
 10
3583.7837619439178525
 20
190.051777536660893
 30
0.0
 40
71.622169050889525
 50
184.1466919420952024
 51
186.2983255810862886
  0
ARC
  5
16235
  8
0
 10
3408.7167213559309857
 20
168.1314489465360111
 30
0.0
 40
104.8247808863188055
 50
4.856151164071087
 51
7.7098880001621897
  0
ARC
  5
16236
  8
0
 10
3495.5623750150239175
 20
175.5411485611550972
 30
0.0
 40
17.6636346244211602
 50
351.1239935621970858
 51
4.7548309313564587
  0
ARC
  5
16237
  8
0
 10
3503.7062332472260096
 20
174.3911200686561074
 30
0.0
 40
9.440623766046496
 50
338.8277000395154914
 51
350.3937823278399151
  0
ARC
  5
16238
  8
0
 10
3499.3481346076860063
 20
176.8809862788608882
 30
0.0
 40
14.4232155598795408
 50
319.1953453566806047
 51
335.8558920674631167
  0
ARC
  5
16239
  8
0
 10
3523.4239341182837961
 20
154.9294097424399865
 30
0.0
 40
18.1671995823668091
 50
136.4095478275912114
 51
153.9127255226705131
  0
ARC
  5
1623A
  8
0
 10
3515.1088384989911901
 20
159.3547685530010085
 30
0.0
 40
8.7589724205178552
 50
155.9936618854615915
 51
183.3855381416775003
  0
ARC
  5
1623B
  8
0
 10
3520.542310499917221
 20
159.4462377122862051
 30
0.0
 40
14.1902203674876493
 50
182.4586006316282862
 51
187.198763867080288
  0
ARC
  5
1623C
  8
0
 10
3524.4365952598400327
 20
159.9381149272909113
 30
0.0
 40
18.1154460916988107
 50
187.198763867080288
 51
190.1592138528220062
  0
ARC
  5
1623D
  8
0
 10
3531.8975172883710911
 20
161.5899699118045874
 30
0.0
 40
25.7526178927801013
 50
190.8488642273406128
 51
204.6300377150444945
  0
ARC
  5
1623E
  8
0
 10
3526.0960199944452143
 20
158.6039416744077073
 30
0.0
 40
19.2367901984450995
 50
203.7467866248587995
 51
215.2382577401488959
  0
ARC
  5
1623F
  8
0
 10
3514.4109438754039729
 20
150.3300774709377094
 30
0.0
 40
4.919078610290792
 50
215.055037958075701
 51
230.9587285940058052
  0
ARC
  5
16240
  8
0
 10
3512.0140920822791486
 20
147.4073976674970936
 30
0.0
 40
1.1395138701769421
 50
231.9985474339349878
 51
250.6025179646593983
  0
ARC
  5
16241
  8
0
 10
3511.6970692970130585
 20
146.5359772282652955
 30
0.0
 40
0.2124856491887374
 50
253.1951869219948037
 51
320.9359440860553718
  0
ARC
  5
16242
  8
0
 10
3509.9894888412291039
 20
147.4251501365959882
 30
0.0
 40
2.1338190245167108
 50
331.3499177335330046
 51
357.2318077386407253
  0
ARC
  5
16243
  8
0
 10
3477.1032936097358288
 20
148.8749219643094079
 30
0.0
 40
35.0519368188590335
 50
357.4609261041783839
 51
5.2304725534974521
  0
ARC
  5
16244
  8
0
 10
3596.7713544919952255
 20
158.2383928096747923
 30
0.0
 40
84.9862040392098237
 50
181.9903798149198053
 51
184.1620249527389035
  0
LINE
  5
16245
  8
0
 10
3512.395039893575813
 20
155.2866779266572053
 30
0.0
 11
3511.7580215622760988
 21
155.2866779266572053
 31
0.0
  0
ARC
  5
16246
  8
0
 10
3511.7580202816379824
 20
155.3654181121594036
 30
0.0
 40
0.0787401855125691
 50
182.6568532293001965
 51
270.000931863971573
  0
LINE
  5
16247
  8
0
 10
3511.6793647366748701
 20
155.3617681722618045
 30
0.0
 11
3511.6286491182790996
 21
156.4545237003623015
 31
0.0
  0
ARC
  5
16248
  8
0
 10
3511.6483134800109838
 20
156.4554363384044109
 30
0.0
 40
0.0196855284548517
 50
89.9437181428239541
 51
182.6572341104102861
  0
LINE
  5
16249
  8
0
 10
3511.6483328171761968
 20
156.4751218573618132
 30
0.0
 11
3512.5047269515998778
 21
156.4751218573618132
 31
0.0
  0
ARC
  5
1624A
  8
0
 10
3512.5047294962600972
 20
156.4554368178816901
 30
0.0
 40
0.0196850396445211
 50
357.3436931324255283
 51
90.007406553493766
  0
LINE
  5
1624B
  8
0
 10
3512.5243933844740241
 20
156.4545245207305015
 30
0.0
 11
3512.4736954506252005
 21
155.361768171983698
 31
0.0
  0
ARC
  5
1624C
  8
0
 10
3512.3950411803079987
 20
155.3654167770189076
 30
0.0
 40
0.0787388503722499
 50
269.999063685425881
 51
357.3440740694454121
  0
ARC
  5
1624D
  8
0
 10
3858.375146626426158
 20
171.5109227970532118
 30
0.0
 40
346.438524602663108
 50
182.684230586677586
 51
183.6239975481250042
  0
ARC
  5
1624E
  8
0
 10
3497.2971835719631599
 20
148.6419877402358054
 30
0.0
 40
15.3629176197147093
 50
355.0433446342699995
 51
3.6239975481250828
  0
ARC
  5
1624F
  8
0
 10
3508.7897211969780074
 20
147.6452811326936967
 30
0.0
 40
3.8272405644264529
 50
341.1305869798879939
 51
355.0433446342699995
  0
ARC
  5
16250
  8
0
 10
3511.5444590807201166
 20
146.7037662316973865
 30
0.0
 40
0.9160498944561823
 50
304.0275910113534223
 51
341.1305869798879939
  0
ARC
  5
16251
  8
0
 10
3511.6875483140079268
 20
146.615585867334886
 30
0.0
 40
0.7656530722725159
 50
238.0346847258824141
 51
270.1199923618672187
  0
ARC
  5
16252
  8
0
 10
3511.6884009783530018
 20
146.6153463556840961
 30
0.0
 40
0.7654122498166683
 50
270.0562029050141746
 51
298.7942077513515073
  0
ARC
  5
16253
  8
0
 10
3515.056409630205053
 20
151.1906089767711876
 30
0.0
 40
6.4452178094705639
 50
208.4536795581543913
 51
234.1558952150643051
  0
ARC
  5
16254
  8
0
 10
3532.240282755888984
 20
161.7512989577217013
 30
0.0
 40
26.6075994836424385
 50
192.6431820124331864
 51
210.8182284041903927
  0
ARC
  5
16255
  8
0
 10
3518.555996638292072
 20
159.0593607966659988
 30
0.0
 40
12.6712813677161602
 50
168.438580621258609
 51
194.309820661909896
  0
ARC
  5
16256
  8
0
 10
3516.0430275925727983
 20
158.9925911715299094
 30
0.0
 40
10.2385077511009097
 50
146.3954654482251101
 51
165.2524194817243028
  0
ARC
  5
16257
  8
0
 10
3543.4663180232191735
 20
139.7038543430062134
 30
0.0
 40
43.7632437173077165
 50
139.5221024511508858
 51
145.2334138586647896
  0
ARC
  5
16258
  8
0
 10
3502.6674535137640305
 20
174.8172958866871909
 30
0.0
 40
10.0672330514801605
 50
318.2443409493203035
 51
346.7820328441794118
  0
ARC
  5
16259
  8
0
 10
3497.7268850529239899
 20
175.4144066264952926
 30
0.0
 40
15.0234577304147408
 50
348.8739597087738957
 51
3.7165910789066792
  0
ARC
  5
1625A
  8
0
 10
3404.8486697552461919
 20
168.2613615152046123
 30
0.0
 40
108.1757818394296038
 50
4.3084996822924797
 51
7.7061177113521602
  0
ARC
  5
1625B
  8
0
 10
3568.0769879021518136
 20
188.8578536042651024
 30
0.0
 40
56.3595881355357591
 50
184.7954867695706014
 51
186.2042809628883049
  0
ARC
  5
1625C
  8
0
 10
3512.5568168633540154
 20
186.7825168230941131
 30
0.0
 40
0.0197678201109132
 50
271.8808057849420265
 51
357.9583213407930202
  0
LINE
  5
1625D
  8
0
 10
3511.7221993823759476
 20
184.8727596542744891
 30
0.0
 11
3511.7221993823759476
 21
170.4172096866599873
 31
0.0
  0
LINE
  5
1625E
  8
0
 10
3511.7221993823759476
 20
169.4707455244353014
 30
0.0
 11
3511.7221993823759476
 21
163.1404761880617968
 31
0.0
  0
LINE
  5
1625F
  8
0
 10
3512.5096009571761897
 20
163.1404761880617968
 30
0.0
 11
3512.5096009571761897
 21
170.9814142081073101
 31
0.0
  0
LINE
  5
16260
  8
0
 10
3512.5096009571761897
 20
172.7356769514900066
 30
0.0
 11
3512.5096009571761897
 21
178.8028827197194914
 31
0.0
  0
LINE
  5
16261
  8
0
 10
3512.5096009571761897
 20
182.9998930232702889
 30
0.0
 11
3512.5096009571761897
 21
184.8727596525617969
 31
0.0
  0
LINE
  5
16262
  8
0
 10
3512.5096009571761897
 20
196.4869328809618025
 30
0.0
 11
3513.5883411145759965
 21
196.4869328809618025
 31
0.0
  0
LINE
  5
16263
  8
0
 10
3513.5883411145759965
 20
196.6444131959617891
 30
0.0
 11
3513.5883411145759965
 21
194.7546494163617865
 31
0.0
  0
LINE
  5
16264
  8
0
 10
3513.5883411145759965
 20
194.7546494163617865
 30
0.0
 11
3515.1631442641760259
 21
194.7546494163617865
 31
0.0
  0
LINE
  5
16265
  8
0
 10
3515.1631442641760259
 20
194.7546494163617865
 30
0.0
 11
3515.1631442641760259
 21
196.6444131959617891
 31
0.0
  0
LINE
  5
16266
  8
0
 10
3515.1631442641760259
 20
196.6444131959617891
 30
0.0
 11
3513.5883411145759965
 21
196.6444131959617891
 31
0.0
  0
LINE
  5
16267
  8
0
 10
3513.5883411145759965
 20
194.9121297313618015
 30
0.0
 11
3512.5096009571761897
 21
194.9121297313618015
 31
0.0
  0
ARC
  5
16268
  8
0
 10
3271.1850118976840349
 20
129.2811002866293961
 30
0.0
 40
248.5955025538841028
 50
15.4886261348637007
 51
15.6699392403064603
  0
ARC
  5
16269
  8
0
 10
-31679.7785850466607371
 20
-9556.0075837306249014
 30
0.0
 40
36516.6899279256322188
 50
15.4829511707729104
 51
15.4886261348637007
  0
ARC
  5
1626A
  8
0
 10
3504.4081892496319597
 20
188.4503836537406016
 30
0.0
 40
8.2074031211359042
 50
11.3879641850913202
 51
27.045286027794031
  0
ARC
  5
1626B
  8
0
 10
3344.5101567368960787
 20
170.5785667168428859
 30
0.0
 40
169.0712598962101083
 50
6.1570583840428599
 51
6.6204048757947733
  0
LINE
  5
1626C
  8
0
 10
3511.1985773350761519
 20
163.1404761880617968
 30
0.0
 11
3512.9544828468760898
 21
163.1404761880617968
 31
0.0
  0
ARC
  5
1626D
  8
0
 10
3512.9544828468760898
 20
163.1129171329617975
 30
0.0
 40
0.0275590550999922
 50
359.9999999999820943
 51
90.0
  0
LINE
  5
1626E
  8
0
 10
3512.9820419019761175
 20
163.1129171329617975
 30
0.0
 11
3512.982041901975208
 21
161.4062242195618069
 31
0.0
  0
ARC
  5
1626F
  8
0
 10
3512.9544828483690253
 20
161.4062242189430947
 30
0.0
 40
0.0275590536064048
 50
269.9999968959251078
 51
0.0000012861988074
  0
ARC
  5
16270
  8
0
 10
3510.0174749712800804
 20
161.406224218840407
 30
0.0
 40
0.0275590535037083
 50
179.9999985002926053
 51
270.0000033187167787
  0
LINE
  5
16271
  8
0
 10
3509.9899159177762158
 20
161.4062242195618069
 30
0.0
 11
3509.9899159197261724
 21
162.2959879990617935
 31
0.0
  0
ARC
  5
16272
  8
0
 10
3510.0174749748862268
 20
162.2959879990013974
 30
0.0
 40
0.0275590551603813
 50
90.0000041786394149
 51
179.9999998744567051
  0
ARC
  5
16273
  8
0
 10
3512.9544832145411419
 20
162.2959883667271868
 30
0.0
 40
0.0275586874370658
 50
359.999235606738182
 51
90.0007643927064862
  0
ARC
  5
16274
  8
0
 10
3512.9544828468760898
 20
162.3806336683612983
 30
0.0
 40
0.0275590550995517
 50
269.9999999996090878
 51
0.0000000009265846
  0
LINE
  5
16275
  8
0
 10
3512.9544828468760898
 20
162.3530746132618106
 30
0.0
 11
3511.1985773350761519
 21
162.3530746132618106
 31
0.0
  0
ARC
  5
16276
  8
0
 10
3511.1985773350961608
 20
162.3806336683819893
 30
0.0
 40
0.0275590551202356
 50
180.0000000421115089
 51
269.9999999579209771
  0
LINE
  5
16277
  8
0
 10
3511.1710182799761242
 20
162.3806336683618099
 30
0.0
 11
3511.171018279657801
 21
163.1129171329617975
 31
0.0
  0
ARC
  5
16278
  8
0
 10
3511.1985773347460054
 20
163.1129171329737062
 30
0.0
 40
0.027559055088048
 50
89.9999993147507666
 51
180.0000000248597871
  0
LINE
  5
16279
  8
0
 10
3511.2989710358760931
 20
162.3235470541617929
 30
0.0
 11
3511.2989710358760931
 21
162.3530746132618106
 31
0.0
  0
LINE
  5
1627A
  8
0
 10
3512.8540891460761486
 20
162.3530746132624927
 30
0.0
 11
3512.8540891482289226
 21
162.3235472610392094
 31
0.0
  0
ARC
  5
1627B
  8
0
 10
3511.1985849050438446
 20
162.2959854475111001
 30
0.0
 40
0.0275666251865484
 50
91.0933039959909792
 51
179.9946967362363921
  0
LINE
  5
1627C
  8
0
 10
3511.1710182799761242
 20
162.2959879990617935
 30
0.0
 11
3511.1710182799761242
 21
161.4062242195618069
 31
0.0
  0
ARC
  5
1627D
  8
0
 10
3511.1985943826948642
 20
161.4062297076775963
 30
0.0
 40
0.027576103265636
 50
180.0114028392862053
 51
268.3408614903217995
  0
LINE
  5
1627E
  8
0
 10
3512.9092072563757938
 20
161.378665164460898
 30
0.0
 11
3512.9092072563757938
 21
161.3491376053617898
 31
0.0
  0
LINE
  5
1627F
  8
0
 10
3511.2438529256760376
 20
161.3491376053617898
 30
0.0
 11
3511.2438529256760376
 21
161.378665165336713
 31
0.0
  0
ARC
  5
16280
  8
0
 10
3512.9544828468760898
 20
161.3215785502617905
 30
0.0
 40
0.0275590550999994
 50
0.0
 51
90.0
  0
LINE
  5
16281
  8
0
 10
3512.9820419019761175
 20
161.3215785502617905
 30
0.0
 11
3512.9820419019761175
 21
158.3845706762618022
 31
0.0
  0
ARC
  5
16282
  8
0
 10
3512.9544828467760453
 20
158.3845706762618022
 30
0.0
 40
0.0275590552000011
 50
270.00000020789372
 51
0.0
  0
ARC
  5
16283
  8
0
 10
3513.0608130921691554
 20
158.9200786669532874
 30
0.0
 40
0.0788150834009546
 50
181.9122812915869076
 51
269.9774403281767263
  0
LINE
  5
16284
  8
0
 10
3513.0607820594759687
 20
158.8412635896617928
 30
0.0
 11
3513.0725930821599832
 21
158.8412589391828931
 31
0.0
  0
ARC
  5
16285
  8
0
 10
3513.0725822267668264
 20
158.8136890278194073
 30
0.0
 40
0.0275699135006876
 50
0.0217829441816545
 51
89.9774403281766837
  0
LINE
  5
16286
  8
0
 10
3513.1001521382759165
 20
158.8136995094617987
 30
0.0
 11
3513.1001521382759165
 21
158.3845707072748894
 31
0.0
  0
ARC
  5
16287
  8
0
 10
3513.0725930829421486
 20
158.3845706764963097
 30
0.0
 40
0.0275590553345667
 50
270.0000002797276011
 51
0.0000639891857565
  0
ARC
  5
16288
  8
0
 10
3511.1985773350370437
 20
158.3845706762226939
 30
0.0
 40
0.0275590550608911
 50
179.9999999186933906
 51
270.0000000813179781
  0
LINE
  5
16289
  8
0
 10
3511.1710182799761242
 20
158.3845706762618022
 30
0.0
 11
3511.1710182799761242
 21
160.0499250069617858
 31
0.0
  0
ARC
  5
1628A
  8
0
 10
3510.8556429857690091
 20
160.0499250069617858
 30
0.0
 40
0.3153752942062695
 50
359.9999999999984084
 51
89.9246658760227859
  0
LINE
  5
1628B
  8
0
 10
3510.8560576500758543
 20
160.3653000285617907
 30
0.0
 11
3510.0572583939760989
 21
160.3653000285617907
 31
0.0
  0
ARC
  5
1628C
  8
0
 10
3510.0572640185191631
 20
160.3928636589365055
 30
0.0
 40
0.0275636308163571
 50
180.0116916526220052
 51
269.989743679196124
  0
LINE
  5
1628D
  8
0
 10
3510.0297003882760691
 20
160.392858034361808
 30
0.0
 11
3510.029671635385057
 21
160.5337636301281918
 31
0.0
  0
ARC
  5
1628E
  8
0
 10
3510.0579432256840846
 20
160.5334712233749883
 30
0.0
 40
0.0282731024081243
 50
91.3879553751129663
 51
179.4074236603063071
  0
LINE
  5
1628F
  8
0
 10
3510.0572583939760989
 20
160.5617360305618888
 30
0.0
 11
3512.9544828468760898
 21
160.5617360305618035
 31
0.0
  0
ARC
  5
16290
  8
0
 10
3512.9544758640458895
 20
160.5341597972717977
 30
0.0
 40
0.0275762341740477
 50
1.5581298986354231
 51
89.9854916141137267
  0
ARC
  5
16291
  8
0
 10
3511.1985773350761519
 20
161.3215785502617905
 30
0.0
 40
0.0275590550999994
 50
89.9999999999739515
 51
180.0
  0
LINE
  5
16292
  8
0
 10
3511.1710182799761242
 20
161.3215785502617905
 30
0.0
 11
3511.1710182799761242
 21
160.5617360305618888
 31
0.0
  0
LINE
  5
16293
  8
0
 10
3515.1631442641760259
 20
158.779775166832394
 30
0.0
 11
3515.1631442641760259
 21
160.9263740633498116
 31
0.0
  0
LINE
  5
16294
  8
0
 10
3515.1631442641760259
 20
160.9263740633498116
 30
0.0
 11
3514.0210684163857877
 21
160.9164073183698065
 31
0.0
  0
ARC
  5
16295
  8
0
 10
3514.0214119807787938
 20
160.8770387386589107
 30
0.0
 40
0.0393700788028766
 50
90.5000000030661909
 51
179.9999998503149925
  0
LINE
  5
16296
  8
0
 10
3513.9820419019761175
 20
160.8770387387617973
 30
0.0
 11
3513.9820418966260149
 21
158.8291104876618078
 31
0.0
  0
ARC
  5
16297
  8
0
 10
3514.0214119751740327
 20
158.8291104875588928
 30
0.0
 40
0.0393700785482665
 50
179.9999998503118093
 51
269.5000081354772874
  0
LINE
  5
16298
  8
0
 10
3514.0210684163757833
 20
158.7897419080537986
 30
0.0
 11
3515.1631442641760259
 21
158.779775166832394
 31
0.0
  0
ARC
  5
16299
  8
0
 10
3513.0598739362781089
 20
160.5658630280838963
 30
0.0
 40
0.0828945034542306
 50
200.1275711814440967
 51
268.5281860312452977
  0
LINE
  5
1629A
  8
0
 10
3513.057744776475829
 20
160.4829958730618102
 30
0.0
 11
3513.5135379649750575
 21
160.482994705461806
 31
0.0
  0
LINE
  5
1629B
  8
0
 10
3513.5135379649750575
 20
160.4829958730618102
 30
0.0
 11
3513.5135379649750575
 21
159.8530746132117883
 31
0.0
  0
LINE
  5
1629C
  8
0
 10
3513.0410970201760392
 20
159.8530746132117883
 30
0.0
 11
3513.7944031065758281
 21
159.8530746132117883
 31
0.0
  0
LINE
  5
1629D
  8
0
 10
3513.7944031065758281
 20
159.1306336683618099
 30
0.0
 11
3513.0410970201760392
 21
159.1306336683618099
 31
0.0
  0
LINE
  5
1629E
  8
0
 10
3513.0410970201760392
 20
159.1306336683618099
 30
0.0
 11
3513.0017269413760914
 21
159.1700037470617985
 31
0.0
  0
LINE
  5
1629F
  8
0
 10
3513.0017269413760914
 20
159.1700037470617985
 30
0.0
 11
3513.0017269413760914
 21
160.5067832033820139
 31
0.0
  0
LINE
  5
162A0
  8
0
 10
3513.0410970201760392
 20
159.8530746132117883
 30
0.0
 11
3513.0017269413760914
 21
159.8137045345617935
 31
0.0
  0
LINE
  5
162A1
  8
0
 10
3513.0410970201760392
 20
159.1306336683618099
 30
0.0
 11
3513.0410970201760392
 21
159.8530746132117883
 31
0.0
  0
ARC
  5
162A2
  8
0
 10
3513.7944031065630952
 20
159.1896887865376016
 30
0.0
 40
0.0590551181757615
 50
270.0000000125846213
 51
329.9999999015415142
  0
LINE
  5
162A3
  8
0
 10
3513.8455463390760087
 20
159.1601612273618116
 30
0.0
 11
3513.9820419019761175
 21
159.3965784763742022
 31
0.0
  0
LINE
  5
162A4
  8
0
 10
3513.9820419019761175
 20
159.2625234321617995
 30
0.0
 11
3513.9046451855770101
 21
159.2625234321617995
 31
0.0
  0
ARC
  5
162A5
  8
0
 10
3513.0564823072159015
 20
159.1447907018726085
 30
0.0
 40
0.0778807168870322
 50
134.6735947062250887
 51
162.9064063912292966
  0
LINE
  5
162A6
  8
0
 10
3513.9820419019761175
 20
160.4436257943617932
 30
0.0
 11
3513.5804670988759426
 21
160.4436257943617932
 31
0.0
  0
LINE
  5
162A7
  8
0
 10
3513.5804670988759426
 20
160.4436257943617932
 30
0.0
 11
3513.5804670988759426
 21
159.8530746132117883
 31
0.0
  0
LINE
  5
162A8
  8
0
 10
3513.7944031065758281
 20
159.8530746132117883
 30
0.0
 11
3513.7944031065758281
 21
159.1306336683618099
 31
0.0
  0
LINE
  5
162A9
  8
0
 10
3513.9820419019761175
 20
159.7743611349000048
 30
0.0
 11
3513.8762484356411733
 21
159.7743611349000048
 31
0.0
  0
ARC
  5
162AA
  8
0
 10
3513.8762484356420828
 20
159.8562687689831137
 30
0.0
 40
0.0819076340830936
 50
182.2349328612814929
 51
269.9999999990099013
  0
ARC
  5
162AB
  8
0
 10
3511.3284845618468353
 20
159.3018924589109986
 30
0.0
 40
0.1574792636295774
 50
180.7356913945384065
 51
270.005105731262006
  0
LINE
  5
162AC
  8
0
 10
3511.3284985951108865
 20
159.1444131959067079
 30
0.0
 11
3512.9544828468760898
 21
159.1444131959067079
 31
0.0
  0
ARC
  5
162AD
  8
0
 10
3512.9544493418297861
 20
159.1720531392041948
 30
0.0
 40
0.0276399636047943
 50
270.0694537290348762
 51
356.6438914081978737
  0
LINE
  5
162AE
  8
0
 10
3506.4639458900619502
 20
157.6680352519796884
 30
0.0
 11
3510.5804670988759426
 21
157.6680352519796884
 31
0.0
  0
ARC
  5
162AF
  8
0
 10
3510.5804671991832038
 20
158.258586332772893
 30
0.0
 40
0.5905510807932202
 50
269.9999902681581148
 51
0.0000088763306806
  0
LINE
  5
162B0
  8
0
 10
3511.1710182799761242
 20
158.2585864242618072
 30
0.0
 11
3511.1710182773131237
 21
158.2900824872617989
 31
0.0
  0
ARC
  5
162B1
  8
0
 10
3511.1985773300821165
 20
158.2900824895922938
 30
0.0
 40
0.0275590527694477
 50
89.9999896173016083
 51
180.0000048452656927
  0
LINE
  5
162B2
  8
0
 10
3512.9820366389758419
 20
158.3176415423617982
 30
0.0
 11
3512.9820366389758419
 21
158.3452005974617975
 31
0.0
  0
LINE
  5
162B3
  8
0
 10
3512.9820366389758419
 20
158.3452005974617975
 30
0.0
 11
3511.2946030195757885
 21
158.3452005974617975
 31
0.0
  0
LINE
  5
162B4
  8
0
 10
3511.2946030195757885
 20
158.3452005974617975
 30
0.0
 11
3511.2946030195757885
 21
158.3176415423617982
 31
0.0
  0
LINE
  5
162B5
  8
0
 10
3511.2596009571761897
 20
158.3176415423617982
 30
0.0
 11
3511.2596009571761897
 21
158.3570116211618029
 31
0.0
  0
ARC
  5
162B6
  8
0
 10
3511.3620248210349928
 20
158.3638830238863875
 30
0.0
 40
0.0187137505564698
 50
273.3155633569123779
 51
338.4579056561813104
  0
LINE
  5
162B7
  8
0
 10
3511.3726754288759366
 20
158.3570116210617869
 30
0.0
 11
3511.3726754288759366
 21
158.3484957235220065
 31
0.0
  0
ARC
  5
162B8
  8
0
 10
3512.9092858952758434
 20
158.3649520678370095
 30
0.0
 40
0.0197837116068523
 50
203.6634038677973138
 51
266.7284877276733255
  0
ARC
  5
162B9
  8
0
 10
3512.9544823004807768
 20
158.2900822617062886
 30
0.0
 40
0.0275596014956598
 50
0.0004689245479835
 51
89.7235312830497662
  0
LINE
  5
162BA
  8
0
 10
3512.9820419019761175
 20
158.2900824872617989
 30
0.0
 11
3512.982041901975208
 21
156.7703974478617965
 31
0.0
  0
ARC
  5
162BB
  8
0
 10
3512.9544828468751803
 20
156.7703974478617965
 30
0.0
 40
0.0275590551000065
 50
270.0000000016415242
 51
359.9999999999560032
  0
LINE
  5
162BC
  8
0
 10
3512.9544828468760898
 20
156.7428383927617972
 30
0.0
 11
3506.6051736965459895
 21
156.7428383925783919
 31
0.0
  0
LINE
  5
162BD
  8
0
 10
3511.6040891460761486
 20
156.7428383927228026
 30
0.0
 11
3511.6040891460761486
 21
156.5420509911618012
 31
0.0
  0
LINE
  5
162BE
  8
0
 10
3511.6040891460761486
 20
156.5420509911618012
 30
0.0
 11
3512.5489710358760931
 21
156.5420509911618012
 31
0.0
  0
LINE
  5
162BF
  8
0
 10
3512.5489710358760931
 20
156.5420509911618012
 30
0.0
 11
3512.5489710358760931
 21
156.7428383927617972
 31
0.0
  0
ARC
  5
162C0
  8
0
 10
3511.696608831246067
 20
156.5223659520324873
 30
0.0
 40
0.0196850392292838
 50
359.999999503107972
 51
90.0000002057832091
  0
LINE
  5
162C1
  8
0
 10
3511.7162938704759654
 20
156.5223659518617865
 30
0.0
 11
3511.7162938701339954
 21
156.4829958730618102
 31
0.0
  0
ARC
  5
162C2
  8
0
 10
3511.6966088250737812
 20
156.482995873232511
 30
0.0
 40
0.019685045060335
 50
336.4136374662365938
 51
359.9999995031046751
  0
ARC
  5
162C3
  8
0
 10
3512.4564513506761614
 20
156.5223659519610067
 30
0.0
 40
0.0196850392007875
 50
89.9999994201957634
 51
180.0000002887670973
  0
LINE
  5
162C4
  8
0
 10
3512.4367663114758216
 20
156.5223659518617865
 30
0.0
 11
3512.4367663116750009
 21
156.4829958730618102
 31
0.0
  0
ARC
  5
162C5
  8
0
 10
3512.4564513537270614
 20
156.482995873161002
 30
0.0
 40
0.0196850420520036
 50
180.0000002887784945
 51
203.586366129645711
  0
LINE
  5
162C6
  8
0
 10
3511.4297506864259049
 20
190.2707070285997872
 30
0.0
 11
3511.4332746949471584
 21
190.2707070285997872
 31
0.0
  0
LINE
  5
162C7
  8
0
 10
3512.6391756147759224
 20
186.7625234321617995
 30
0.0
 11
3511.5138842816259057
 21
186.7625234321617995
 31
0.0
  0
LINE
  5
162C8
  8
0
 10
3512.9544832145411419
 20
162.3235470541617929
 30
0.0
 11
3510.0174749748862268
 21
162.3235470541617929
 31
0.0
  0
LINE
  5
162C9
  8
0
 10
3512.9544828483690253
 20
161.378665165336713
 30
0.0
 11
3510.0174749712800804
 21
161.378665165336713
 31
0.0
  0
LINE
  5
162CA
  8
0
 10
3511.1985773350761519
 20
161.3491376053617898
 30
0.0
 11
3512.9544828468760898
 21
161.3491376053617898
 31
0.0
  0
LINE
  5
162CB
  8
0
 10
3512.9820366389758419
 20
158.3176415423617982
 30
0.0
 11
3511.1985773300821165
 21
158.3176415423617982
 31
0.0
  0
LINE
  5
162CC
  8
0
 10
3513.0725931019119344
 20
158.3570116211618029
 30
0.0
 11
3511.1985773350370437
 21
158.3570116211618029
 31
0.0
  0
ENDSEC
  0
EOF
