  0
SECTION
  2
HEADER
  9
$ACADVER
  1
AC1009
  9
$INSBASE
 10
3348.5686338038981376
 20
189.7075945618873902
 30
0.0
  9
$EXTMIN
 10
3323.8310583440779737
 20
179.261622451475688
 30
0.0
  9
$EXTMAX
 10
3355.962334119335992
 20
222.5255020205858045
 30
0.0
  9
$LIMMIN
 10
0.0
 20
0.0
  9
$LIMMAX
 10
11.6929133858000007
 20
8.2677165353999982
  9
$ORTHOMODE
 70
     0
  9
$REGENMODE
 70
     1
  9
$FILLMODE
 70
     1
  9
$QTEXTMODE
 70
     0
  9
$MIRRTEXT
 70
     0
  9
$DRAGMODE
 70
     2
  9
$LTSCALE
 40
0.6431102362
  9
$OSMODE
 70
  4095
  9
$ATTMODE
 70
     1
  9
$TEXTSIZE
 40
0.2
  9
$TRACEWID
 40
0.05
  9
$TEXTSTYLE
  7
STANDARD
  9
$CLAYER
  8
0
  9
$CELTYPE
  6
BYLAYER
  9
$CECOLOR
 62
   256
  9
$DIMSCALE
 40
1.0
  9
$DIMASZ
 40
0.1875
  9
$DIMEXO
 40
0.0625
  9
$DIMDLI
 40
0.4443307087
  9
$DIMRND
 40
0.0
  9
$DIMDLE
 40
0.0
  9
$DIMEXE
 40
0.125
  9
$DIMTP
 40
0.01
  9
$DIMTM
 40
0.01
  9
$DIMTXT
 40
2.0
  9
$DIMCEN
 40
0.1052362205
  9
$DIMTSZ
 40
0.0
  9
$DIMTOL
 70
     1
  9
$DIMLIM
 70
     0
  9
$DIMTIH
 70
     1
  9
$DIMTOH
 70
     1
  9
$DIMSE1
 70
     0
  9
$DIMSE2
 70
     0
  9
$DIMTAD
 70
     0
  9
$DIMZIN
 70
     0
  9
$DIMBLK
  1

  9
$DIMASO
 70
     1
  9
$DIMSHO
 70
     1
  9
$DIMPOST
  1
\X
  9
$DIMAPOST
  1

  9
$DIMALT
 70
     1
  9
$DIMALTD
 70
     2
  9
$DIMALTF
 40
25.3999999999999986
  9
$DIMLFAC
 40
1.0
  9
$DIMTOFL
 70
     0
  9
$DIMTVP
 40
0.0
  9
$DIMTIX
 70
     0
  9
$DIMSOXD
 70
     0
  9
$DIMSAH
 70
     0
  9
$DIMBLK1
  1

  9
$DIMBLK2
  1

  9
$DIMSTYLE
  2
STANDARD
  9
$DIMCLRD
 70
     0
  9
$DIMCLRE
 70
     0
  9
$DIMCLRT
 70
     0
  9
$DIMTFAC
 40
1.0
  9
$DIMGAP
 40
0.09
  9
$LUNITS
 70
     2
  9
$LUPREC
 70
     4
  9
$SKETCHINC
 40
0.1
  9
$FILLETRAD
 40
0.0
  9
$AUNITS
 70
     0
  9
$AUPREC
 70
     0
  9
$MENU
  1
.
  9
$ELEVATION
 40
0.0
  9
$PELEVATION
 40
0.0
  9
$THICKNESS
 40
0.0
  9
$LIMCHECK
 70
     0
  9
$BLIPMODE
 70
     0
  9
$CHAMFERA
 40
0.0
  9
$CHAMFERB
 40
0.0
  9
$SKPOLY
 70
     0
  9
$TDCREATE
 40
2458060.468368056230247
  9
$TDUPDATE
 40
2459410.6697453698143363
  9
$TDINDWG
 40
0.4242315972
  9
$TDUSRTIMER
 40
0.4242315972
  9
$USRTIMER
 70
     1
  9
$ANGBASE
 50
0.0
  9
$ANGDIR
 70
     0
  9
$PDMODE
 70
     0
  9
$PDSIZE
 40
0.3125
  9
$PLINEWID
 40
0.0
  9
$COORDS
 70
     1
  9
$SPLFRAME
 70
     0
  9
$SPLINETYPE
 70
     6
  9
$SPLINESEGS
 70
     8
  9
$ATTDIA
 70
     1
  9
$ATTREQ
 70
     1
  9
$HANDLING
 70
     1
  9
$HANDSEED
  5
8A41
  9
$SURFTAB1
 70
     6
  9
$SURFTAB2
 70
     6
  9
$SURFTYPE
 70
     6
  9
$SURFU
 70
     6
  9
$SURFV
 70
     6
  9
$UCSNAME
  2

  9
$UCSORG
 10
0.0
 20
0.0
 30
0.0
  9
$UCSXDIR
 10
1.0
 20
0.0
 30
0.0
  9
$UCSYDIR
 10
0.0
 20
1.0
 30
0.0
  9
$PUCSNAME
  2

  9
$PUCSORG
 10
0.0
 20
0.0
 30
0.0
  9
$PUCSXDIR
 10
1.0
 20
0.0
 30
0.0
  9
$PUCSYDIR
 10
0.0
 20
1.0
 30
0.0
  9
$USERI1
 70
     0
  9
$USERI2
 70
     0
  9
$USERI3
 70
     0
  9
$USERI4
 70
     0
  9
$USERI5
 70
     0
  9
$USERR1
 40
0.0
  9
$USERR2
 40
0.0
  9
$USERR3
 40
0.0
  9
$USERR4
 40
0.0
  9
$USERR5
 40
0.0
  9
$WORLDVIEW
 70
     1
  9
$SHADEDGE
 70
     3
  9
$SHADEDIF
 70
    70
  9
$TILEMODE
 70
     1
  9
$MAXACTVP
 70
    64
  9
$PLIMCHECK
 70
     0
  9
$PEXTMIN
 10
1.0000000000000000E+20
 20
1.0000000000000000E+20
 30
1.0000000000000000E+20
  9
$PEXTMAX
 10
-1.0000000000000000E+20
 20
-1.0000000000000000E+20
 30
-1.0000000000000000E+20
  9
$PLIMMIN
 10
0.0
 20
0.0
  9
$PLIMMAX
 10
12.0
 20
9.0
  9
$UNITMODE
 70
     0
  9
$VISRETAIN
 70
     1
  9
$PLINEGEN
 70
     0
  9
$PSLTSCALE
 70
     1
  0
ENDSEC
  0
SECTION
  2
TABLES
  0
TABLE
  2
VPORT
 70
     1
  0
VPORT
  2
*ACTIVE
 70
     0
 10
0.0
 20
0.0
 11
1.0
 21
1.0
 12
267.5713638743480942
 22
12.6845430046214602
 13
0.0
 23
0.0
 14
1.0
 24
1.0
 15
0.0
 25
0.0
 16
0.0
 26
0.0
 36
95.5902297660485658
 17
3089.811279296875
 27
197.161570589386713
 37
0.0
 40
41.0722440620199691
 41
2.0416666666666661
 42
50.0
 43
0.0
 44
0.0
 50
0.0
 51
0.0
 71
     0
 72
   100
 73
     1
 74
     1
 75
     0
 76
     0
 77
     0
 78
     0
  0
ENDTAB
  0
TABLE
  2
LTYPE
 70
     2
  0
LTYPE
  2
CONTINUOUS
 70
     0
  3
Solid line
 72
    65
 73
     0
 40
0.0
  0
LTYPE
  2
PHANTOM2
 70
     0
  3
___ _ _ ___ _ _ ___ _ _ ___ _ _
 72
    65
 73
     6
 40
1.25
 49
0.625
 49
-0.125
 49
0.125
 49
-0.125
 49
0.125
 49
-0.125
  0
ENDTAB
  0
TABLE
  2
LAYER
 70
     2
  0
LAYER
  2
0
 70
     0
 62
   255
  6
CONTINUOUS
  0
LAYER
  2
DEFPOINTS
 70
     0
 62
     7
  6
CONTINUOUS
  0
ENDTAB
  0
TABLE
  2
STYLE
 70
     1
  0
STYLE
  2
STANDARD
 70
     0
 40
0.0
 41
0.8
 50
0.0
 71
     0
 42
0.2
  3
txt
  4

  0
ENDTAB
  0
TABLE
  2
VIEW
 70
     0
  0
ENDTAB
  0
TABLE
  2
UCS
 70
     0
  0
ENDTAB
  0
TABLE
  2
APPID
 70
     9
  0
APPID
  2
ACAD
 70
     0
  0
APPID
  2
ACAD_MLEADERVER
 70
     0
  0
APPID
  2
ACAD_EXEMPT_FROM_CAD_STANDARDS
 70
     0
  0
APPID
  2
ACAD_NAV_VCDISPLAY
 70
     0
  0
APPID
  2
ACAECLAYERSTANDARD
 70
     0
  0
APPID
  2
ACCMTRANSPARENCY
 70
     0
  0
APPID
  2
ACAD_DSTYLE_DIMJAG
 70
     0
  0
APPID
  2
ACAD_DSTYLE_DIMTALN
 70
     0
  0
APPID
  2
ACDBATTR
 70
     0
  0
ENDTAB
  0
TABLE
  2
DIMSTYLE
 70
     1
  0
DIMSTYLE
  2
STANDARD
 70
     0
  3

  4

  5

  6

  7

 40
1.0
 41
0.1875
 42
0.0625
 43
0.38
 44
0.125
 45
0.0
 46
0.0
 47
0.01
 48
0.01
140
0.15625
141
0.09
142
0.0
143
25.3999999999999986
144
1.0
145
0.0
146
1.0
147
0.09
 71
     1
 72
     0
 73
     1
 74
     1
 75
     0
 76
     0
 77
     0
 78
     4
170
     0
171
     2
172
     0
173
     0
174
     0
175
     0
176
     0
177
     0
178
     0
  0
ENDTAB
  0
ENDSEC
  0
SECTION
  2
BLOCKS
  0
BLOCK
  8
0
  2
$MODEL_SPACE
 70
     0
 10
0.0
 20
0.0
 30
0.0
  3
$MODEL_SPACE
  1

  0
ENDBLK
  5
21
  8
0
  0
BLOCK
 67
     1
  8
0
  2
$PAPER_SPACE
 70
     0
 10
0.0
 20
0.0
 30
0.0
  3
$PAPER_SPACE
  1

  0
ENDBLK
  5
1D
 67
     1
  8
0
  0
BLOCK
  8
0
  2
_FILLED
 70
     0
 10
0.0
 20
0.0
 30
0.0
  3
_FILLED
  1

  0
SOLID
  5
7FAE
  8
0
  6
BYBLOCK
 62
     0
 10
0.0
 20
0.0
 30
0.0
 11
-1.0
 21
0.1666666667
 31
0.0
 12
-1.0
 22
-0.1666666667
 32
0.0
 13
-1.0
 23
-0.1666666667
 33
0.0
  0
ENDBLK
  5
7FAF
  8
0
  6
BYBLOCK
 62
     0
  0
ENDSEC
  0
SECTION
  2
ENTITIES
  0
ATTDEF
  5
3930
  8
DEFPOINTS
 10
3348.5704602399227952
 20
189.711002693873894
 30
0.0
 40
0.001
  1
K-45382X-SP
  3

  2
MODELNUMBER
 70
     0
1001
ACDBATTR
1070
     0
1070
     1
  0
ATTDEF
  5
3931
  8
DEFPOINTS
 10
3348.5704602399227952
 20
189.7093360272073141
 30
0.0
 40
0.001
  1
OVE
  3

  2
TRADENAME
 70
     0
1001
ACDBATTR
1070
     0
1070
     1
  0
ATTDEF
  5
3932
  8
DEFPOINTS
 10
3348.5704602399227952
 20
189.7076693605405922
 30
0.0
 40
0.001
  1
TOILET
  3

  2
PRODUCT
 70
     0
1001
ACDBATTR
1070
     0
1070
     1
  0
ARC
  5
87CA
  8
0
 10
3342.7620035344912139
 20
216.3563140201486021
 30
0.0
 40
0.9502723785065562
 50
88.0212057355073654
 51
178.9770090861381107
  0
ARC
  5
87CB
  8
0
 10
3341.8415953062672088
 20
215.4166433259420899
 30
0.0
 40
0.0791284088121144
 50
176.9218833222884939
 51
269.706333533312602
  0
LINE
  5
87CC
  8
0
 10
3341.8118826183940655
 20
216.373279813587402
 30
0.0
 11
3341.7625810597969576
 21
215.4208923182874003
 31
0.0
  0
LINE
  5
87CD
  8
0
 10
3341.1752016915970671
 20
205.7022068640874011
 30
0.0
 11
3341.2577794048970645
 21
206.6461277025873926
 31
0.0
  0
ARC
  5
87CE
  8
0
 10
3348.5515710715490059
 20
128.9169319500346091
 30
0.0
 40
78.2973471250601989
 50
89.9875130254915945
 51
92.5802483264596958
  0
ARC
  5
87CF
  8
0
 10
3348.5743410219952239
 20
126.7358178356387981
 30
0.0
 40
80.4773103477299259
 50
92.5265361032274711
 51
94.0275698666359006
  0
ARC
  5
87D0
  8
0
 10
3343.7685811961059699
 20
187.1606027988312064
 30
0.0
 40
19.8625052119002206
 50
93.8314076779521145
 51
96.139530096651157
  0
ARC
  5
87D1
  8
0
 10
-74392.3417506905389018
 20
1047635.0396137620555237
 30
0.0
 40
1050308.6400015510153025
 50
274.2444201939376853
 51
274.2444464804885911
  0
ARC
  5
87D2
  8
0
 10
3341.5259809337921979
 20
206.6196594112466016
 30
0.0
 40
0.2694929265214168
 50
146.7311155284261872
 51
174.3189733907566961
  0
ARC
  5
87D3
  8
0
 10
3341.9317584995001198
 20
204.4757540960233086
 30
0.0
 40
2.4503519176431579
 50
96.7374181165567251
 51
99.9491842661588379
  0
ARC
  5
87D4
  8
0
 10
3341.5143902190970948
 20
206.6241902729782964
 30
0.0
 40
0.2573292120339157
 50
124.3143110708393948
 51
146.158875231375788
  0
ARC
  5
87D5
  8
0
 10
3341.5751676789400335
 20
206.5020746122237085
 30
0.0
 40
0.3928962399355847
 50
99.7842069740733706
 51
121.594893495303694
  0
ARC
  5
87D6
  8
0
 10
3348.597916408241872
 20
299.1497950260870198
 30
0.0
 40
92.4479181073773759
 50
268.3093461650627773
 51
269.981852536158101
  0
ARC
  5
87D7
  8
0
 10
3343.1863725843249995
 20
128.3854863650497009
 30
0.0
 40
78.4025905312450959
 50
88.0381524677670058
 51
89.7691438094012852
  0
ARC
  5
87D8
  8
0
 10
3343.6419536342509673
 20
184.1785170842159118
 30
0.0
 40
22.6093548881804196
 50
90.3539794890141366
 51
96.0478875487931276
  0
ARC
  5
87D9
  8
0
 10
3341.2540304994408871
 20
205.6956986778783119
 30
0.0
 40
0.0790970127996703
 50
175.2803066424525866
 51
269.7188442786566043
  0
ARC
  5
87DA
  8
0
 10
3341.6086324899620195
 20
205.4423148156695049
 30
0.0
 40
0.0603904939435009
 50
180.3694526507617013
 51
269.6567735470284219
  0
LINE
  5
87DB
  8
0
 10
3341.5910266178971142
 20
205.6166026173874002
 30
0.0
 11
3341.5482432514968423
 21
205.456925405287393
 31
0.0
  0
LINE
  5
87DC
  8
0
 10
3341.5482432514968423
 20
205.456925405287393
 30
0.0
 11
3341.5482432514968423
 21
205.4419254104874142
 31
0.0
  0
LINE
  5
87DD
  8
0
 10
3341.6082707269970342
 20
205.3819254052874896
 30
0.0
 11
3355.5289968807969672
 21
205.3819254052874896
 31
0.0
  0
LINE
  5
87DE
  8
0
 10
3355.5890243562971591
 20
205.456925405287393
 30
0.0
 11
3341.5482432514968423
 21
205.456925405287393
 31
0.0
  0
LINE
  5
87DF
  8
0
 10
3341.253642364596999
 20
205.6166026173874002
 30
0.0
 11
3355.8836324662970583
 21
205.6166026173874002
 31
0.0
  0
ARC
  5
87E0
  8
0
 10
3509.2075409224430587
 20
208.2985926631004929
 30
0.0
 40
167.565242221142995
 50
177.5861989388405959
 51
179.527588929055014
  0
ARC
  5
87E1
  8
0
 10
3859.1233817996449034
 20
207.6019338315707898
 30
0.0
 40
517.479560616105573
 50
179.7698948546064912
 51
180.0767018235279977
  0
LINE
  5
87E2
  8
0
 10
3341.8411897395972119
 20
215.3375159564874082
 30
0.0
 11
3355.2957096531968091
 21
215.3375159564874082
 31
0.0
  0
LINE
  5
87E3
  8
0
 10
3341.4839434206969599
 20
205.0619254052874112
 30
0.0
 11
3355.6533241870970414
 21
205.0619254052874112
 31
0.0
  0
ARC
  5
87E4
  8
0
 10
3341.4841775764248268
 20
204.8257078317535047
 30
0.0
 40
0.2362176895898719
 50
90.056795649537392
 51
181.0798681198230895
  0
ARC
  5
87E5
  8
0
 10
3359.7936278078909709
 20
205.1652597515266905
 30
0.0
 40
18.5488161641256717
 50
181.0626603147944138
 51
194.9195401314555056
  0
ARC
  5
87E6
  8
0
 10
3377.6594050395228805
 20
209.7260908599442928
 30
0.0
 40
36.987052432763619
 50
194.6210516529758081
 51
197.6126072829628981
  0
ARC
  5
87E7
  8
0
 10
3410.5292373233769467
 20
204.8307944863771013
 30
0.0
 40
68.8026004126238746
 50
183.700972963282311
 51
187.1898572454593932
  0
ARC
  5
87E8
  8
0
 10
3402.9151473866259039
 20
203.9234063060426934
 30
0.0
 40
61.1348372250979608
 50
187.2392553459887949
 51
188.930703119648598
  0
ARC
  5
87E9
  8
0
 10
3402.9672169933219266
 20
204.0080981086458962
 30
0.0
 40
61.1994697916184407
 50
189.0014638456516991
 51
191.6128425648579139
  0
LINE
  5
87EA
  8
0
 10
3343.4524240627970357
 20
189.7075943612873914
 30
0.0
 11
3353.6848435449969656
 21
189.7075947624873891
 31
0.0
  0
ARC
  5
87EB
  8
0
 10
3412.739854215817104
 20
206.3934743226483022
 30
0.0
 40
71.2550238696329643
 50
192.5824257139076963
 51
193.1696302081105046
  0
ARC
  5
87EC
  8
0
 10
3341.0024597547148915
 20
189.3841816678931025
 30
0.0
 40
2.4712185012912622
 50
7.5199703875800408
 51
14.2939353190842393
  0
ARC
  5
87ED
  8
0
 10
3274.4829042129949812
 20
174.0543344165708959
 30
0.0
 40
70.7337232856050235
 50
13.0235748073898208
 51
13.1606155313855595
  0
ARC
  5
87EE
  8
0
 10
3345.5194880676967841
 20
191.759602546987395
 30
0.0
 40
2.4999999999999911
 50
176.235945416258204
 51
200.4877894907039888
  0
ARC
  5
87EF
  8
0
 10
3343.1963560764761496
 20
190.8915831056343961
 30
0.0
 40
0.0200000001618234
 50
200.4871558644524043
 51
255.6815920778468012
  0
ARC
  5
87F0
  8
0
 10
3343.0448378147489166
 20
191.9224095620076014
 30
0.0
 40
0.020000000256733
 50
121.0421433119569059
 51
176.2365793390694932
  0
LINE
  5
87F1
  8
0
 10
3343.0345244463569543
 20
191.9395453269553116
 30
0.0
 11
3343.0441620768979192
 21
191.9453457888874084
 31
0.0
  0
LINE
  5
87F2
  8
0
 10
3343.0441620768979192
 20
191.9453457888874084
 30
0.0
 11
3343.202308986396929
 21
190.8694225552874002
 31
0.0
  0
LINE
  5
87F3
  8
0
 10
3343.202308986396929
 20
190.8694225552874002
 30
0.0
 11
3343.1914098698980524
 21
190.8722043788874032
 31
0.0
  0
LINE
  5
87F4
  8
0
 10
3343.0248809429199355
 20
191.9237222990319083
 30
0.0
 11
3343.177621062921844
 21
190.8845831575195859
 31
0.0
  0
ARC
  5
87F5
  8
0
 10
3343.5476594573779039
 20
191.6331722617765934
 30
0.0
 40
0.43188246001755
 50
174.2967140549712894
 51
188.5829060561644042
  0
ARC
  5
87F6
  8
0
 10
3341.1162020330939413
 20
191.0507235229796947
 30
0.0
 40
2.0971297228989672
 50
2.0278033869505658
 51
17.3499475947323809
  0
ARC
  5
87F7
  8
0
 10
3343.8391331326020008
 20
191.3703445067141047
 30
0.0
 40
0.6735036112970072
 50
189.9992835999327951
 51
201.3701932247793991
  0
LINE
  5
87F8
  8
0
 10
3343.2031219888281157
 20
191.2574072742075089
 30
0.0
 11
3343.1465034672378351
 21
191.2490850780380924
 31
0.0
  0
LINE
  5
87F9
  8
0
 10
3343.1473466756820017
 20
191.5726473828979124
 30
0.0
 11
3343.099967596058832
 21
191.5656832661194926
 31
0.0
  0
LINE
  5
87FA
  8
0
 10
3342.5065635011092127
 20
194.4482080986969947
 30
0.0
 11
3342.4341630626968254
 21
195.0060716286878062
 31
0.0
  0
ARC
  5
87FB
  8
0
 10
3342.46212172667083
 20
194.4627668871812034
 30
0.0
 40
0.0200340629927052
 50
196.876978120797105
 51
277.2004045226302082
  0
ARC
  5
87FC
  8
0
 10
3342.2422993761210819
 20
196.1962180838052063
 30
0.0
 40
0.0200338568174288
 50
97.2534311992000369
 51
177.5835764565102011
  0
ARC
  5
87FD
  8
0
 10
3342.2163864515791829
 20
195.9746201087027941
 30
0.0
 40
0.007910491637144
 50
97.3093429560483401
 51
181.0773105068155076
  0
ARC
  5
87FE
  8
0
 10
3347.3191373288032082
 20
195.9593933941019941
 30
0.0
 40
5.1106822128214349
 50
179.8309606924952959
 51
183.6599318084599872
  0
ARC
  5
87FF
  8
0
 10
3346.8918382494548496
 20
195.8554060131941128
 30
0.0
 40
4.6709873355614251
 50
190.3598171854220027
 51
194.7140364191830031
  0
ARC
  5
8800
  8
0
 10
3342.3817157163630327
 20
194.6708812427471003
 30
0.0
 40
0.0079095871144255
 50
193.7663549097188991
 51
277.1469853698702082
  0
ARC
  5
8801
  8
0
 10
3347.3279154953911529
 20
195.9604689579830961
 30
0.0
 40
5.1111104554667079
 50
194.8294649683797104
 51
197.1075736583723881
  0
LINE
  5
8802
  8
0
 10
3342.4646328008971068
 20
194.4428908164873917
 30
0.0
 11
3342.5065635011092127
 21
194.4482080986969947
 31
0.0
  0
LINE
  5
8803
  8
0
 10
3342.267640485074935
 20
196.2196261205745884
 30
0.0
 11
3342.2397699339458086
 21
196.2160916174935892
 31
0.0
  0
ARC
  5
8804
  8
0
 10
3347.32798542390492
 20
195.9604708577905114
 30
0.0
 40
5.1111808379711139
 50
177.3468826391060986
 51
179.6249327361595078
  0
ARC
  5
8805
  8
0
 10
3440.353707413723896
 20
207.7572406950822881
 30
0.0
 40
98.8392922996476955
 50
186.835231573579108
 51
187.6191804642587897
  0
LINE
  5
8806
  8
0
 10
3342.3826997891969768
 20
194.6630331111873886
 30
0.0
 11
3342.3855623391641529
 21
194.6634157021640021
 31
0.0
  0
LINE
  5
8807
  8
0
 10
3342.218878336475882
 20
195.6331559167412877
 30
0.0
 11
3342.2969981386468135
 21
195.0154256294374022
 31
0.0
  0
LINE
  5
8808
  8
0
 10
3342.2153800285968828
 20
195.9824663173874058
 30
0.0
 11
3342.2182474994160657
 21
195.9828103605642866
 31
0.0
  0
LINE
  5
8809
  8
0
 10
3342.2084773582309936
 20
195.9744713795342932
 30
0.0
 11
3342.3740333385972008
 21
194.668999052487294
 31
0.0
  0
LINE
  5
880A
  8
0
 10
3342.4429499148968716
 20
194.4569526149873866
 30
0.0
 11
3342.2222830045170667
 21
196.1970552744396912
 31
0.0
  0
ARC
  5
880B
  8
0
 10
3342.6330994795548577
 20
198.6073351805966922
 30
0.0
 40
0.2383281735006376
 50
197.7790106726401973
 51
269.6284021578811121
  0
ARC
  5
880C
  8
0
 10
3495.8189259923210557
 20
203.6132533522435892
 30
0.0
 40
152.8758054930268031
 50
184.1837296153543946
 51
185.2188660781459077
  0
ARC
  5
880D
  8
0
 10
3508.669643675700172
 20
204.7993458228019961
 30
0.0
 40
165.7789920295305137
 50
183.0373711420373013
 51
184.2685464047841037
  0
ARC
  5
880E
  8
0
 10
3405.808918560705024
 20
199.2024737521147983
 30
0.0
 40
62.7663571767731696
 50
180.998570373186908
 51
182.9107622534789925
  0
ARC
  5
880F
  8
0
 10
3342.7401751248230539
 20
198.0506755484273071
 30
0.0
 40
0.3183877063318045
 50
33.0817750688615817
 51
88.9725057919565216
  0
ARC
  5
8810
  8
0
 10
3342.7411174403969198
 20
198.0541523794688885
 30
0.0
 40
0.3157094833791772
 50
9.9338326107965642
 51
32.646419340012713
  0
LINE
  5
8811
  8
0
 10
3342.6315537877981114
 20
198.3690120194873998
 30
0.0
 11
3354.5053731748971586
 21
198.3690120194873998
 31
0.0
  0
LINE
  5
8812
  8
0
 10
3341.6723942674411774
 20
205.3819254052874896
 30
0.0
 11
3341.67884416254401
 21
205.0619254052874112
 31
0.0
  0
LINE
  5
8813
  8
0
 10
3342.2071575690270038
 20
205.1219254052874135
 30
0.0
 11
3343.5754766530690176
 21
205.1219254052948031
 31
0.0
  0
ARC
  5
8814
  8
0
 10
3341.3516417871810518
 20
201.1314564396323874
 30
0.0
 40
4.7106468072132337
 50
56.5513232309587011
 51
64.4635355188924848
  0
ARC
  5
8815
  8
0
 10
3342.2071578133341063
 20
205.2219260969374943
 30
0.0
 40
0.1000006916503267
 50
192.3966141844045978
 51
269.9998600234093828
  0
ARC
  5
8816
  8
0
 10
3341.885999719422216
 20
205.1563815630655938
 30
0.0
 40
0.2277938694500264
 50
11.1567292083483398
 51
81.9403046185382635
  0
ARC
  5
8817
  8
0
 10
3343.9013319889168088
 20
205.0455516968526126
 30
0.0
 40
0.2705336658394083
 50
140.1951059674653948
 51
151.3616354931745889
  0
ARC
  5
8818
  8
0
 10
3343.5754752778061629
 20
205.2219260016557882
 30
0.0
 40
0.1000005963705706
 50
270.0007879630132948
 51
332.1520032102498021
  0
ARC
  5
8819
  8
0
 10
3345.2996409749621307
 20
205.1621173426484006
 30
0.0
 40
0.1004259657854861
 50
266.0876896306069739
 51
356.9030762525026717
  0
LINE
  5
881A
  8
0
 10
3345.399920275896875
 20
205.1566918096874019
 30
0.0
 11
3345.4122541744968657
 21
205.3819254052874896
 31
0.0
  0
ARC
  5
881B
  8
0
 10
3344.1303020365139673
 20
205.161925405329697
 30
0.0
 40
0.1000000000423073
 50
183.0000000090641947
 51
269.999015074835313
  0
ARC
  5
881C
  8
0
 10
3343.8137817149518014
 20
205.1653498137075076
 30
0.0
 40
0.2168302934601046
 50
357.7115789626246283
 51
87.22261395880696
  0
LINE
  5
881D
  8
0
 10
3342.7948160689970791
 20
217.3060197276874135
 30
0.0
 11
3354.3424540961968887
 21
217.3060197275873975
 31
0.0
  0
ARC
  5
881E
  8
0
 10
3979.2982194063170027
 20
209.4562949888743901
 30
0.0
 40
636.3810063262116046
 50
179.4704839815643993
 51
180.2198554426036026
  0
ARC
  5
881F
  8
0
 10
3354.3330528402048003
 20
216.3118312994710095
 30
0.0
 40
0.9942328772550657
 50
3.5434211740143531
 51
89.4582151424241374
  0
ARC
  5
8820
  8
0
 10
3355.2956723015267926
 20
215.4166433259420899
 30
0.0
 40
0.0791284088121144
 50
270.293666466687398
 51
3.078116677711527
  0
LINE
  5
8821
  8
0
 10
3355.3253849894008454
 20
216.373279813587402
 30
0.0
 11
3355.3746865479970438
 21
215.4208923182874003
 31
0.0
  0
LINE
  5
8822
  8
0
 10
3355.9620659161969343
 20
205.7022068640874011
 30
0.0
 11
3355.8794882028969369
 21
206.6461277025873926
 31
0.0
  0
ARC
  5
8823
  8
0
 10
3348.5856965735310951
 20
128.916933055333601
 30
0.0
 40
78.297346019203232
 50
87.4197516643856858
 51
90.0124851010421736
  0
ARC
  5
8824
  8
0
 10
3348.5629265857987775
 20
126.7358178356387981
 30
0.0
 40
80.4773103477299259
 50
85.9724301333640852
 51
87.4734638967725147
  0
ARC
  5
8825
  8
0
 10
3353.3686915387152112
 20
187.1606693702730979
 30
0.0
 40
19.8624384466539503
 50
83.8604565249379306
 51
86.1685942466888122
  0
ARC
  5
8826
  8
0
 10
81089.4790182983560953
 20
1047635.0396137620555237
 30
0.0
 40
1050308.6400015510153025
 50
265.7555535195112952
 51
265.7555798060623147
  0
ARC
  5
8827
  8
0
 10
3355.6112866740018035
 20
206.6196594112466016
 30
0.0
 40
0.2694929265214168
 50
5.6810266092433004
 51
33.268884471573827
  0
ARC
  5
8828
  8
0
 10
3355.2055091082970648
 20
204.4757540960364963
 30
0.0
 40
2.4503519176297761
 50
80.0508157338408637
 51
83.2625207199153863
  0
ARC
  5
8829
  8
0
 10
3355.6228773886969066
 20
206.6241902729782964
 30
0.0
 40
0.2573292120339157
 50
33.8411247686242191
 51
55.6856889291605697
  0
ARC
  5
882A
  8
0
 10
3355.5620999288539679
 20
206.5020746122237085
 30
0.0
 40
0.3928962399355847
 50
58.4051065046962989
 51
80.2157930259266436
  0
ARC
  5
882B
  8
0
 10
3348.5393511137699534
 20
299.1497988878069805
 30
0.0
 40
92.4479219699472452
 50
270.0181491262096074
 51
271.6906538174725938
  0
ARC
  5
882C
  8
0
 10
3353.9508950234690019
 20
128.3854863650497009
 30
0.0
 40
78.4025905312450959
 50
90.230856190598729
 51
91.9618475322329942
  0
ARC
  5
882D
  8
0
 10
3353.4953139735430341
 20
184.1785170842159118
 30
0.0
 40
22.6093548881804196
 50
83.9521124512068866
 51
89.6460205109858919
  0
ARC
  5
882E
  8
0
 10
3355.8832370507720952
 20
205.6956986975814914
 30
0.0
 40
0.0790970685645327
 50
270.2864295166421016
 51
4.7196757015094066
  0
ARC
  5
882F
  8
0
 10
3355.5286351178328914
 20
205.4423148156695049
 30
0.0
 40
0.0603904939435009
 50
270.3432264529715781
 51
359.6305473492383271
  0
LINE
  5
8830
  8
0
 10
3355.5462409898968872
 20
205.6166026173874002
 30
0.0
 11
3355.5890243562971591
 21
205.456925405287393
 31
0.0
  0
LINE
  5
8831
  8
0
 10
3355.5890243562971591
 20
205.456925405287393
 30
0.0
 11
3355.5890243562971591
 21
205.4419254104874142
 31
0.0
  0
ARC
  5
8832
  8
0
 10
3187.9297266853518522
 20
208.2985926631004929
 30
0.0
 40
167.565242221142995
 50
0.4724110709449289
 51
2.4138010611594032
  0
ARC
  5
8833
  8
0
 10
2838.3758983284078568
 20
207.6019336019400043
 30
0.0
 40
517.1175510182592916
 50
359.9232444725523123
 51
0.23026625745841
  0
ARC
  5
8834
  8
0
 10
3355.653090031370084
 20
204.8257078317535047
 30
0.0
 40
0.2362176895898719
 50
358.9201318801768252
 51
89.9432043504626364
  0
ARC
  5
8835
  8
0
 10
3337.3436397999030305
 20
205.1652597515266905
 30
0.0
 40
18.5488161641256717
 50
345.0804598685444944
 51
358.9373396852056999
  0
ARC
  5
8836
  8
0
 10
3319.4778625682720303
 20
209.7260908599442928
 30
0.0
 40
36.987052432763619
 50
342.3873927170370735
 51
345.3789483470242203
  0
ARC
  5
8837
  8
0
 10
3286.6080302844170546
 20
204.8307944863771013
 30
0.0
 40
68.8026004126238746
 50
352.8101427545406068
 51
356.2990270367175754
  0
ARC
  5
8838
  8
0
 10
3294.222120221169007
 20
203.9234063060426934
 30
0.0
 40
61.1348372250979608
 50
351.069296880349782
 51
352.7607446540112051
  0
ARC
  5
8839
  8
0
 10
3294.1700506144720748
 20
204.0080981086458962
 30
0.0
 40
61.1994697916184407
 50
348.3871574351421145
 51
350.9985361543483009
  0
ARC
  5
883A
  8
0
 10
3284.3974133919768974
 20
206.3934743226483022
 30
0.0
 40
71.2550238696329643
 50
346.8303697918877901
 51
347.4175742860921901
  0
ARC
  5
883B
  8
0
 10
3356.1348225274368815
 20
189.3841783876661111
 30
0.0
 40
2.471233531235105
 50
165.7060749836616935
 51
172.4799895183184901
  0
ARC
  5
883C
  8
0
 10
3422.6543633947999297
 20
174.0543344165708959
 30
0.0
 40
70.7337232856050235
 50
166.8393844686144121
 51
166.9764251926102077
  0
ARC
  5
883D
  8
0
 10
3354.5041681282400532
 20
198.6073351805966922
 30
0.0
 40
0.2383281735006376
 50
270.3715978421190016
 51
342.220989327359689
  0
ARC
  5
883E
  8
0
 10
3201.3183416154720362
 20
203.6132533522437882
 30
0.0
 40
152.8758054930274
 50
354.7811340691704913
 51
355.816270384645577
  0
ARC
  5
883F
  8
0
 10
3188.4676239320951936
 20
204.7993458228019961
 30
0.0
 40
165.7789920295305137
 50
355.7314535952157826
 51
356.9626288579627271
  0
ARC
  5
8840
  8
0
 10
3291.3283490470889774
 20
199.2024737521147983
 30
0.0
 40
62.7663571767731696
 50
357.0892377465210075
 51
359.0014296268113867
  0
ARC
  5
8841
  8
0
 10
3354.397092482971857
 20
198.0506755484273071
 30
0.0
 40
0.3183877063318045
 50
91.0274942080435068
 51
146.9182249311398039
  0
ARC
  5
8842
  8
0
 10
3354.3961501673970815
 20
198.0541523794688885
 30
0.0
 40
0.3157094833791772
 50
147.3535806599871876
 51
170.0661673892034003
  0
LINE
  5
8843
  8
0
 10
3355.464873340352824
 20
205.3819254052874896
 30
0.0
 11
3355.4584234452499913
 21
205.0619254052874112
 31
0.0
  0
LINE
  5
8844
  8
0
 10
3354.9301100387669976
 20
205.1219254052874135
 30
0.0
 11
3353.5617909547249837
 21
205.1219254052948031
 31
0.0
  0
ARC
  5
8845
  8
0
 10
3355.7856258206138591
 20
201.1314564396323874
 30
0.0
 40
4.7106468072132337
 50
115.536464481107501
 51
123.4486767690411995
  0
ARC
  5
8846
  8
0
 10
3354.9301097944608046
 20
205.2219260969374943
 30
0.0
 40
0.1000006916503267
 50
270.0001399765906172
 51
347.6033858155954022
  0
ARC
  5
8847
  8
0
 10
3355.2512678883717854
 20
205.1563815630655938
 30
0.0
 40
0.2277938694500264
 50
98.0596953814617223
 51
168.8432707916516051
  0
ARC
  5
8848
  8
0
 10
3353.2359356188771926
 20
205.0455516968526126
 30
0.0
 40
0.2705336658394083
 50
28.6383645068254111
 51
39.80489403253452
  0
ARC
  5
8849
  8
0
 10
3353.5617923299878385
 20
205.2219260016557882
 30
0.0
 40
0.1000005963705706
 50
207.8479967897501126
 51
269.9992120369867052
  0
ARC
  5
884A
  8
0
 10
3351.8376266328318707
 20
205.1621173426484006
 30
0.0
 40
0.1004259657854861
 50
183.0969237474972999
 51
273.9123103693930261
  0
LINE
  5
884B
  8
0
 10
3351.7373473318971264
 20
205.1566918096874019
 30
0.0
 11
3351.7250134332971356
 21
205.3819254052874896
 31
0.0
  0
ARC
  5
884C
  8
0
 10
3353.0069655712800341
 20
205.161925405329697
 30
0.0
 40
0.1000000000423073
 50
270.000984925164687
 51
356.9999999909358053
  0
ARC
  5
884D
  8
0
 10
3353.3234858928422
 20
205.1653498137075076
 30
0.0
 40
0.2168302934601046
 50
92.7773860411930542
 51
182.2884210373754001
  0
ARC
  5
884E
  8
0
 10
2717.8390482014779082
 20
209.4562949888743901
 30
0.0
 40
636.3810063262116046
 50
359.7801445573963974
 51
0.5295160184355533
  0
LINE
  5
884F
  8
0
 10
3347.6631232793970412
 20
217.3926340666874069
 30
0.0
 11
3349.4741469014970789
 21
217.3926340666874069
 31
0.0
  0
ARC
  5
8850
  8
0
 10
3347.6631232793970412
 20
217.3532639879875035
 30
0.0
 40
0.0393700786999851
 50
89.9999999999478888
 51
180.0000000000212026
  0
LINE
  5
8851
  8
0
 10
3347.6237532006971378
 20
217.353263987916705
 30
0.0
 11
3347.6237532006971378
 21
217.3108622351873862
 31
0.0
  0
LINE
  5
8852
  8
0
 10
3349.5135169801969823
 20
217.3532639879873898
 30
0.0
 11
3349.5135169801969823
 21
217.3108622351873862
 31
0.0
  0
ARC
  5
8853
  8
0
 10
3349.4741469014970789
 20
217.3532639879873898
 30
0.0
 40
0.0393700787000064
 50
0.0000000000097707
 51
90.0
  0
ARC
  5
8854
  8
0
 10
3354.0803412038908391
 20
191.9157339170380965
 30
0.0
 40
0.0301526733723559
 50
7.0968655215668441
 51
54.6159033732808297
  0
ARC
  5
8855
  8
0
 10
3352.9800918835499033
 20
191.8329616519069987
 30
0.0
 40
1.1334761930501089
 50
358.1231407428801958
 51
4.3765956405291018
  0
ARC
  5
8856
  8
0
 10
3351.6169813773808528
 20
191.8352817066813998
 30
0.0
 40
2.4962902515843419
 50
355.3237006709002799
 51
359.0946492554604106
  0
ARC
  5
8857
  8
0
 10
3351.6137073522540959
 20
191.8352577390490978
 30
0.0
 40
2.4995514410484811
 50
340.499776372084284
 51
355.3303666678702939
  0
ARC
  5
8858
  8
0
 10
3351.6132724527178652
 20
191.8353739291991076
 30
0.0
 40
2.5000001805803538
 50
338.4347558022020053
 51
340.5005933764585961
  0
ARC
  5
8859
  8
0
 10
3353.9008657309418595
 20
190.9076238809905988
 30
0.0
 40
0.0299584106088656
 50
285.0131106773055194
 51
332.8594464176205179
  0
ARC
  5
885A
  8
0
 10
3353.7999708500851739
 20
190.9686603995615997
 30
0.0
 40
0.1478197448535056
 50
329.6444746100003726
 51
339.3260297916310151
  0
ARC
  5
885B
  8
0
 10
3353.8973053361291932
 20
190.8795527472292122
 30
0.0
 40
0.0034388927559599
 50
215.9929767261521931
 51
255.0086540166844884
  0
ARC
  5
885C
  8
0
 10
3353.8970403788339354
 20
190.878956700405098
 30
0.0
 40
0.0027964471227753
 50
257.0940145613270147
 51
283.2492230643929929
  0
LINE
  5
885D
  8
0
 10
3353.8976812886971857
 20
190.8762346880874077
 30
0.0
 11
3353.9086261595971337
 21
190.8786880534873944
 31
0.0
  0
ARC
  5
885E
  8
0
 10
3353.9080264134349818
 20
190.8867492223633064
 30
0.0
 40
0.0163494572786923
 50
192.2622146719236866
 51
214.3174772987711094
  0
ARC
  5
885F
  8
0
 10
3353.9846180740742057
 20
190.9036689881068014
 30
0.0
 40
0.0947876410802185
 50
181.4561093280024977
 51
192.4234614443790008
  0
ARC
  5
8860
  8
0
 10
3354.648596044711212
 20
190.9137257301914872
 30
0.0
 40
0.7588373948507571
 50
174.5330444335405957
 51
180.941238567565108
  0
ARC
  5
8861
  8
0
 10
3356.710119568996106
 20
190.7399030638096917
 30
0.0
 40
2.8276406610980871
 50
172.7182671441389914
 51
175.0066462978068103
  0
ARC
  5
8862
  8
0
 10
3360.1833176716459093
 20
190.2921427440766138
 30
0.0
 40
6.3295812317167686
 50
165.5337236432652048
 51
172.6825716112653879
  0
ARC
  5
8863
  8
0
 10
3354.3503663953511023
 20
191.7985017159678875
 30
0.0
 40
0.3052644093324897
 50
151.8597044245736924
 51
165.8095134678038107
  0
ARC
  5
8864
  8
0
 10
3354.0867340507461449
 20
191.9437125217922926
 30
0.0
 40
0.0031501195889259
 50
58.5530952502658977
 51
131.2761850161928123
  0
ARC
  5
8865
  8
0
 10
3354.0937369894040785
 20
191.9338671428641874
 30
0.0
 40
0.0152190050130692
 50
126.6332534832728953
 51
145.5596147550390924
  0
LINE
  5
8866
  8
0
 10
3354.0883774939970863
 20
191.9463999643874104
 30
0.0
 11
3354.0978012570972169
 21
191.9403170464873938
 31
0.0
  0
ARC
  5
8867
  8
0
 10
3354.0936347288597972
 20
191.913851229351593
 30
0.0
 40
0.017104448124596
 50
10.5614026275446395
 51
33.6927682439665332
  0
ARC
  5
8868
  8
0
 10
3354.1054247566398772
 20
191.9217581255938967
 30
0.0
 40
0.0029088459410482
 50
32.9376492726856895
 51
113.3740423886487036
  0
ARC
  5
8869
  8
0
 10
3354.1090363178582265
 20
191.9151372397984971
 30
0.0
 40
0.0104419277975206
 50
117.1544188579047017
 51
145.1260953770251945
  0
ARC
  5
886A
  8
0
 10
3354.1762140348810135
 20
191.8693553492688011
 30
0.0
 40
0.0917361149255598
 50
145.6571929025056136
 51
160.6090786547289042
  0
ARC
  5
886B
  8
0
 10
3354.732197060047838
 20
191.655310310156608
 30
0.0
 40
0.6874645852879626
 50
159.166203272466106
 51
165.1685974705750937
  0
ARC
  5
886C
  8
0
 10
3357.6297220096621459
 20
190.872443053427105
 30
0.0
 40
3.6888791759674242
 50
164.9342351380057892
 51
169.0388763458441019
  0
ARC
  5
886D
  8
0
 10
3361.1534770532889524
 20
190.1361797572386934
 30
0.0
 40
7.2885349214440582
 50
168.6236956769650135
 51
171.5588441527000896
  0
ARC
  5
886E
  8
0
 10
3356.876647494838835
 20
190.7511444655170862
 30
0.0
 40
2.9678268747771939
 50
171.1822217244856006
 51
176.2363228554798127
  0
ARC
  5
886F
  8
0
 10
3354.2431078793861161
 20
190.9310613002577099
 30
0.0
 40
0.3282246520583736
 50
177.3989497923541876
 51
184.3776598906725042
  0
ARC
  5
8870
  8
0
 10
3353.954322678679091
 20
190.90818503186469
 30
0.0
 40
0.0385434265392312
 50
183.2381949116563078
 51
202.610827764711587
  0
ARC
  5
8871
  8
0
 10
3353.924493245605845
 20
190.896023697851291
 30
0.0
 40
0.0063357113201149
 50
204.7992186416308869
 51
230.1017232761064122
  0
ARC
  5
8872
  8
0
 10
3353.922188739953981
 20
190.8934206917365088
 30
0.0
 40
0.0028622443836335
 50
232.0707321417580999
 51
253.3687733580831889
  0
ARC
  5
8873
  8
0
 10
3353.9221382726741467
 20
190.893472427934114
 30
0.0
 40
0.0028980604249275
 50
254.6176395003502932
 51
298.145266735976918
  0
ARC
  5
8874
  8
0
 10
3353.9202891259919852
 20
190.8973924245769069
 30
0.0
 40
0.007230098980034
 50
296.4126570090633095
 51
314.0767570045404113
  0
ARC
  5
8875
  8
0
 10
3353.9116839887551578
 20
190.9063376948172106
 30
0.0
 40
0.0196424171470439
 50
313.9585700541006759
 51
325.6757714567835933
  0
ARC
  5
8876
  8
0
 10
3353.8511509037380165
 20
190.9473692591917882
 30
0.0
 40
0.0927712812255538
 50
325.8281889089482775
 51
328.8908473907923735
  0
ENDSEC
  0
EOF
