  0
SECTION
  2
HEADER
  9
$ACADVER
  1
AC1009
  9
$INSBASE
 10
2821.4912164003108046
 20
87.0209284438569739
 30
0.0
  9
$EXTMIN
 10
2814.2720376624351957
 20
83.8303945052443851
 30
-0.0015258207003583
  9
$EXTMAX
 10
2821.5910015373260649
 20
87.655884290407414
 30
0.0000000349246037
  9
$LIMMIN
 10
0.0
 20
0.0
  9
$LIMMAX
 10
11.6929133858000007
 20
8.2677165353999982
  9
$ORTHOMODE
 70
     1
  9
$REGENMODE
 70
     1
  9
$FILLMODE
 70
     1
  9
$QTEXTMODE
 70
     0
  9
$MIRRTEXT
 70
     0
  9
$DRAGMODE
 70
     2
  9
$LTSCALE
 40
0.6431102362
  9
$OSMODE
 70
  4095
  9
$ATTMODE
 70
     1
  9
$TEXTSIZE
 40
0.2
  9
$TRACEWID
 40
0.05
  9
$TEXTSTYLE
  7
STANDARD
  9
$CLAYER
  8
0
  9
$CELTYPE
  6
BYLAYER
  9
$CECOLOR
 62
   256
  9
$DIMSCALE
 40
1.0
  9
$DIMASZ
 40
0.1875
  9
$DIMEXO
 40
0.0625
  9
$DIMDLI
 40
0.4443307087
  9
$DIMRND
 40
0.0
  9
$DIMDLE
 40
0.0
  9
$DIMEXE
 40
0.125
  9
$DIMTP
 40
0.01
  9
$DIMTM
 40
0.01
  9
$DIMTXT
 40
2.0
  9
$DIMCEN
 40
0.1052362205
  9
$DIMTSZ
 40
0.0
  9
$DIMTOL
 70
     1
  9
$DIMLIM
 70
     0
  9
$DIMTIH
 70
     1
  9
$DIMTOH
 70
     1
  9
$DIMSE1
 70
     0
  9
$DIMSE2
 70
     0
  9
$DIMTAD
 70
     0
  9
$DIMZIN
 70
     0
  9
$DIMBLK
  1

  9
$DIMASO
 70
     1
  9
$DIMSHO
 70
     1
  9
$DIMPOST
  1
\X
  9
$DIMAPOST
  1

  9
$DIMALT
 70
     1
  9
$DIMALTD
 70
     2
  9
$DIMALTF
 40
25.3999999999999986
  9
$DIMLFAC
 40
1.0
  9
$DIMTOFL
 70
     0
  9
$DIMTVP
 40
0.0
  9
$DIMTIX
 70
     0
  9
$DIMSOXD
 70
     0
  9
$DIMSAH
 70
     0
  9
$DIMBLK1
  1

  9
$DIMBLK2
  1

  9
$DIMSTYLE
  2
STANDARD
  9
$DIMCLRD
 70
     0
  9
$DIMCLRE
 70
     0
  9
$DIMCLRT
 70
     0
  9
$DIMTFAC
 40
1.0
  9
$DIMGAP
 40
0.09
  9
$LUNITS
 70
     2
  9
$LUPREC
 70
     4
  9
$SKETCHINC
 40
0.1
  9
$FILLETRAD
 40
0.0
  9
$AUNITS
 70
     0
  9
$AUPREC
 70
     0
  9
$MENU
  1
.
  9
$ELEVATION
 40
0.0
  9
$PELEVATION
 40
0.0
  9
$THICKNESS
 40
0.0
  9
$LIMCHECK
 70
     0
  9
$BLIPMODE
 70
     0
  9
$CHAMFERA
 40
0.0
  9
$CHAMFERB
 40
0.0
  9
$SKPOLY
 70
     0
  9
$TDCREATE
 40
2458060.468368056230247
  9
$TDUPDATE
 40
2459688.4922106480225921
  9
$TDINDWG
 40
0.4875417824
  9
$TDUSRTIMER
 40
0.4875417824
  9
$USRTIMER
 70
     1
  9
$ANGBASE
 50
0.0
  9
$ANGDIR
 70
     0
  9
$PDMODE
 70
     0
  9
$PDSIZE
 40
0.3125
  9
$PLINEWID
 40
0.0
  9
$COORDS
 70
     1
  9
$SPLFRAME
 70
     0
  9
$SPLINETYPE
 70
     6
  9
$SPLINESEGS
 70
     8
  9
$ATTDIA
 70
     1
  9
$ATTREQ
 70
     1
  9
$HANDLING
 70
     1
  9
$HANDSEED
  5
3CA56
  9
$SURFTAB1
 70
     6
  9
$SURFTAB2
 70
     6
  9
$SURFTYPE
 70
     6
  9
$SURFU
 70
     6
  9
$SURFV
 70
     6
  9
$UCSNAME
  2

  9
$UCSORG
 10
0.0
 20
0.0
 30
0.0
  9
$UCSXDIR
 10
1.0
 20
0.0
 30
0.0
  9
$UCSYDIR
 10
0.0
 20
1.0
 30
0.0
  9
$PUCSNAME
  2

  9
$PUCSORG
 10
0.0
 20
0.0
 30
0.0
  9
$PUCSXDIR
 10
1.0
 20
0.0
 30
0.0
  9
$PUCSYDIR
 10
0.0
 20
1.0
 30
0.0
  9
$USERI1
 70
     0
  9
$USERI2
 70
     0
  9
$USERI3
 70
     0
  9
$USERI4
 70
     0
  9
$USERI5
 70
     0
  9
$USERR1
 40
0.0
  9
$USERR2
 40
0.0
  9
$USERR3
 40
0.0
  9
$USERR4
 40
0.0
  9
$USERR5
 40
0.0
  9
$WORLDVIEW
 70
     1
  9
$SHADEDGE
 70
     3
  9
$SHADEDIF
 70
    70
  9
$TILEMODE
 70
     1
  9
$MAXACTVP
 70
    64
  9
$PLIMCHECK
 70
     0
  9
$PEXTMIN
 10
1.0000000000000000E+20
 20
1.0000000000000000E+20
 30
1.0000000000000000E+20
  9
$PEXTMAX
 10
-1.0000000000000000E+20
 20
-1.0000000000000000E+20
 30
-1.0000000000000000E+20
  9
$PLIMMIN
 10
0.0
 20
0.0
  9
$PLIMMAX
 10
12.0
 20
9.0
  9
$UNITMODE
 70
     0
  9
$VISRETAIN
 70
     1
  9
$PLINEGEN
 70
     0
  9
$PSLTSCALE
 70
     1
  0
ENDSEC
  0
SECTION
  2
TABLES
  0
TABLE
  2
VPORT
 70
     1
  0
VPORT
  2
*ACTIVE
 70
     0
 10
0.0
 20
0.0
 11
1.0
 21
1.0
 12
-985.6125477829318697
 22
-40.2521227989240202
 13
0.0
 23
0.0
 14
1.0
 24
1.0
 15
0.0
 25
0.0
 16
0.0
 26
0.0
 36
17.1152628219792007
 17
3803.5440673828129547
 27
125.9952621967499056
 37
0.0
 40
3.852879926822907
 41
2.2831541218637992
 42
50.0
 43
0.0
 44
0.0
 50
0.0
 51
0.0
 71
     0
 72
   100
 73
     1
 74
     1
 75
     0
 76
     0
 77
     0
 78
     0
  0
ENDTAB
  0
TABLE
  2
LTYPE
 70
     2
  0
LTYPE
  2
CONTINUOUS
 70
     0
  3
Solid line
 72
    65
 73
     0
 40
0.0
  0
LTYPE
  2
PHANTOM2
 70
     0
  3
___ _ _ ___ _ _ ___ _ _ ___ _ _
 72
    65
 73
     6
 40
1.25
 49
0.625
 49
-0.125
 49
0.125
 49
-0.125
 49
0.125
 49
-0.125
  0
ENDTAB
  0
TABLE
  2
LAYER
 70
     2
  0
LAYER
  2
0
 70
     0
 62
   255
  6
CONTINUOUS
  0
LAYER
  2
DEFPOINTS
 70
     0
 62
     7
  6
CONTINUOUS
  0
ENDTAB
  0
TABLE
  2
STYLE
 70
     1
  0
STYLE
  2
STANDARD
 70
     0
 40
0.0
 41
0.8
 50
0.0
 71
     0
 42
0.2
  3
txt
  4

  0
ENDTAB
  0
TABLE
  2
VIEW
 70
     0
  0
ENDTAB
  0
TABLE
  2
UCS
 70
     0
  0
ENDTAB
  0
TABLE
  2
APPID
 70
     9
  0
APPID
  2
ACAD
 70
     0
  0
APPID
  2
ACAD_MLEADERVER
 70
     0
  0
APPID
  2
ACAD_EXEMPT_FROM_CAD_STANDARDS
 70
     0
  0
APPID
  2
ACAD_NAV_VCDISPLAY
 70
     0
  0
APPID
  2
ACAECLAYERSTANDARD
 70
     0
  0
APPID
  2
ACCMTRANSPARENCY
 70
     0
  0
APPID
  2
ACAD_DSTYLE_DIMJAG
 70
     0
  0
APPID
  2
ACAD_DSTYLE_DIMTALN
 70
     0
  0
APPID
  2
ACDBATTR
 70
     0
  0
ENDTAB
  0
TABLE
  2
DIMSTYLE
 70
     1
  0
DIMSTYLE
  2
STANDARD
 70
     0
  3

  4

  5

  6

  7

 40
1.0
 41
0.1875
 42
0.0625
 43
0.38
 44
0.125
 45
0.0
 46
0.0
 47
0.01
 48
0.01
140
0.15625
141
0.09
142
0.0
143
25.3999999999999986
144
1.0
145
0.0
146
1.0
147
0.09
 71
     1
 72
     0
 73
     1
 74
     1
 75
     0
 76
     0
 77
     0
 78
     4
170
     0
171
     2
172
     0
173
     0
174
     0
175
     0
176
     0
177
     0
178
     0
  0
ENDTAB
  0
ENDSEC
  0
SECTION
  2
BLOCKS
  0
BLOCK
  8
0
  2
$MODEL_SPACE
 70
     0
 10
0.0
 20
0.0
 30
0.0
  3
$MODEL_SPACE
  1

  0
ENDBLK
  5
21
  8
0
  0
BLOCK
 67
     1
  8
0
  2
$PAPER_SPACE
 70
     0
 10
0.0
 20
0.0
 30
0.0
  3
$PAPER_SPACE
  1

  0
ENDBLK
  5
1D
 67
     1
  8
0
  0
BLOCK
  8
0
  2
_FILLED
 70
     0
 10
0.0
 20
0.0
 30
0.0
  3
_FILLED
  1

  0
SOLID
  5
3B5D0
  8
0
  6
BYBLOCK
 62
     0
 10
0.0
 20
0.0
 30
0.0
 11
-1.0
 21
0.1666666667
 31
0.0
 12
-1.0
 22
-0.1666666667
 32
0.0
 13
-1.0
 23
-0.1666666667
 33
0.0
  0
ENDBLK
  5
3B5D1
  8
0
  6
BYBLOCK
 62
     0
  0
ENDSEC
  0
SECTION
  2
ENTITIES
  0
ATTDEF
  5
3C807
  8
DEFPOINTS
 10
2821.4918932103801126
 20
87.0250961347740031
 30
0.0
 40
0.001
  1
K-45400T
  3

  2
MODELNUMBER
 70
     0
1001
ACDBATTR
1070
     0
1070
     1
  0
ATTDEF
  5
3C808
  8
DEFPOINTS
 10
2821.4918932103801126
 20
87.0234294681073663
 30
0.0
 40
0.001
  1

  3

  2
TRADENAME
 70
     0
1001
ACDBATTR
1070
     0
1070
     1
  0
ATTDEF
  5
3C809
  8
DEFPOINTS
 10
2821.4918932103801126
 20
87.021762801440687
 30
0.0
 40
0.001
  1
TOWEL BAR
  3

  2
PRODUCT
 70
     0
1001
ACDBATTR
1070
     0
1070
     1
  0
LINE
  5
3C8F3
  8
0
 10
2814.5168073798117803
 20
87.6508547471569557
 30
0.0
 11
2821.4912164003108046
 21
87.6508547471569557
 31
0.0
  0
LINE
  5
3C8F4
  8
0
 10
2814.5168073798117803
 20
86.3910111349569547
 30
0.0
 11
2815.5463379622360662
 21
86.3910111349569547
 31
0.0
  0
LINE
  5
3C8F5
  8
0
 10
2815.7516727378138057
 20
86.3910111349569547
 30
0.0
 11
2816.4360982901112038
 21
86.3910111349569547
 31
0.0
  0
LINE
  5
3C8F6
  8
0
 10
2816.9872793925119367
 20
86.3910111349569547
 30
0.0
 11
2817.6723216833029255
 21
86.3910110448880744
 31
0.0
  0
LINE
  5
3C8F7
  8
0
 10
2817.8770426575329111
 20
86.3910110179714792
 30
0.0
 11
2819.7983042874880084
 21
86.3910107653652375
 31
0.0
  0
LINE
  5
3C8F8
  8
0
 10
2820.0036334514197733
 20
86.3910107383687205
 30
0.0
 11
2820.9164136571112067
 21
86.3910106183569724
 31
0.0
  0
LINE
  5
3C8F9
  8
0
 10
2821.1208705325930168
 20
86.3910111349569547
 30
0.0
 11
2821.4912164003108046
 21
86.3910111349569547
 31
0.0
  0
LINE
  5
3C8FA
  8
0
 10
2814.5168073798117803
 20
87.6508547471569557
 30
0.0
 11
2814.5168073798117803
 21
87.6501670459569624
 31
0.0
  0
LINE
  5
3C8FB
  8
0
 10
2814.5168073798117803
 20
87.6501670459569624
 30
0.0
 11
2814.477780865411205
 21
87.6505076251649342
 31
0.0
  0
ARC
  5
3C8FC
  8
0
 10
2814.4774373010459385
 20
87.6111390455225489
 30
0.0
 40
0.0393700787341146
 50
89.5000000345848861
 51
180.0000006775744055
  0
LINE
  5
3C8FD
  8
0
 10
2814.4380672223119291
 20
87.6111390450569587
 30
0.0
 11
2814.4380672362708538
 21
86.4307268370569659
 31
0.0
  0
ARC
  5
3C8FE
  8
0
 10
2814.4774373158070375
 20
86.4307268375225561
 30
0.0
 40
0.0393700795364396
 50
180.0000006775694885
 51
270.4999784714289035
  0
LINE
  5
3C8FF
  8
0
 10
2814.477780865411205
 20
86.3913582569490188
 30
0.0
 11
2814.516807379940019
 21
86.3916988215165276
 31
0.0
  0
LINE
  5
3C900
  8
0
 10
2814.516807379940019
 20
86.3916988215165276
 30
0.0
 11
2814.516807379940019
 21
86.3910111349569547
 31
0.0
  0
ARC
  5
3C901
  8
0
 10
2815.6490053031470779
 20
85.8044371382758442
 30
0.0
 40
0.5954911046553341
 50
80.0721447045073944
 51
99.927855295492634
  0
ARC
  5
3C902
  8
0
 10
2816.6254626046579688
 20
86.3080733606447978
 30
0.0
 40
0.2202204221412936
 50
123.1140724901020036
 51
149.303712318704612
  0
ARC
  5
3C903
  8
0
 10
2816.7129185876337942
 20
86.2321004851564368
 30
0.0
 40
0.3331481252972335
 50
46.4069490637460902
 51
128.5823480835852024
  0
ARC
  5
3C904
  8
0
 10
2816.8421709288659258
 20
86.3433343000653366
 30
0.0
 40
0.1643354208965124
 50
27.9433886613036186
 51
52.3139667380304232
  0
LINE
  5
3C905
  8
0
 10
2816.9873466515118707
 20
86.4203417030569767
 30
0.0
 11
2816.9868835511861107
 21
84.0927814931095838
 31
0.0
  0
LINE
  5
3C906
  8
0
 10
2816.4360945299108607
 20
86.4204901173569624
 30
0.0
 11
2816.4361073095769825
 21
84.1053174780588932
 31
0.0
  0
ARC
  5
3C907
  8
0
 10
2816.7116888413111155
 20
84.1075471142569739
 30
0.0
 40
0.275590551200004
 50
180.463550499479112
 51
356.9287297623486097
  0
LINE
  5
3C908
  8
0
 10
2821.4912164003108046
 20
87.6508547471569557
 30
0.0
 11
2821.4912164003108046
 21
86.3910111491569666
 31
0.0
  0
ARC
  5
3C909
  8
0
 10
2821.0186435562500264
 20
85.8126273326946318
 30
0.0
 40
0.5873484293088638
 50
79.9767220949639039
 51
100.0235674428453052
  0
ARC
  5
3C90A
  8
0
 10
2819.9009687917741758
 20
85.8001967062294284
 30
0.0
 40
0.5996676186963504
 50
80.1422514778305555
 51
99.8577334557432863
  0
ARC
  5
3C90B
  8
0
 10
2817.7751830249771956
 20
85.8031468296071296
 30
0.0
 40
0.5967954349849992
 50
80.0751481202628668
 51
99.924836813327957
  0
ENDSEC
  0
EOF
