  0
SECTION
  2
HEADER
  9
$ACADVER
  1
AC1009
  9
$INSBASE
 10
3536.983778619388886
 20
143.9160932292861048
 30
0.0
  9
$EXTMIN
 10
3534.2360995597659894
 20
127.7979382476872985
 30
0.0
  9
$EXTMAX
 10
3536.9946180056767844
 20
159.7270721058872027
 30
0.0
  9
$LIMMIN
 10
0.0
 20
0.0
  9
$LIMMAX
 10
11.6929133858000007
 20
8.2677165353999982
  9
$ORTHOMODE
 70
     0
  9
$REGENMODE
 70
     1
  9
$FILLMODE
 70
     1
  9
$QTEXTMODE
 70
     0
  9
$MIRRTEXT
 70
     0
  9
$DRAGMODE
 70
     2
  9
$LTSCALE
 40
0.6431102362
  9
$OSMODE
 70
  4095
  9
$ATTMODE
 70
     1
  9
$TEXTSIZE
 40
0.2
  9
$TRACEWID
 40
0.05
  9
$TEXTSTYLE
  7
STANDARD
  9
$CLAYER
  8
0
  9
$CELTYPE
  6
BYLAYER
  9
$CECOLOR
 62
   256
  9
$DIMSCALE
 40
1.0
  9
$DIMASZ
 40
0.1875
  9
$DIMEXO
 40
0.0625
  9
$DIMDLI
 40
0.4443307087
  9
$DIMRND
 40
0.0
  9
$DIMDLE
 40
0.0
  9
$DIMEXE
 40
0.125
  9
$DIMTP
 40
0.01
  9
$DIMTM
 40
0.01
  9
$DIMTXT
 40
2.0
  9
$DIMCEN
 40
0.1052362205
  9
$DIMTSZ
 40
0.0
  9
$DIMTOL
 70
     1
  9
$DIMLIM
 70
     0
  9
$DIMTIH
 70
     1
  9
$DIMTOH
 70
     1
  9
$DIMSE1
 70
     0
  9
$DIMSE2
 70
     0
  9
$DIMTAD
 70
     0
  9
$DIMZIN
 70
     0
  9
$DIMBLK
  1

  9
$DIMASO
 70
     1
  9
$DIMSHO
 70
     1
  9
$DIMPOST
  1
\X
  9
$DIMAPOST
  1

  9
$DIMALT
 70
     1
  9
$DIMALTD
 70
     2
  9
$DIMALTF
 40
25.3999999999999986
  9
$DIMLFAC
 40
1.0
  9
$DIMTOFL
 70
     0
  9
$DIMTVP
 40
0.0
  9
$DIMTIX
 70
     0
  9
$DIMSOXD
 70
     0
  9
$DIMSAH
 70
     0
  9
$DIMBLK1
  1

  9
$DIMBLK2
  1

  9
$DIMSTYLE
  2
STANDARD
  9
$DIMCLRD
 70
     0
  9
$DIMCLRE
 70
     0
  9
$DIMCLRT
 70
     0
  9
$DIMTFAC
 40
1.0
  9
$DIMGAP
 40
0.09
  9
$LUNITS
 70
     2
  9
$LUPREC
 70
     4
  9
$SKETCHINC
 40
0.1
  9
$FILLETRAD
 40
0.0
  9
$AUNITS
 70
     0
  9
$AUPREC
 70
     0
  9
$MENU
  1
.
  9
$ELEVATION
 40
0.0
  9
$PELEVATION
 40
0.0
  9
$THICKNESS
 40
0.0
  9
$LIMCHECK
 70
     0
  9
$BLIPMODE
 70
     0
  9
$CHAMFERA
 40
0.0
  9
$CHAMFERB
 40
0.0
  9
$SKPOLY
 70
     0
  9
$TDCREATE
 40
2458060.468368056230247
  9
$TDUPDATE
 40
2459100.3504166668280959
  9
$TDINDWG
 40
0.5636297454
  9
$TDUSRTIMER
 40
0.5636297454
  9
$USRTIMER
 70
     1
  9
$ANGBASE
 50
0.0
  9
$ANGDIR
 70
     0
  9
$PDMODE
 70
     0
  9
$PDSIZE
 40
0.3125
  9
$PLINEWID
 40
0.0
  9
$COORDS
 70
     1
  9
$SPLFRAME
 70
     0
  9
$SPLINETYPE
 70
     6
  9
$SPLINESEGS
 70
     8
  9
$ATTDIA
 70
     1
  9
$ATTREQ
 70
     1
  9
$HANDLING
 70
     1
  9
$HANDSEED
  5
13D55
  9
$SURFTAB1
 70
     6
  9
$SURFTAB2
 70
     6
  9
$SURFTYPE
 70
     6
  9
$SURFU
 70
     6
  9
$SURFV
 70
     6
  9
$UCSNAME
  2

  9
$UCSORG
 10
0.0
 20
0.0
 30
0.0
  9
$UCSXDIR
 10
1.0
 20
0.0
 30
0.0
  9
$UCSYDIR
 10
0.0
 20
1.0
 30
0.0
  9
$PUCSNAME
  2

  9
$PUCSORG
 10
0.0
 20
0.0
 30
0.0
  9
$PUCSXDIR
 10
1.0
 20
0.0
 30
0.0
  9
$PUCSYDIR
 10
0.0
 20
1.0
 30
0.0
  9
$USERI1
 70
     0
  9
$USERI2
 70
     0
  9
$USERI3
 70
     0
  9
$USERI4
 70
     0
  9
$USERI5
 70
     0
  9
$USERR1
 40
0.0
  9
$USERR2
 40
0.0
  9
$USERR3
 40
0.0
  9
$USERR4
 40
0.0
  9
$USERR5
 40
0.0
  9
$WORLDVIEW
 70
     1
  9
$SHADEDGE
 70
     3
  9
$SHADEDIF
 70
    70
  9
$TILEMODE
 70
     1
  9
$MAXACTVP
 70
    64
  9
$PLIMCHECK
 70
     0
  9
$PEXTMIN
 10
1.0000000000000000E+20
 20
1.0000000000000000E+20
 30
1.0000000000000000E+20
  9
$PEXTMAX
 10
-1.0000000000000000E+20
 20
-1.0000000000000000E+20
 30
-1.0000000000000000E+20
  9
$PLIMMIN
 10
0.0
 20
0.0
  9
$PLIMMAX
 10
12.0
 20
9.0
  9
$UNITMODE
 70
     0
  9
$VISRETAIN
 70
     1
  9
$PLINEGEN
 70
     0
  9
$PSLTSCALE
 70
     1
  0
ENDSEC
  0
SECTION
  2
TABLES
  0
TABLE
  2
VPORT
 70
     1
  0
VPORT
  2
*ACTIVE
 70
     0
 10
0.0
 20
0.0
 11
1.0
 21
1.0
 12
231.9222435483461879
 22
-51.4990063991005016
 13
0.0
 23
0.0
 14
1.0
 24
1.0
 15
0.0
 25
0.0
 16
0.0
 26
0.0
 36
96.5995694866707311
 17
3303.693115234375
 27
195.2615115758877096
 37
0.0
 40
32.1948409360768295
 41
2.6486111111111108
 42
50.0
 43
0.0
 44
0.0
 50
0.0
 51
0.0
 71
     0
 72
   100
 73
     1
 74
     1
 75
     0
 76
     0
 77
     0
 78
     0
  0
ENDTAB
  0
TABLE
  2
LTYPE
 70
     2
  0
LTYPE
  2
CONTINUOUS
 70
     0
  3
Solid line
 72
    65
 73
     0
 40
0.0
  0
LTYPE
  2
PHANTOM2
 70
     0
  3
___ _ _ ___ _ _ ___ _ _ ___ _ _
 72
    65
 73
     6
 40
1.25
 49
0.625
 49
-0.125
 49
0.125
 49
-0.125
 49
0.125
 49
-0.125
  0
ENDTAB
  0
TABLE
  2
LAYER
 70
     2
  0
LAYER
  2
0
 70
     0
 62
   255
  6
CONTINUOUS
  0
LAYER
  2
DEFPOINTS
 70
     0
 62
     7
  6
CONTINUOUS
  0
ENDTAB
  0
TABLE
  2
STYLE
 70
     1
  0
STYLE
  2
STANDARD
 70
     0
 40
0.0
 41
0.8
 50
0.0
 71
     0
 42
0.2
  3
txt
  4

  0
ENDTAB
  0
TABLE
  2
VIEW
 70
     0
  0
ENDTAB
  0
TABLE
  2
UCS
 70
     0
  0
ENDTAB
  0
TABLE
  2
APPID
 70
     9
  0
APPID
  2
ACAD
 70
     0
  0
APPID
  2
ACAD_MLEADERVER
 70
     0
  0
APPID
  2
ACAD_EXEMPT_FROM_CAD_STANDARDS
 70
     0
  0
APPID
  2
ACAD_NAV_VCDISPLAY
 70
     0
  0
APPID
  2
ACAECLAYERSTANDARD
 70
     0
  0
APPID
  2
ACCMTRANSPARENCY
 70
     0
  0
APPID
  2
ACAD_DSTYLE_DIMJAG
 70
     0
  0
APPID
  2
ACAD_DSTYLE_DIMTALN
 70
     0
  0
APPID
  2
ACDBATTR
 70
     0
  0
ENDTAB
  0
TABLE
  2
DIMSTYLE
 70
     1
  0
DIMSTYLE
  2
STANDARD
 70
     0
  3

  4

  5

  6

  7

 40
1.0
 41
0.1875
 42
0.0625
 43
0.38
 44
0.125
 45
0.0
 46
0.0
 47
0.01
 48
0.01
140
0.15625
141
0.09
142
0.0
143
25.3999999999999986
144
1.0
145
0.0
146
1.0
147
0.09
 71
     1
 72
     0
 73
     1
 74
     1
 75
     0
 76
     0
 77
     0
 78
     4
170
     0
171
     2
172
     0
173
     0
174
     0
175
     0
176
     0
177
     0
178
     0
  0
ENDTAB
  0
ENDSEC
  0
SECTION
  2
BLOCKS
  0
BLOCK
  8
0
  2
$MODEL_SPACE
 70
     0
 10
0.0
 20
0.0
 30
0.0
  3
$MODEL_SPACE
  1

  0
ENDBLK
  5
21
  8
0
  0
BLOCK
 67
     1
  8
0
  2
$PAPER_SPACE
 70
     0
 10
0.0
 20
0.0
 30
0.0
  3
$PAPER_SPACE
  1

  0
ENDBLK
  5
1D
 67
     1
  8
0
  0
BLOCK
  8
0
  2
_FILLED
 70
     0
 10
0.0
 20
0.0
 30
0.0
  3
_FILLED
  1

  0
SOLID
  5
9E2C
  8
0
  6
BYBLOCK
 62
     0
 10
0.0
 20
0.0
 30
0.0
 11
-1.0
 21
0.1666666667
 31
0.0
 12
-1.0
 22
-0.1666666667
 32
0.0
 13
-1.0
 23
-0.1666666667
 33
0.0
  0
ENDBLK
  5
9E2D
  8
0
  6
BYBLOCK
 62
     0
  0
BLOCK
  8
0
  2
A$C6B0F1CD5
 70
     2
 10
0.0
 20
0.0
 30
0.0
  3
A$C6B0F1CD5
  1

  0
ATTDEF
  5
B779
  8
DEFPOINTS
 10
0.0005209962714616
 20
0.000347009907216
 30
0.0
 40
0.001
  1
BATH FAUCET
  3

  2
PRODUCT
 70
     0
1001
ACDBATTR
1070
     0
1070
     1
  0
ATTDEF
  5
B77A
  8
DEFPOINTS
 10
0.0005209962714616
 20
0.0020136765738812
 30
0.0
 40
0.001
  1
SINGULIER
  3

  2
TRADENAME
 70
     0
1001
ACDBATTR
1070
     0
1070
     1
  0
ATTDEF
  5
B77B
  8
DEFPOINTS
 10
0.0005209962714616
 20
0.0036803432405463
 30
0.0
 40
0.001
  1
K-10873W
  3

  2
MODELNUMBER
 70
     0
1001
ACDBATTR
1070
     0
1070
     1
  0
ENDBLK
  5
B77F
  8
0
  0
ENDSEC
  0
SECTION
  2
ENTITIES
  0
ATTDEF
  5
10352
  8
DEFPOINTS
 10
3536.9839513390088541
 20
143.9198928169369083
 30
0.0
 40
0.001
  1
K-45407T
  3

  2
MODELNUMBER
 70
     0
1001
ACDBATTR
1070
     0
1070
     1
  0
ATTDEF
  5
10353
  8
DEFPOINTS
 10
3536.9839513390088541
 20
143.9182261502701863
 30
0.0
 40
0.001
  1
LOURE
  3

  2
TRADENAME
 70
     0
1001
ACDBATTR
1070
     0
1070
     1
  0
ATTDEF
  5
10354
  8
DEFPOINTS
 10
3536.9839513390088541
 20
143.9165594836036064
 30
0.0
 40
0.001
  1
SLIDE BAR
  3

  2
PRODUCT
 70
     0
1001
ACDBATTR
1070
     0
1070
     1
  0
LINE
  5
13711
  8
0
 10
3534.4444143750652074
 20
159.7270721058872027
 30
0.0
 11
3535.1924458710659565
 21
159.7270721058872027
 31
0.0
  0
ARC
  5
13712
  8
0
 10
3534.4444143747950875
 20
159.7073870666579012
 30
0.0
 40
0.0196850392292944
 50
89.9999992120676069
 51
180.0000002057880977
  0
LINE
  5
13713
  8
0
 10
3534.4247293355651891
 20
159.707387066587188
 30
0.0
 11
3534.4247293355651891
 21
159.648331948487197
 31
0.0
  0
LINE
  5
13714
  8
0
 10
3534.4247293355651891
 20
159.648331948487197
 30
0.0
 11
3535.2121309103658859
 21
159.648331948487197
 31
0.0
  0
LINE
  5
13715
  8
0
 10
3535.2121309103658859
 20
159.648331948487197
 30
0.0
 11
3535.2121309103658859
 21
159.707387066587188
 31
0.0
  0
ARC
  5
13716
  8
0
 10
3535.1924458710659565
 20
159.707387066587188
 30
0.0
 40
0.019685039299997
 50
359.9999999999935199
 51
90.000000582149184
  0
ARC
  5
13717
  8
0
 10
3534.4345718552649487
 20
159.63848942878721
 30
0.0
 40
0.0098425197000012
 50
90.0000000000260485
 51
180.0
  0
LINE
  5
13718
  8
0
 10
3534.4247293355651891
 20
159.63848942878721
 30
0.0
 11
3534.4247293355651891
 21
145.1601429720873
 31
0.0
  0
ARC
  5
13719
  8
0
 10
3535.3810756466659768
 20
145.1404646869090982
 30
0.0
 40
0.0196782851781663
 50
358.9288267138690003
 51
90.0
  0
LINE
  5
1371A
  8
0
 10
3535.4007504929500101
 20
145.1400968129455862
 30
0.0
 11
3535.3684589706849692
 21
143.2897221082073997
 31
0.0
  0
ARC
  5
1371B
  8
0
 10
3535.3487769045809728
 20
143.2900642318498114
 30
0.0
 40
0.0196850393625043
 50
269.9999999553155021
 51
359.0041560295106251
  0
LINE
  5
1371C
  8
0
 10
3535.3487769045659661
 20
143.2703791924872121
 30
0.0
 11
3535.0634301229661105
 21
143.2703791924872974
 31
0.0
  0
ARC
  5
1371D
  8
0
 10
3534.2557845991659633
 20
145.1404579326872124
 30
0.0
 40
0.0196850393999961
 50
89.9999999999739515
 51
181.0000000002133902
  0
LINE
  5
1371E
  8
0
 10
3534.2361025579662055
 20
145.1401143813251053
 30
0.0
 11
3534.2684013001671701
 21
143.2897206805068038
 31
0.0
  0
ARC
  5
1371F
  8
0
 10
3534.2880833413669279
 20
143.2900642318140001
 30
0.0
 40
0.0196850393267414
 50
181.0000000002997069
 51
269.9999999961959816
  0
LINE
  5
13720
  8
0
 10
3534.2880833413660184
 20
143.2703791924872121
 30
0.0
 11
3534.573430122965874
 21
143.270379192468198
 31
0.0
  0
ARC
  5
13721
  8
0
 10
3534.3069961637947927
 20
145.1211666798560032
 30
0.0
 40
0.038978293134114
 50
89.419448054526228
 51
181.2417100518771065
  0
ARC
  5
13722
  8
0
 10
3535.3300215585290971
 20
145.1211666792515871
 30
0.0
 40
0.0389782970277271
 50
358.7582909388760868
 51
90.5810288965919028
  0
LINE
  5
13723
  8
0
 10
3534.2680270238188314
 20
145.1203220111723056
 30
0.0
 11
3534.2867877825187861
 21
144.0455188615721909
 31
0.0
  0
ARC
  5
13724
  8
0
 10
3534.326151864962867
 20
144.0462059641847929
 30
0.0
 40
0.0393700786975749
 50
180.9999999967330098
 51
270.0000000034652885
  0
LINE
  5
13725
  8
0
 10
3534.3261518649660502
 20
144.0068358854873054
 30
0.0
 11
3535.3108658612659383
 21
144.0068358855469057
 31
0.0
  0
ARC
  5
13726
  8
0
 10
3535.3108658612632098
 20
144.0462059642503903
 30
0.0
 40
0.0393700787034854
 50
270.0000000034652885
 51
358.9999999080291104
  0
LINE
  5
13727
  8
0
 10
3535.3502299437118381
 20
144.0455188615721909
 30
0.0
 11
3535.36899070419895
 21
145.1203220111569863
 31
0.0
  0
ARC
  5
13728
  8
0
 10
3534.4160556175929742
 20
145.1211899912557897
 30
0.0
 40
0.0389547993063778
 50
0.7473526717014133
 51
90.5536209273381871
  0
LINE
  5
13729
  8
0
 10
3534.4550071030657818
 20
145.1216980940872077
 30
0.0
 11
3534.4737715446658513
 21
144.0462059641872088
 31
0.0
  0
ARC
  5
1372A
  8
0
 10
3534.4344101569417944
 20
144.0461963399110061
 30
0.0
 40
0.0393613889000104
 50
270.3948107169280206
 51
0.0140094246602878
  0
ARC
  5
1372B
  8
0
 10
3535.2209633700508675
 20
145.1211889185522068
 30
0.0
 40
0.0389561993465211
 50
89.398622575210581
 51
179.2511369462017115
  0
LINE
  5
1372C
  8
0
 10
3535.1820104980652104
 20
145.1216980664871983
 30
0.0
 11
3535.1632400604380564
 21
144.046205968337091
 31
0.0
  0
ARC
  5
1372D
  8
0
 10
3535.2026142122308556
 20
144.0462076304592074
 30
0.0
 40
0.0393741518278493
 50
180.0024186572892972
 51
269.3664815273198769
  0
LINE
  5
1372E
  8
0
 10
3534.3366045391649095
 20
144.0068358854879023
 30
0.0
 11
3534.3379590848771841
 21
143.9292335520048027
 31
0.0
  0
LINE
  5
1372F
  8
0
 10
3534.3379590848771841
 20
143.9292335520048027
 30
0.0
 11
3534.573430122965874
 21
143.9292336378873074
 31
0.0
  0
LINE
  5
13730
  8
0
 10
3534.3993501779359576
 20
144.0068358854873054
 30
0.0
 11
3534.3379590848771841
 21
143.9292335520048027
 31
0.0
  0
LINE
  5
13731
  8
0
 10
3535.3002557067648013
 20
144.0068358854879023
 30
0.0
 11
3535.298901161053891
 21
143.9292335520048027
 31
0.0
  0
LINE
  5
13732
  8
0
 10
3535.298901161053891
 20
143.9292335520048027
 30
0.0
 11
3535.0634301229661105
 21
143.9292336378873074
 31
0.0
  0
LINE
  5
13733
  8
0
 10
3535.2375100679951174
 20
144.0068358854873054
 30
0.0
 11
3535.298901161053891
 21
143.9292335520048027
 31
0.0
  0
LINE
  5
13734
  8
0
 10
3534.573430122965874
 20
144.0068358854873054
 30
0.0
 11
3534.573430122965874
 21
143.2186021211871889
 31
0.0
  0
ARC
  5
13735
  8
0
 10
3534.6377006387119764
 20
143.2189934705880034
 30
0.0
 40
0.0642717039135721
 50
180.3559475417658007
 51
222.6189954235481139
  0
ARC
  5
13736
  8
0
 10
3534.6430566758558598
 20
143.2244742599239089
 30
0.0
 40
0.071925365653653
 50
222.9428018474328894
 51
270.1109059317439005
  0
ARC
  5
13737
  8
0
 10
3534.6430464480608862
 20
143.2317718294773101
 30
0.0
 40
0.0792229414291605
 50
270.1080868639568848
 51
281.5197853747262116
  0
ARC
  5
13738
  8
0
 10
3534.8184303380157871
 20
142.4028017295609914
 30
0.0
 40
0.7680993288068486
 50
78.0102702476618077
 51
101.9897613155423954
  0
ARC
  5
13739
  8
0
 10
3534.9933359517867757
 20
143.227080780084691
 30
0.0
 40
0.0745323444207081
 50
258.1199715929797094
 51
270.2286240202782892
  0
ARC
  5
1373A
  8
0
 10
3534.9935655660560769
 20
143.2268809863672061
 30
0.0
 40
0.074331988260052
 50
270.0522508695835882
 51
280.7610122701588011
  0
ARC
  5
1373B
  8
0
 10
3534.9950945896589474
 20
143.2221605397222106
 30
0.0
 40
0.0694118404098495
 50
280.2485953971008144
 51
321.7782734832023834
  0
ARC
  5
1373C
  8
0
 10
3534.9990335038100966
 20
143.2190585006472929
 30
0.0
 40
0.0643980902056276
 50
321.7782734832023834
 51
359.6025038628558832
  0
LINE
  5
1373D
  8
0
 10
3535.0634300442661697
 20
143.2186117349872063
 30
0.0
 11
3535.0634301229888479
 21
144.0068358855318991
 31
0.0
  0
LINE
  5
1373E
  8
0
 10
3534.4247293355651891
 20
143.2703791924780887
 30
0.0
 11
3534.4247293355651891
 21
128.1621114759873024
 31
0.0
  0
ARC
  5
1373F
  8
0
 10
3534.4345718552649487
 20
128.1621114759873024
 30
0.0
 40
0.0098425196999976
 50
180.0000000000098055
 51
270.0000000000259774
  0
LINE
  5
13740
  8
0
 10
3534.4247293355651891
 20
128.1522689562872017
 30
0.0
 11
3534.4247293355651891
 21
128.093213838187296
 31
0.0
  0
ARC
  5
13741
  8
0
 10
3534.4444143749660725
 20
128.093213838187296
 30
0.0
 40
0.0196850394000023
 50
179.9999999999951115
 51
270.0
  0
LINE
  5
13742
  8
0
 10
3534.4444143749660725
 20
128.0735287987872084
 30
0.0
 11
3535.1924458708649581
 21
128.0735287987872084
 31
0.0
  0
ARC
  5
13743
  8
0
 10
3535.1924458708649581
 20
128.0932138382871983
 30
0.0
 40
0.0196850394999988
 50
270.0
 51
359.9999997089433919
  0
LINE
  5
13744
  8
0
 10
3535.2121309103658859
 20
128.093213838187296
 30
0.0
 11
3535.2121309106651097
 21
128.1522689562872017
 31
0.0
  0
LINE
  5
13745
  8
0
 10
3535.2121309106651097
 20
128.1522689562872017
 30
0.0
 11
3534.4247293355651891
 21
128.1522689562872017
 31
0.0
  0
ARC
  5
13746
  8
0
 10
3535.2022883906661264
 20
159.63848942878721
 30
0.0
 40
0.0098425197000083
 50
0.0000000000407111
 51
89.9999999999739515
  0
LINE
  5
13747
  8
0
 10
3535.2121309103658859
 20
159.63848942878721
 30
0.0
 11
3535.2121309103758904
 21
145.1601429720873
 31
0.0
  0
ARC
  5
13748
  8
0
 10
3535.2738091324217748
 20
159.5633589790934934
 30
0.0
 40
0.061992346463775
 50
132.6402586228292932
 51
174.2296389066922018
  0
LINE
  5
13749
  8
0
 10
3535.2318159497658598
 20
159.6089618696871923
 30
0.0
 11
3536.9837844536659759
 21
159.6089618696871923
 31
0.0
  0
LINE
  5
1374A
  8
0
 10
3536.9837844536659759
 20
159.6089618696871923
 30
0.0
 11
3536.9837844536659759
 21
157.8766784050872047
 31
0.0
  0
LINE
  5
1374B
  8
0
 10
3536.9837844536659759
 20
157.8766784050872047
 30
0.0
 11
3535.2318159497658598
 21
157.8766784050872047
 31
0.0
  0
ARC
  5
1374C
  8
0
 10
3535.2318159497658598
 20
157.8963868144375056
 30
0.0
 40
0.0197084093502618
 50
182.7905105789025981
 51
270.0
  0
LINE
  5
1374D
  8
0
 10
3535.2121309103658859
 20
143.2703791924872974
 30
0.0
 11
3535.2121309103658859
 21
128.1621114759873024
 31
0.0
  0
ARC
  5
1374E
  8
0
 10
3535.2022883906661264
 20
128.1621114759873024
 30
0.0
 40
0.0098425196999976
 50
269.9999999999739089
 51
359.9999999999902229
  0
ARC
  5
1374F
  8
0
 10
3535.2515077117168403
 20
129.8852130010876067
 30
0.0
 40
0.0393891998643725
 50
91.0219152882793452
 51
178.5623762248062008
  0
LINE
  5
13750
  8
0
 10
3535.2508052116068029
 20
129.9245959359649873
 30
0.0
 11
3536.9837727851117961
 21
129.9555080534848912
 31
0.0
  0
LINE
  5
13751
  8
0
 10
3536.9837727851117961
 20
129.9555080534848912
 30
0.0
 11
3536.9837727851117961
 21
128.1916390350872064
 31
0.0
  0
LINE
  5
13752
  8
0
 10
3536.9837727851117961
 20
128.1916390350872064
 30
0.0
 11
3535.2515009598660072
 21
128.1916390350872064
 31
0.0
  0
ARC
  5
13753
  8
0
 10
3535.2515009598660072
 20
128.2310244412437044
 30
0.0
 40
0.0393854061564127
 50
181.6000457920335975
 51
270.0
  0
LINE
  5
13754
  8
0
 10
3535.3696112252659987
 20
128.106954027687209
 30
0.0
 11
3535.3696107631449195
 21
128.0709700115903047
 31
0.0
  0
LINE
  5
13755
  8
0
 10
3535.3696107631449195
 20
128.0709700115903047
 30
0.0
 11
3535.3998316529341537
 21
128.0532488080945939
 31
0.0
  0
LINE
  5
13756
  8
0
 10
3535.4009006702658553
 20
128.0538768132873031
 30
0.0
 11
3535.3696107363662122
 21
128.0354952207871975
 31
0.0
  0
LINE
  5
13757
  8
0
 10
3535.3696107363662122
 20
128.0354952207871975
 30
0.0
 11
3535.3696107363662122
 21
127.9995600236871951
 31
0.0
  0
LINE
  5
13758
  8
0
 10
3535.3696107363662122
 20
127.9995600236871951
 30
0.0
 11
3535.399780177266166
 21
127.9818268911871968
 31
0.0
  0
LINE
  5
13759
  8
0
 10
3535.400839793565865
 20
127.9824395732871949
 30
0.0
 11
3535.3696107363662122
 21
127.9641123737872022
 31
0.0
  0
LINE
  5
1375A
  8
0
 10
3535.3696107363662122
 20
127.9641123737872022
 30
0.0
 11
3535.3696107363662122
 21
127.9281623022872054
 31
0.0
  0
LINE
  5
1375B
  8
0
 10
3535.3696107363662122
 20
127.9281623022872054
 30
0.0
 11
3535.3998055906658919
 21
127.9104293864871948
 31
0.0
  0
LINE
  5
1375C
  8
0
 10
3535.4008570577661885
 20
127.9110555541872003
 30
0.0
 11
3535.3696112252659987
 21
127.892702057087206
 31
0.0
  0
LINE
  5
1375D
  8
0
 10
3535.3696112252659987
 20
127.892702057087206
 30
0.0
 11
3535.3696107363662122
 21
127.8569933843871951
 31
0.0
  0
LINE
  5
1375E
  8
0
 10
3535.3696107363662122
 20
127.8569933843871951
 30
0.0
 11
3535.4286658703658759
 21
127.7979382476872985
 31
0.0
  0
ARC
  5
1375F
  8
0
 10
4202.9400137087832263
 20
-1025.1998469784950885
 30
0.0
 40
1332.1842525222800759
 50
120.0356072644881067
 51
120.0358672574495955
  0
ARC
  5
13760
  8
0
 10
3536.1204409879392188
 20
128.0999556052505
 30
0.0
 40
0.0127749639443354
 50
280.9084864201250866
 51
294.7849245234471027
  0
ARC
  5
13761
  8
0
 10
3535.8705835274331548
 20
130.8613463676223887
 30
0.0
 40
2.7853828213335938
 50
271.3114377584900012
 51
275.1964591775038116
  0
ARC
  5
13762
  8
0
 10
3536.1995725279161888
 20
111.7027209352720973
 30
0.0
 40
16.3740753301932713
 50
91.6804103501410879
 51
92.4879412783342474
  0
ARC
  5
13763
  8
0
 10
3535.5460218219900526
 20
126.6280960900773067
 30
0.0
 40
1.4344079178626059
 50
92.2867348854516223
 51
95.227925331644883
  0
ARC
  5
13764
  8
0
 10
3535.4316139631641818
 20
127.9064211844935954
 30
0.0
 40
0.1509973823223606
 50
96.1942113353589434
 51
100.699520114504196
  0
ARC
  5
13765
  8
0
 10
3535.4054263435909888
 20
128.0450216078814094
 30
0.0
 40
0.009944665999198
 50
100.699520114504196
 51
117.0704357624420027
  0
ARC
  5
13766
  8
0
 10
3535.7635656191609996
 20
123.4077785333358008
 30
0.0
 40
4.6444549937526611
 50
90.5904776848206978
 51
94.8658254241248358
  0
ARC
  5
13767
  8
0
 10
3535.6341266323270247
 20
135.9671779469614137
 30
0.0
 40
7.9156114106216018
 50
270.5904776848207121
 51
273.1296459009342925
  0
ARC
  5
13768
  8
0
 10
3535.9883955703799074
 20
129.4878751040189968
 30
0.0
 40
1.4266306115261249
 50
273.1296459009342925
 51
276.7877860347563228
  0
LINE
  5
13769
  8
0
 10
3536.1268487989659661
 20
128.0889658459873033
 30
0.0
 11
3536.1570123111659996
 21
128.0712441370872057
 31
0.0
  0
LINE
  5
1376A
  8
0
 10
3536.1570123111659996
 20
128.0712441370872057
 30
0.0
 11
3536.157011815765145
 21
128.0352611790872004
 31
0.0
  0
LINE
  5
1376B
  8
0
 10
3536.157011815765145
 20
128.0352611790872004
 30
0.0
 11
3536.1268119090659638
 21
128.0175350714872025
 31
0.0
  0
LINE
  5
1376C
  8
0
 10
3536.1268119090659638
 20
128.0175350714872025
 30
0.0
 11
3536.1570123114652233
 21
127.999828029687194
 31
0.0
  0
LINE
  5
1376D
  8
0
 10
3536.1570123114652233
 20
127.999828029687194
 30
0.0
 11
3536.1570123111659996
 21
127.9638473928872031
 31
0.0
  0
LINE
  5
1376E
  8
0
 10
3536.1570123111659996
 20
127.9638473928872031
 30
0.0
 11
3536.1268465484658918
 21
127.9461340976872066
 31
0.0
  0
LINE
  5
1376F
  8
0
 10
3536.1268465484658918
 20
127.9461340976872066
 30
0.0
 11
3536.1570123111659996
 21
127.9284068876872027
 31
0.0
  0
LINE
  5
13770
  8
0
 10
3536.1570123111659996
 20
127.9284068876872027
 30
0.0
 11
3536.1570123111659996
 21
127.8569933843871951
 31
0.0
  0
LINE
  5
13771
  8
0
 10
3536.1570123111659996
 20
127.8569933843871951
 30
0.0
 11
3536.0979571771658811
 21
127.7979382476872985
 31
0.0
  0
LINE
  5
13772
  8
0
 10
3536.0979571771658811
 20
127.7979382476872985
 30
0.0
 11
3535.4286658703658759
 21
127.7979382476872985
 31
0.0
  0
LINE
  5
13773
  8
0
 10
3535.3696107363662122
 20
127.8569933843871951
 30
0.0
 11
3536.1570123111659996
 21
127.8569933843871951
 31
0.0
  0
ARC
  5
13774
  8
0
 10
3535.4333399613778965
 20
127.5836410779373011
 30
0.0
 40
0.3155630533501066
 50
90.1981329570764956
 51
101.6511570732161971
  0
ARC
  5
13775
  8
0
 10
3535.8700301633912204
 20
118.7690717254876063
 30
0.0
 40
9.1406201038611439
 50
91.6704504422611706
 51
92.7451778859453952
  0
ARC
  5
13776
  8
0
 10
3527.6927650688871836
 20
397.4508361062023027
 30
0.0
 40
269.6610899833621033
 50
271.6810768873800725
 51
271.7569520177764844
  0
ARC
  5
13777
  8
0
 10
3535.9786223037249329
 20
129.2472202163708914
 30
0.0
 40
1.3308236512280891
 50
269.2205335340482861
 51
277.7033896895134149
  0
ARC
  5
13778
  8
0
 10
3535.4037553387620392
 20
127.9060257808444021
 30
0.0
 40
0.0057893700264621
 50
101.6456058423092941
 51
119.8608854866290017
  0
ARC
  5
13779
  8
0
 10
3535.4405585857139158
 20
127.7138334143785983
 30
0.0
 40
0.2014732156035139
 50
93.5871320386567334
 51
100.8635717798005942
  0
ARC
  5
1377A
  8
0
 10
3535.8255877400561076
 20
121.3923958016228966
 30
0.0
 40
6.5346254362744878
 50
91.5553773689710937
 51
93.4886265679402442
  0
ARC
  5
1377B
  8
0
 10
3535.1659905801088826
 20
146.5697390020729927
 30
0.0
 40
18.6513603789429183
 50
271.4815354933061826
 51
272.870447387776494
  0
ARC
  5
1377C
  8
0
 10
3536.0959558081772229
 20
128.0516520786291892
 30
0.0
 40
0.1099467240879519
 50
272.1130769202841861
 51
286.3175678732731058
  0
ARC
  5
1377D
  8
0
 10
3535.4166733295041922
 20
127.7230487160654064
 30
0.0
 40
0.2104427313025825
 50
91.4001197806790628
 51
102.9224160271508026
  0
ARC
  5
1377E
  8
0
 10
3536.0134472492618443
 20
115.6776226446209961
 30
0.0
 40
12.2705779338921896
 50
91.4184091451682548
 51
92.8116922174315278
  0
ARC
  5
1377F
  8
0
 10
3535.274405466825101
 20
146.2072744979064964
 30
0.0
 40
18.2680208684322913
 50
271.3654141209141812
 51
272.6469890233067872
  0
ARC
  5
13780
  8
0
 10
3536.1229707822999444
 20
128.0725684929753925
 30
0.0
 40
0.1139291824387827
 50
267.5313911972173173
 51
287.3852733923989149
  0
ARC
  5
13781
  8
0
 10
3535.4280115055921669
 20
127.682602079872197
 30
0.0
 40
0.2875042528840065
 50
91.2350494146540285
 51
101.7200590590103957
  0
ARC
  5
13782
  8
0
 10
3535.9757067409659612
 20
116.4120211891902983
 30
0.0
 40
11.5712827591234095
 50
91.4936546629549952
 51
92.7436726385505352
  0
ARC
  5
13783
  8
0
 10
3535.1573450678010886
 20
149.3753438271342873
 30
0.0
 40
21.4022106940081791
 50
271.3835021471849132
 51
272.5700003727832268
  0
ARC
  5
13784
  8
0
 10
3536.1165878652291212
 20
128.1553205288005017
 30
0.0
 40
0.1606612994284428
 50
270.1536353017339138
 51
284.5729724410541053
  0
ARC
  5
13785
  8
0
 10
3535.4554908622808398
 20
127.7022835026705962
 30
0.0
 40
0.2854367937304301
 50
92.1955653804728001
 51
101.0382744856996027
  0
ARC
  5
13786
  8
0
 10
3536.1054854116368915
 20
114.8404676160941023
 30
0.0
 40
13.1636458246084693
 50
91.5194449318536556
 51
92.8779576179752553
  0
ARC
  5
13787
  8
0
 10
3535.3568640390421933
 20
142.8773734663585913
 30
0.0
 40
14.8832532031864595
 50
271.538407312464301
 51
272.7690143606848778
  0
ARC
  5
13788
  8
0
 10
3536.0642504361421743
 20
128.3274890819820939
 30
0.0
 40
0.3162047668290252
 50
272.1055845036648861
 51
281.4113380909402053
  0
ARC
  5
13789
  8
0
 10
3535.4071534056911332
 20
127.8584093023059012
 30
0.0
 40
0.1460581328327267
 50
90.5553319089009818
 51
104.8944525027179964
  0
ARC
  5
1378A
  8
0
 10
3535.9995429338291615
 20
116.246070079074002
 30
0.0
 40
11.7733746908066692
 50
91.3834360052354668
 51
92.8910122383645955
  0
ARC
  5
1378B
  8
0
 10
3534.9790756756851806
 20
156.1481425232607876
 30
0.0
 40
28.1417613962386994
 50
271.4990942354583012
 51
272.214749854925401
  0
ARC
  5
1378C
  8
0
 10
3536.0664829654460846
 20
128.5527919440633013
 30
0.0
 40
0.5253889658499328
 50
270.0144530796792992
 51
279.9220524626891233
  0
ARC
  5
1378D
  8
0
 10
3533.8753961860161326
 20
188.5192774617412113
 30
0.0
 40
60.4776422864134133
 50
271.7472680462843186
 51
271.9509879503477237
  0
LINE
  5
1378E
  8
0
 10
3535.3696112252659987
 20
128.106954027687209
 30
0.0
 11
3535.3998018188649439
 21
128.1246593378872092
 31
0.0
  0
LINE
  5
1378F
  8
0
 10
3535.3998018188649439
 20
128.1246593378872092
 30
0.0
 11
3535.3696112252659987
 21
128.1423870931872102
 31
0.0
  0
LINE
  5
13790
  8
0
 10
3535.3696112252659987
 20
128.1423870931872102
 30
0.0
 11
3535.3696112252659987
 21
128.1783713512872112
 31
0.0
  0
LINE
  5
13791
  8
0
 10
3535.3696112252659987
 20
128.1783713512872112
 30
0.0
 11
3535.3921051236661697
 21
128.1916390350872064
 31
0.0
  0
ARC
  5
13792
  8
0
 10
3535.436716841721136
 20
127.8397496471393993
 30
0.0
 40
0.3452069267553614
 50
90.519362002750313
 51
101.2092337633501984
  0
ARC
  5
13793
  8
0
 10
3535.9017251341301744
 20
118.288866679403796
 30
0.0
 40
9.9071422284125994
 50
91.7018206542598762
 51
92.708378298748741
  0
ARC
  5
13794
  8
0
 10
3535.4936250070031747
 20
127.2736888848933035
 30
0.0
 40
0.877505552776676
 50
90.9476954009819281
 51
98.1245459497430517
  0
ARC
  5
13795
  8
0
 10
3536.8125754351940486
 20
91.6090321454540373
 30
0.0
 40
36.5663640365179319
 50
91.5297043644174551
 51
92.0898661606542674
  0
ARC
  5
13796
  8
0
 10
3535.4522945227499804
 20
142.5915157695486073
 30
0.0
 40
14.4342634521701907
 50
271.524973712127121
 51
272.5210587613640882
  0
ARC
  5
13797
  8
0
 10
3536.0786120696561738
 20
128.6164552325058992
 30
0.0
 40
0.4453152885704594
 50
271.1061014018317223
 51
280.1401561005612848
  0
LINE
  5
13798
  8
0
 10
3536.157012800065786
 20
128.1916390350872064
 30
0.0
 11
3536.157012800065786
 21
128.1780957547873072
 31
0.0
  0
LINE
  5
13799
  8
0
 10
3536.157012800065786
 20
128.1780957547873072
 30
0.0
 11
3536.126799301065148
 21
128.1603767435873067
 31
0.0
  0
LINE
  5
1379A
  8
0
 10
3536.126799301065148
 20
128.1603767435873067
 30
0.0
 11
3536.157012800065786
 21
128.1426626894871106
 31
0.0
  0
LINE
  5
1379B
  8
0
 10
3536.157012800065786
 20
128.1426626894871106
 30
0.0
 11
3536.157012800065786
 21
128.1066784320871932
 31
0.0
  0
LINE
  5
1379C
  8
0
 10
3536.157012800065786
 20
128.1066784320871932
 30
0.0
 11
3536.1310297424670352
 21
128.0913831841878903
 31
0.0
  0
ARC
  5
1379D
  8
0
 10
3535.4185296626937998
 20
128.0929204678282929
 30
0.0
 40
0.0368522456180388
 50
117.2849902433453053
 51
120.5431631015912046
  0
ARC
  5
1379E
  8
0
 10
3535.4121905582478576
 20
128.091440146724409
 30
0.0
 40
0.0358224618358793
 50
97.8782795667047054
 51
107.135703729611393
  0
ARC
  5
1379F
  8
0
 10
3535.7416784698989431
 20
123.789966115760194
 30
0.0
 40
4.3498310397425133
 50
91.3372974085781095
 51
94.4090264257182383
  0
ARC
  5
137A0
  8
0
 10
3533.8334425192788331
 20
187.7862915637041112
 30
0.0
 40
59.6750355247976785
 50
271.734949914171807
 51
272.0774697413722265
  0
ARC
  5
137A1
  8
0
 10
3535.9096058711352271
 20
130.6847571946184985
 30
0.0
 40
2.5357746480838932
 50
271.9684328877394819
 51
274.4807013777684119
  0
ARC
  5
137A2
  8
0
 10
3536.104923431122188
 20
128.223151149059106
 30
0.0
 40
0.0664769107898413
 50
272.401528971214816
 51
289.2126236062775888
  0
ARC
  5
137A3
  8
0
 10
3536.0748568817748492
 20
128.6064114039039907
 30
0.0
 40
0.4709697071295027
 50
270.7519020248503239
 51
280.0460666011694002
  0
ARC
  5
137A4
  8
0
 10
3535.1589155033980205
 20
150.7183209113476039
 30
0.0
 40
22.6016572536005285
 50
271.4730370421769976
 51
272.3382513914685887
  0
ARC
  5
137A5
  8
0
 10
3536.2790905373799433
 20
107.7519009754978043
 30
0.0
 40
20.3793652263141283
 50
91.5160185544145861
 51
92.3102878307734755
  0
ARC
  5
137A6
  8
0
 10
3535.4655174901599821
 20
127.5212715722728944
 30
0.0
 40
0.5934828980066089
 50
90.7669199763871148
 51
99.2997222501303298
  0
ARC
  5
137A7
  8
0
 10
3535.3888345012301215
 20
128.0183217813437864
 30
0.0
 40
0.0560480887634469
 50
92.2089756843786574
 51
110.0589329189181029
  0
ARC
  5
137A8
  8
0
 10
3535.6623344085619465
 20
124.1276541449460069
 30
0.0
 40
3.9562892749310712
 50
91.5535379946908137
 51
93.9954045566876601
  0
ARC
  5
137A9
  8
0
 10
3538.073512736678822
 20
49.2192689513184121
 30
0.0
 40
78.9034222011376158
 50
91.6108591767939515
 51
91.8290758764891848
  0
ARC
  5
137AA
  8
0
 10
3535.4404707954340665
 20
143.093045464015006
 30
0.0
 40
15.0072751471130204
 50
271.5845423956598097
 51
272.4089650735556916
  0
ARC
  5
137AB
  8
0
 10
3536.0603224448368564
 20
128.7064308514860898
 30
0.0
 40
0.6074964932976998
 50
271.0312847259302202
 51
279.1582589070507083
  0
LINE
  5
137AC
  8
0
 10
3534.2557845991659633
 20
145.1601429720873
 30
0.0
 11
3535.3810756466659768
 21
145.1601429720873
 31
0.0
  0
CIRCLE
  5
137AE
  8
0
 10
3534.8185088630648352
 20
144.4910878538873078
 30
0.0
 40
0.1771653543000013
  0
CIRCLE
  5
137AF
  8
0
 10
3534.8185088631648796
 20
144.4910878539872101
 30
0.0
 40
0.1600000000999984
  0
ARC
  5
137B0
  8
0
 10
3534.6368364927698167
 20
143.2357336066432936
 30
0.0
 40
0.063471315055856
 50
182.5921469745345007
 51
247.3480736912663929
  0
ARC
  5
137B1
  8
0
 10
3534.6442108210490005
 20
143.253404136787907
 30
0.0
 40
0.0826188567561436
 50
247.3480736912657107
 51
280.4696194229559865
  0
ARC
  5
137B2
  8
0
 10
3534.8184358327562222
 20
142.4229179066080917
 30
0.0
 40
0.7659721445261622
 50
78.0041300091127994
 51
101.9967448686886939
  0
ARC
  5
137B3
  8
0
 10
3534.992275553267973
 20
143.2513902343710015
 30
0.0
 40
0.0805681585390928
 50
259.5312554548523281
 51
302.5662813207795239
  0
ARC
  5
137B4
  8
0
 10
3535.0032403973450528
 20
143.2342227349091104
 30
0.0
 40
0.0601978162883186
 50
302.5662813207795239
 51
359.0561399720435247
  0
ENDSEC
  0
EOF
