  0
SECTION
  2
HEADER
  9
$ACADVER
  1
AC1009
  9
$INSBASE
 10
3775.4411979009701099
 20
156.6641579886178022
 30
0.0
  9
$EXTMIN
 10
3773.424493596145112
 20
152.0082721386719129
 30
0.0
  9
$EXTMAX
 10
3777.4579022057951079
 20
157.9240005083678113
 30
0.0
  9
$LIMMIN
 10
0.0
 20
0.0
  9
$LIMMAX
 10
11.6929133858000007
 20
8.2677165353999982
  9
$ORTHOMODE
 70
     0
  9
$REGENMODE
 70
     1
  9
$FILLMODE
 70
     1
  9
$QTEXTMODE
 70
     0
  9
$MIRRTEXT
 70
     0
  9
$DRAGMODE
 70
     2
  9
$LTSCALE
 40
0.6431102362
  9
$OSMODE
 70
  4095
  9
$ATTMODE
 70
     1
  9
$TEXTSIZE
 40
0.2
  9
$TRACEWID
 40
0.05
  9
$TEXTSTYLE
  7
STANDARD
  9
$CLAYER
  8
0
  9
$CELTYPE
  6
BYLAYER
  9
$CECOLOR
 62
   256
  9
$DIMSCALE
 40
1.0
  9
$DIMASZ
 40
0.1875
  9
$DIMEXO
 40
0.0625
  9
$DIMDLI
 40
0.4443307087
  9
$DIMRND
 40
0.0
  9
$DIMDLE
 40
0.0
  9
$DIMEXE
 40
0.125
  9
$DIMTP
 40
0.01
  9
$DIMTM
 40
0.01
  9
$DIMTXT
 40
2.0
  9
$DIMCEN
 40
0.1052362205
  9
$DIMTSZ
 40
0.0
  9
$DIMTOL
 70
     1
  9
$DIMLIM
 70
     0
  9
$DIMTIH
 70
     1
  9
$DIMTOH
 70
     1
  9
$DIMSE1
 70
     0
  9
$DIMSE2
 70
     0
  9
$DIMTAD
 70
     0
  9
$DIMZIN
 70
     0
  9
$DIMBLK
  1

  9
$DIMASO
 70
     1
  9
$DIMSHO
 70
     1
  9
$DIMPOST
  1
\X
  9
$DIMAPOST
  1

  9
$DIMALT
 70
     1
  9
$DIMALTD
 70
     2
  9
$DIMALTF
 40
25.3999999999999986
  9
$DIMLFAC
 40
1.0
  9
$DIMTOFL
 70
     0
  9
$DIMTVP
 40
0.0
  9
$DIMTIX
 70
     0
  9
$DIMSOXD
 70
     0
  9
$DIMSAH
 70
     0
  9
$DIMBLK1
  1

  9
$DIMBLK2
  1

  9
$DIMSTYLE
  2
STANDARD
  9
$DIMCLRD
 70
     0
  9
$DIMCLRE
 70
     0
  9
$DIMCLRT
 70
     0
  9
$DIMTFAC
 40
1.0
  9
$DIMGAP
 40
0.09
  9
$LUNITS
 70
     2
  9
$LUPREC
 70
     4
  9
$SKETCHINC
 40
0.1
  9
$FILLETRAD
 40
0.0
  9
$AUNITS
 70
     0
  9
$AUPREC
 70
     0
  9
$MENU
  1
.
  9
$ELEVATION
 40
0.0
  9
$PELEVATION
 40
0.0
  9
$THICKNESS
 40
0.0
  9
$LIMCHECK
 70
     0
  9
$BLIPMODE
 70
     0
  9
$CHAMFERA
 40
0.0
  9
$CHAMFERB
 40
0.0
  9
$SKPOLY
 70
     0
  9
$TDCREATE
 40
2458060.468368056230247
  9
$TDUPDATE
 40
2459195.6161921299062669
  9
$TDINDWG
 40
0.7354700231
  9
$TDUSRTIMER
 40
0.7354700231
  9
$USRTIMER
 70
     1
  9
$ANGBASE
 50
0.0
  9
$ANGDIR
 70
     0
  9
$PDMODE
 70
     0
  9
$PDSIZE
 40
0.3125
  9
$PLINEWID
 40
0.0
  9
$COORDS
 70
     1
  9
$SPLFRAME
 70
     0
  9
$SPLINETYPE
 70
     6
  9
$SPLINESEGS
 70
     8
  9
$ATTDIA
 70
     1
  9
$ATTREQ
 70
     1
  9
$HANDLING
 70
     1
  9
$HANDSEED
  5
12979
  9
$SURFTAB1
 70
     6
  9
$SURFTAB2
 70
     6
  9
$SURFTYPE
 70
     6
  9
$SURFU
 70
     6
  9
$SURFV
 70
     6
  9
$UCSNAME
  2

  9
$UCSORG
 10
0.0
 20
0.0
 30
0.0
  9
$UCSXDIR
 10
1.0
 20
0.0
 30
0.0
  9
$UCSYDIR
 10
0.0
 20
1.0
 30
0.0
  9
$PUCSNAME
  2

  9
$PUCSORG
 10
0.0
 20
0.0
 30
0.0
  9
$PUCSXDIR
 10
1.0
 20
0.0
 30
0.0
  9
$PUCSYDIR
 10
0.0
 20
1.0
 30
0.0
  9
$USERI1
 70
     0
  9
$USERI2
 70
     0
  9
$USERI3
 70
     0
  9
$USERI4
 70
     0
  9
$USERI5
 70
     0
  9
$USERR1
 40
0.0
  9
$USERR2
 40
0.0
  9
$USERR3
 40
0.0
  9
$USERR4
 40
0.0
  9
$USERR5
 40
0.0
  9
$WORLDVIEW
 70
     1
  9
$SHADEDGE
 70
     3
  9
$SHADEDIF
 70
    70
  9
$TILEMODE
 70
     1
  9
$MAXACTVP
 70
    64
  9
$PLIMCHECK
 70
     0
  9
$PEXTMIN
 10
1.0000000000000000E+20
 20
1.0000000000000000E+20
 30
1.0000000000000000E+20
  9
$PEXTMAX
 10
-1.0000000000000000E+20
 20
-1.0000000000000000E+20
 30
-1.0000000000000000E+20
  9
$PLIMMIN
 10
0.0
 20
0.0
  9
$PLIMMAX
 10
12.0
 20
9.0
  9
$UNITMODE
 70
     0
  9
$VISRETAIN
 70
     1
  9
$PLINEGEN
 70
     0
  9
$PSLTSCALE
 70
     1
  0
ENDSEC
  0
SECTION
  2
TABLES
  0
TABLE
  2
VPORT
 70
     1
  0
VPORT
  2
*ACTIVE
 70
     0
 10
0.0
 20
0.0
 11
1.0
 21
1.0
 12
104.1673941900320983
 22
0.2426626450121461
 13
0.0
 23
0.0
 14
1.0
 24
1.0
 15
0.0
 25
0.0
 16
0.0
 26
0.0
 36
137.7247118064013875
 17
3671.2738037109379547
 27
154.7234736785077018
 37
0.0
 40
5.9910879667620591
 41
2.8872340425531902
 42
50.0
 43
0.0
 44
0.0
 50
0.0
 51
0.0
 71
     0
 72
   100
 73
     1
 74
     1
 75
     0
 76
     0
 77
     0
 78
     0
  0
ENDTAB
  0
TABLE
  2
LTYPE
 70
     2
  0
LTYPE
  2
CONTINUOUS
 70
     0
  3
Solid line
 72
    65
 73
     0
 40
0.0
  0
LTYPE
  2
PHANTOM2
 70
     0
  3
___ _ _ ___ _ _ ___ _ _ ___ _ _
 72
    65
 73
     6
 40
1.25
 49
0.625
 49
-0.125
 49
0.125
 49
-0.125
 49
0.125
 49
-0.125
  0
ENDTAB
  0
TABLE
  2
LAYER
 70
     2
  0
LAYER
  2
0
 70
     0
 62
   255
  6
CONTINUOUS
  0
LAYER
  2
DEFPOINTS
 70
     0
 62
     7
  6
CONTINUOUS
  0
ENDTAB
  0
TABLE
  2
STYLE
 70
     1
  0
STYLE
  2
STANDARD
 70
     0
 40
0.0
 41
0.8
 50
0.0
 71
     0
 42
0.2
  3
txt
  4

  0
ENDTAB
  0
TABLE
  2
VIEW
 70
     0
  0
ENDTAB
  0
TABLE
  2
UCS
 70
     0
  0
ENDTAB
  0
TABLE
  2
APPID
 70
    10
  0
APPID
  2
ACAD
 70
     0
  0
APPID
  2
ACAD_MLEADERVER
 70
     0
  0
APPID
  2
ACAD_EXEMPT_FROM_CAD_STANDARDS
 70
     0
  0
APPID
  2
ACAD_NAV_VCDISPLAY
 70
     0
  0
APPID
  2
ACAECLAYERSTANDARD
 70
     0
  0
APPID
  2
ACCMTRANSPARENCY
 70
     0
  0
APPID
  2
ACAD_DSTYLE_DIMJAG
 70
     0
  0
APPID
  2
ACAD_DSTYLE_DIMTALN
 70
     0
  0
APPID
  2
ACDBATTR
 70
     0
  0
APPID
  2
ACAD_PSEXT
 70
     0
  0
ENDTAB
  0
TABLE
  2
DIMSTYLE
 70
     1
  0
DIMSTYLE
  2
STANDARD
 70
     0
  3

  4

  5

  6

  7

 40
1.0
 41
0.1875
 42
0.0625
 43
0.38
 44
0.125
 45
0.0
 46
0.0
 47
0.01
 48
0.01
140
0.15625
141
0.09
142
0.0
143
25.3999999999999986
144
1.0
145
0.0
146
1.0
147
0.09
 71
     1
 72
     0
 73
     1
 74
     1
 75
     0
 76
     0
 77
     0
 78
     4
170
     0
171
     2
172
     0
173
     0
174
     0
175
     0
176
     0
177
     0
178
     0
  0
ENDTAB
  0
ENDSEC
  0
SECTION
  2
BLOCKS
  0
BLOCK
  8
0
  2
$MODEL_SPACE
 70
     0
 10
0.0
 20
0.0
 30
0.0
  3
$MODEL_SPACE
  1

  0
ENDBLK
  5
21
  8
0
  0
BLOCK
 67
     1
  8
0
  2
$PAPER_SPACE
 70
     0
 10
0.0
 20
0.0
 30
0.0
  3
$PAPER_SPACE
  1

  0
ENDBLK
  5
1D
 67
     1
  8
0
  0
ENDSEC
  0
SECTION
  2
ENTITIES
  0
ATTDEF
  5
AA11
  8
DEFPOINTS
 10
3775.4367077076581154
 20
156.6692947902930086
 30
0.0
 40
0.001
  1
K-45429IN
  3

  2
MODELNUMBER
 70
     0
1001
ACDBATTR
1070
     0
1070
     1
  0
ATTDEF
  5
AA12
  8
DEFPOINTS
 10
3775.4367077076581154
 20
156.6676281236262867
 30
0.0
 40
0.001
  1
GEOMETRIC
  3

  2
TRADENAME
 70
     0
1001
ACDBATTR
1070
     0
1070
     1
  0
ATTDEF
  5
AA13
  8
DEFPOINTS
 10
3775.4367077076581154
 20
156.6659614569595931
 30
0.0
 40
0.001
  1
SHOWERHEAD
  3

  2
PRODUCT
 70
     0
1001
ACDBATTR
1070
     0
1070
     1
  0
ARC
  5
122E5
  8
0
 10
3775.4556953703831823
 20
155.3135099566590043
 30
0.0
 40
3.3052696123116978
 50
266.6477933717034148
 51
269.748690251698406
  0
ARC
  5
122E6
  8
0
 10
3775.4350862154501556
 20
154.7518255452631024
 30
0.0
 40
2.7433686163925879
 50
252.1956723393005007
 51
266.3915342009825054
  0
ARC
  5
122E7
  8
0
 10
3775.2633446157601611
 20
154.2170518734995142
 30
0.0
 40
2.1816942827476211
 50
234.1880485523425079
 51
252.1956723393005007
  0
ARC
  5
122E8
  8
0
 10
3774.8722066763320981
 20
153.674964116492788
 30
0.0
 40
1.5132273621330701
 50
212.446414268534113
 51
234.1880485523425079
  0
ARC
  5
122E9
  8
0
 10
3774.518043894172024
 20
153.4498029256332075
 30
0.0
 40
1.0935502980276579
 50
179.9081621661972861
 51
212.446414268534113
  0
ARC
  5
122EA
  8
0
 10
3774.5289576416039381
 20
153.4256506778428104
 30
0.0
 40
1.1047663994070649
 50
143.7827692369789929
 51
178.6563791580944098
  0
ARC
  5
122EB
  8
0
 10
3775.0928102552570635
 20
152.963067093417294
 30
0.0
 40
1.8334271970186109
 50
114.6627865039377951
 51
142.5309862288700913
  0
ARC
  5
122EC
  8
0
 10
3775.4023433385409589
 20
152.2889409224708004
 30
0.0
 40
2.575220176227011
 50
94.0003984089126874
 51
114.6627865039377951
  0
ARC
  5
122ED
  8
0
 10
3775.4654993597100656
 20
151.3858579836945921
 30
0.0
 40
3.4805087917074311
 50
90.4000513771157586
 51
94.0003984089126874
  0
ARC
  5
122EE
  8
0
 10
3775.4412009045090599
 20
154.7947384899327972
 30
0.0
 40
2.7390707549666491
 50
268.1856130652050751
 51
269.9999371722075239
  0
ARC
  5
122EF
  8
0
 10
3775.440733747151171
 20
154.7799912511486013
 30
0.0
 40
2.7243161188221339
 50
263.0213049613689122
 51
268.1856130652050751
  0
ARC
  5
122F0
  8
0
 10
3775.4256249276709241
 20
154.6565603740504002
 30
0.0
 40
2.5999639662581169
 50
253.1641338417126121
 51
263.0213049613689122
  0
ARC
  5
122F1
  8
0
 10
3775.3194447852461053
 20
154.3056687648306138
 30
0.0
 40
2.2333590780389341
 50
241.6530661004981937
 51
253.1641338417126121
  0
ARC
  5
122F2
  8
0
 10
3775.1121737680769002
 20
153.9214789772341874
 30
0.0
 40
1.7968237788342929
 50
227.5557366780710993
 51
241.6530661004981937
  0
ARC
  5
122F3
  8
0
 10
3774.8039898030438053
 20
153.5844976547082865
 30
0.0
 40
1.340168801817176
 50
209.1061219767125863
 51
227.5557366780710993
  0
ARC
  5
122F4
  8
0
 10
3774.5291255443080445
 20
153.4314717013724874
 30
0.0
 40
1.0255781104017081
 50
176.0120314446799057
 51
209.1061219767125863
  0
ARC
  5
122F5
  8
0
 10
3774.5867721830359187
 20
153.4033535229154097
 30
0.0
 40
1.0853070043659629
 50
142.5658018559389006
 51
174.7427524895250883
  0
ARC
  5
122F6
  8
0
 10
3775.1227154213679569
 20
152.9431223970620977
 30
0.0
 40
1.7910646945126769
 50
114.9951203236866064
 51
141.2965229007812979
  0
ARC
  5
122F7
  8
0
 10
3775.3736567218561504
 20
152.4048573610396033
 30
0.0
 40
2.3849508665145618
 50
100.4115229786405052
 51
114.9951203236866064
  0
ARC
  5
122F8
  8
0
 10
3775.453121098381871
 20
151.9723799065683068
 30
0.0
 40
2.8246682027234291
 50
92.0138279237492043
 51
100.4115229786405052
  0
ARC
  5
122F9
  8
0
 10
3775.4337941229841817
 20
152.5220286975699082
 30
0.0
 40
2.2746797251827728
 50
89.8135095787826856
 51
92.0138279237492043
  0
ARC
  5
122FA
  8
0
 10
3775.4411251067581361
 20
154.5684202534513076
 30
0.0
 40
2.4050532725668381
 50
264.7605739065318744
 51
270.0017341824093933
  0
ARC
  5
122FB
  8
0
 10
3775.4312874342249415
 20
154.4611403556114055
 30
0.0
 40
2.2973232568730531
 50
251.0396687970591074
 51
264.7605739065318744
  0
ARC
  5
122FC
  8
0
 10
3775.2754620534251444
 20
154.0075706958564012
 30
0.0
 40
1.8177328216559461
 50
234.2575442179154948
 51
251.0396687970591074
  0
ARC
  5
122FD
  8
0
 10
3774.9617099110319032
 20
153.571620427842106
 30
0.0
 40
1.280617337762715
 50
209.4188712573914017
 51
234.2575442179154948
  0
ARC
  5
122FE
  8
0
 10
3774.5975001492111005
 20
153.3662406998155063
 30
0.0
 40
0.8624910610345686
 50
162.1300563977268894
 51
209.4188712573914017
  0
ARC
  5
122FF
  8
0
 10
3775.0113262091349497
 20
153.1548235042789941
 30
0.0
 40
1.323310901613526
 50
112.0692107617418998
 51
158.914328199114891
  0
ARC
  5
12300
  8
0
 10
3775.4057148212727952
 20
152.3983786579443063
 30
0.0
 40
2.174033491899916
 50
96.2139542476529073
 51
114.2117007426663946
  0
ARC
  5
12301
  8
0
 10
3775.4408611323228797
 20
152.1769842929510048
 30
0.0
 40
2.3979564908633959
 50
89.9919533893492769
 51
96.476205446791127
  0
ARC
  5
12302
  8
0
 10
3775.4410282389299027
 20
152.2062062056938032
 30
0.0
 40
2.337798668030469
 50
89.9958418494379373
 51
97.1568279976545597
  0
ARC
  5
12303
  8
0
 10
3775.4229458893751143
 20
152.3502153108208859
 30
0.0
 40
2.1926587571689389
 50
97.1568279976545597
 51
111.1270600604735961
  0
ARC
  5
12304
  8
0
 10
3775.2384956848791262
 20
152.8275578267100911
 30
0.0
 40
1.680918827698598
 50
111.1270600604735961
 51
130.466517889586413
  0
ARC
  5
12305
  8
0
 10
3774.8643120108417861
 20
153.2661893994257127
 30
0.0
 40
1.1043678078413599
 50
130.466517889586413
 51
161.4511289203331899
  0
ARC
  5
12306
  8
0
 10
3774.5743419405907844
 20
153.3634871294925119
 30
0.0
 40
0.7985091968495525
 50
161.4511289203331899
 51
207.1014174123700968
  0
ARC
  5
12307
  8
0
 10
3775.0102049070319481
 20
153.5865430843439015
 30
0.0
 40
1.2881319950412129
 50
207.1014174123700968
 51
234.8774546079432071
  0
ARC
  5
12308
  8
0
 10
3775.265900764988146
 20
153.9500573507748982
 30
0.0
 40
1.732567585059831
 50
234.8774546079432071
 51
256.0275777395586942
  0
ARC
  5
12309
  8
0
 10
3775.5195737037352046
 20
154.9695741908375908
 30
0.0
 40
2.7831695777400181
 50
256.0275777395586942
 51
265.2243421555724012
  0
ARC
  5
1230A
  8
0
 10
3775.4411082200808778
 20
154.531394982198492
 30
0.0
 40
2.340350742279059
 50
266.2455942177385282
 51
270.0021955411775139
  0
ARC
  5
1230B
  8
0
 10
3775.4410912914800065
 20
152.6765633532725133
 30
0.0
 40
2.8220283850975552
 50
89.9978355023584982
 51
97.3354399840290654
  0
ARC
  5
1230C
  8
0
 10
3775.4225452804530505
 20
152.8218730589696008
 30
0.0
 40
2.6755400287394231
 50
97.3388373168360346
 51
108.1944069905225945
  0
ARC
  5
1230D
  8
0
 10
3775.2543018961328016
 20
153.3119829636735005
 30
0.0
 40
2.1574124068833531
 50
108.013850476743599
 51
125.0866840542692984
  0
ARC
  5
1230E
  8
0
 10
3774.8574207793608366
 20
153.8547164108096865
 30
0.0
 40
1.4852244881957839
 50
124.5932824998963042
 51
147.5814531969321877
  0
ARC
  5
1230F
  8
0
 10
3774.5558413814192136
 20
154.0486841050779958
 30
0.0
 40
1.1266606933974219
 50
147.6863127205216983
 51
168.5967471419479864
  0
ARC
  5
12310
  8
0
 10
3775.6580776652231179
 20
153.9588327298208128
 30
0.0
 40
2.228689426698907
 50
171.9368265717581039
 51
181.4206209703594936
  0
ARC
  5
12311
  8
0
 10
3864.3493619457431123
 20
152.5555291715579926
 30
0.0
 40
90.9292818214081962
 50
179.1505442386182949
 51
179.4353923076176898
  0
ARC
  5
12312
  8
0
 10
3775.4411979009200877
 20
156.664157988667796
 30
0.0
 40
1.2598425197000001
 50
289.0611936238947237
 51
250.9388063809280993
  0
ARC
  5
12313
  8
0
 10
3775.4411979009200877
 20
156.664157988667796
 30
0.0
 40
0.6447928402999999
 50
309.6496290245518139
 51
230.350370986987997
  0
ARC
  5
12314
  8
0
 10
3775.4411979009701099
 20
156.664157988667796
 30
0.0
 40
0.450710787495182
 50
335.9038611320657992
 51
204.0961388679342008
  0
ARC
  5
12315
  8
0
 10
3775.4411979009701099
 20
156.664157988667796
 30
0.0
 40
0.4114366122253688
 50
0.0
 51
180.0
  0
LINE
  5
12316
  8
0
 10
3775.0297612887438845
 20
156.664157988667796
 30
0.0
 11
3775.0297612887438845
 21
155.4684246230326039
 31
0.0
  0
ARC
  5
12317
  8
0
 10
3775.4215082956980041
 20
155.478565071220288
 30
0.0
 40
3.4703487891350799
 50
270.3250789483968788
 51
273.2784374282226167
  0
ARC
  5
12318
  8
0
 10
3775.4473095864900642
 20
154.7518255452631024
 30
0.0
 40
2.7433686163925879
 50
273.6084657990176083
 51
287.8043276606994141
  0
ARC
  5
12319
  8
0
 10
3775.6190511861800587
 20
154.2170518734995142
 30
0.0
 40
2.1816942827476211
 50
287.8043276606994141
 51
305.8119514476575205
  0
ARC
  5
1231A
  8
0
 10
3776.0101891256072122
 20
153.674964116492788
 30
0.0
 40
1.5132273621330701
 50
305.8119514476575205
 51
327.553585731465887
  0
ARC
  5
1231B
  8
0
 10
3776.3643519077668316
 20
153.4498029256332075
 30
0.0
 40
1.0935502980276579
 50
327.553585731465887
 51
0.0918378338027367
  0
ARC
  5
1231C
  8
0
 10
3776.3534381603349175
 20
153.4256506778428104
 30
0.0
 40
1.1047663994070649
 50
1.3436208419055731
 51
36.2172307630209502
  0
ARC
  5
1231D
  8
0
 10
3775.7895855466840658
 20
152.963067093417294
 30
0.0
 40
1.8334271970186109
 50
37.4690137711298874
 51
65.3372134960621764
  0
ARC
  5
1231E
  8
0
 10
3775.4800524633978966
 20
152.2889409224708004
 30
0.0
 40
2.575220176227011
 50
65.3372134960621764
 51
85.9996015910872984
  0
ARC
  5
1231F
  8
0
 10
3775.4168964422301542
 20
151.3858579836945921
 30
0.0
 40
3.4805087917074311
 50
85.9996015910872984
 51
89.5999486228842272
  0
ARC
  5
12320
  8
0
 10
3775.4411948974297957
 20
154.7947384899327972
 30
0.0
 40
2.7390707549666491
 50
270.0000628280791943
 51
271.8143869347949249
  0
ARC
  5
12321
  8
0
 10
3775.4416620547890489
 20
154.7799912511486013
 30
0.0
 40
2.7243161188221339
 50
271.8143869347949249
 51
276.9786950386309741
  0
ARC
  5
12322
  8
0
 10
3775.456770874268841
 20
154.6565603740504002
 30
0.0
 40
2.5999639662581169
 50
276.9786950386309741
 51
286.8358661582873879
  0
ARC
  5
12323
  8
0
 10
3775.5629510166941145
 20
154.3056687648306138
 30
0.0
 40
2.2333590780389341
 50
286.8358661582873879
 51
298.3469338995017779
  0
ARC
  5
12324
  8
0
 10
3775.7702220338619554
 20
153.9214789772341874
 30
0.0
 40
1.7968237788342929
 50
298.3469338995017779
 51
312.4442633219288723
  0
ARC
  5
12325
  8
0
 10
3776.0784059988950503
 20
153.5844976547082865
 30
0.0
 40
1.340168801817176
 50
312.4442633219288723
 51
330.8938780232874137
  0
ARC
  5
12326
  8
0
 10
3776.3532702576321753
 20
153.4314717013724874
 30
0.0
 40
1.0255781104017081
 50
330.8938780232874137
 51
3.9879685553201001
  0
ARC
  5
12327
  8
0
 10
3776.2956236189029369
 20
153.4033535229154097
 30
0.0
 40
1.0853070043659629
 50
5.2572475104748557
 51
37.4341981440610923
  0
ARC
  5
12328
  8
0
 10
3775.7596803805731724
 20
152.9431223970620977
 30
0.0
 40
1.7910646945126769
 50
38.7034770992187021
 51
65.004879676313422
  0
ARC
  5
12329
  8
0
 10
3775.5087390800840694
 20
152.4048573610396033
 30
0.0
 40
2.3849508665145618
 50
65.004879676313422
 51
79.5884770213594805
  0
ARC
  5
1232A
  8
0
 10
3775.4292747035578941
 20
151.9723799065683068
 30
0.0
 40
2.8246682027234291
 50
79.5884770213594805
 51
87.9861720762507957
  0
ARC
  5
1232B
  8
0
 10
3775.4486016789560381
 20
152.5220286975699082
 30
0.0
 40
2.2746797251827728
 50
87.9861720762507957
 51
90.1864904212173144
  0
ARC
  5
1232C
  8
0
 10
3775.4412706951820837
 20
154.5684202534513076
 30
0.0
 40
2.4050532725668381
 50
269.9982658175645156
 51
275.2394260934680119
  0
ARC
  5
1232D
  8
0
 10
3775.451108367713914
 20
154.4611403556114055
 30
0.0
 40
2.2973232568730531
 50
275.2394260934680119
 51
288.9603312029408926
  0
ARC
  5
1232E
  8
0
 10
3775.6069337485150754
 20
154.0075706958564012
 30
0.0
 40
1.8177328216559461
 50
288.9603312029408926
 51
305.7424557820845052
  0
ARC
  5
1232F
  8
0
 10
3775.9206858909069524
 20
153.571620427842106
 30
0.0
 40
1.280617337762715
 50
305.7424557820845052
 51
330.5811287426087119
  0
ARC
  5
12330
  8
0
 10
3776.2848956527291193
 20
153.3662406998155063
 30
0.0
 40
0.8624910610345686
 50
330.5811287426087119
 51
17.8699436022730893
  0
ARC
  5
12331
  8
0
 10
3775.8710695928039058
 20
153.1548235042789941
 30
0.0
 40
1.323310901613526
 50
21.0856718008850592
 51
67.9307892382580718
  0
ARC
  5
12332
  8
0
 10
3775.4766809806660603
 20
152.3983786579443063
 30
0.0
 40
2.174033491899916
 50
65.7882992573335912
 51
83.7860457523470785
  0
ARC
  5
12333
  8
0
 10
3775.4415346696168854
 20
152.1769842929510048
 30
0.0
 40
2.3979564908633959
 50
83.5237945532088872
 51
90.0080466106507089
  0
ARC
  5
12334
  8
0
 10
3775.4413675630098624
 20
152.2062062056938032
 30
0.0
 40
2.337798668030469
 50
82.8431720023454545
 51
90.0041581505620485
  0
ARC
  5
12335
  8
0
 10
3775.4594499125651055
 20
152.3502153108208859
 30
0.0
 40
2.1926587571689389
 50
68.8729399395264323
 51
82.8431720023454545
  0
ARC
  5
12336
  8
0
 10
3775.6439001170610936
 20
152.8275578267100911
 30
0.0
 40
1.680918827698598
 50
49.5334821104135798
 51
68.8729399395264323
  0
ARC
  5
12337
  8
0
 10
3776.0180837910970695
 20
153.2661893994257127
 30
0.0
 40
1.1043678078413599
 50
18.5488710796668208
 51
49.5334821104135798
  0
ARC
  5
12338
  8
0
 10
3776.3080538613489807
 20
153.3634871294925119
 30
0.0
 40
0.7985091968495525
 50
332.8985825876299032
 51
18.5488710796668208
  0
ARC
  5
12339
  8
0
 10
3775.872190894907817
 20
153.5865430843439015
 30
0.0
 40
1.2881319950412129
 50
305.1225453920566792
 51
332.8985825876299032
  0
ARC
  5
1233A
  8
0
 10
3775.6164950369520739
 20
153.9500573507748982
 30
0.0
 40
1.732567585059831
 50
283.9724222604413058
 51
305.1225453920566792
  0
ARC
  5
1233B
  8
0
 10
3775.3628220982050152
 20
154.9695741908375908
 30
0.0
 40
2.7831695777400181
 50
274.7756578444275988
 51
283.9724222604413058
  0
ARC
  5
1233C
  8
0
 10
3775.4412875818588873
 20
154.5313949821992026
 30
0.0
 40
2.34035074227975
 50
269.9978044588224861
 51
273.7544057822614718
  0
ARC
  5
1233D
  8
0
 10
3775.4413045104588491
 20
152.6765633532733091
 30
0.0
 40
2.8220283850967238
 50
82.6645600159709346
 51
90.0021644976415303
  0
ARC
  5
1233E
  8
0
 10
3775.4598505214871693
 20
152.8218730589696008
 30
0.0
 40
2.6755400287394231
 50
71.8055930094773771
 51
82.661162683163937
  0
ARC
  5
1233F
  8
0
 10
3775.6280939058069634
 20
153.3119829636735005
 30
0.0
 40
2.1574124068833531
 50
54.9133159457307372
 51
71.9861495232564153
  0
ARC
  5
12340
  8
0
 10
3776.0249750225789285
 20
153.8547164108096865
 30
0.0
 40
1.4852244881957839
 50
32.4185468030678123
 51
55.4067175001027294
  0
ARC
  5
12341
  8
0
 10
3776.3265544205200968
 20
154.0486841050779958
 30
0.0
 40
1.1266606933974219
 50
11.4032528580520101
 51
32.3136872794782875
  0
ARC
  5
12342
  8
0
 10
3775.2243181367171019
 20
153.9588327298208128
 30
0.0
 40
2.228689426698907
 50
358.5793790296403927
 51
8.0631734282418517
  0
ARC
  5
12343
  8
0
 10
3686.5330338561971075
 20
152.5555291715579926
 30
0.0
 40
90.9292818214081962
 50
0.5646076923822974
 51
0.849455761381686
  0
LINE
  5
12344
  8
0
 10
3775.8526345131949711
 20
156.664157988667796
 30
0.0
 11
3775.8526345131949711
 21
155.4684246230326039
 31
0.0
  0
ARC
  5
12345
  8
0
 10
3775.4857333272448159
 20
152.3434892990360936
 30
0.0
 40
0.0520153081540849
 50
228.6248427659857043
 51
250.6824061917702124
  0
ARC
  5
12346
  8
0
 10
3775.4662464625707798
 20
152.3213664603416078
 30
0.0
 40
0.022533824359664
 50
201.7251057352418968
 51
228.6248427659857043
  0
ARC
  5
12347
  8
0
 10
3775.4584901151501981
 20
152.3182758972540967
 30
0.0
 40
0.0141844228532366
 50
141.6986817260466864
 51
201.7251057352418968
  0
ARC
  5
12348
  8
0
 10
3775.4837689877781486
 20
152.2983109022121937
 30
0.0
 40
0.0463965700710483
 50
109.7853042357180016
 51
141.6986817260466864
  0
ARC
  5
12349
  8
0
 10
3775.5041619425419412
 20
152.2416216737765922
 30
0.0
 40
0.1066422439790375
 50
69.3727726550760337
 51
109.7853042357180016
  0
ARC
  5
1234A
  8
0
 10
3775.527974751417787
 20
152.3048833294340909
 30
0.0
 40
0.0390472223939873
 50
34.2335493026159128
 51
69.3727726550760337
  0
ARC
  5
1234B
  8
0
 10
3775.548828844558102
 20
152.3190736143587003
 30
0.0
 40
0.0138230794556389
 50
336.4280254516061177
 51
34.2335493026159128
  0
ARC
  5
1234C
  8
0
 10
3775.5005219640379437
 20
152.3013484012658978
 30
0.0
 40
0.0327407848759809
 50
182.4762321236329115
 51
233.9743497910093026
  0
ARC
  5
1234D
  8
0
 10
3775.5145112634791076
 20
152.3205849042182933
 30
0.0
 40
0.0565261489613922
 50
233.9743497910093026
 51
304.1580969886553021
  0
ARC
  5
1234E
  8
0
 10
3775.5265485717218326
 20
152.3028446485405993
 30
0.0
 40
0.0350875514967077
 50
304.1580969886553021
 51
354.0259984478281012
  0
ARC
  5
1234F
  8
0
 10
3775.4846410233658389
 20
152.3443238414616872
 30
0.0
 40
0.0443115390536155
 50
207.6793041128048003
 51
247.5872269287544896
  0
ARC
  5
12350
  8
0
 10
3775.503394421226858
 20
152.4248844893843966
 30
0.0
 40
0.1682714615178465
 50
263.5328119988578237
 51
283.705408406302297
  0
ARC
  5
12351
  8
0
 10
3775.5030554733061763
 20
152.4218943581784913
 30
0.0
 40
0.165262180819455
 50
247.030305447248594
 51
263.5328119988578237
  0
ARC
  5
12352
  8
0
 10
3775.4620954240608626
 20
152.3252564456273888
 30
0.0
 40
0.0603021323421075
 50
220.9920055722512018
 51
247.030305447248594
  0
ARC
  5
12353
  8
0
 10
3775.4382635166998625
 20
152.3045455219101996
 30
0.0
 40
0.0287283747311875
 50
153.877628215112793
 51
220.9920055722512018
  0
ARC
  5
12354
  8
0
 10
3775.4702157484312011
 20
152.2789711396453072
 30
0.0
 40
0.0692505038222791
 50
106.1517518201096948
 51
146.4987321930013877
  0
ARC
  5
12355
  8
0
 10
3775.6028058520278137
 20
151.8732299857068995
 30
0.0
 40
0.4960721498107526
 50
89.8204781530833145
 51
107.8251660274344061
  0
ARC
  5
12356
  8
0
 10
3775.6063599026160773
 20
151.8494444452248047
 30
0.0
 40
0.519859101461903
 50
83.3997571623816185
 51
90.2203996010625957
  0
ARC
  5
12357
  8
0
 10
3775.6639778304088395
 20
152.3369663589579091
 30
0.0
 40
0.0289705119776921
 50
49.7620292893270317
 51
85.7729573428490255
  0
ARC
  5
12358
  8
0
 10
3775.677286425793227
 20
152.3526820924236915
 30
0.0
 40
0.0083767558458639
 50
325.1146652420767964
 51
49.8137628594815425
  0
ARC
  5
12359
  8
0
 10
3775.5527655408000101
 20
152.4322106302672921
 30
0.0
 40
0.1561208560300397
 50
300.0647624783042033
 51
327.3101503696897794
  0
ARC
  5
1235A
  8
0
 10
3775.4700082971507982
 20
152.5670778826724927
 30
0.0
 40
0.3143288203952776
 50
283.4767657456491179
 51
300.8043750917050261
  0
LINE
  5
1235B
  8
0
 10
3775.4678117515200029
 20
152.2999338372677869
 30
0.0
 11
3775.4670134077250623
 21
152.3415762723300872
 31
0.0
  0
LINE
  5
1235C
  8
0
 10
3775.5614455705740511
 20
152.2991928351366937
 30
0.0
 11
3775.5615389335480359
 21
152.3245078726812949
 31
0.0
  0
ARC
  5
1235D
  8
0
 10
3775.5147150296579639
 20
152.2940516096184069
 30
0.0
 40
0.0164980483040879
 50
228.7944373778869931
 51
311.9769328976598786
  0
ARC
  5
1235E
  8
0
 10
3775.5228213851078181
 20
152.285041297438795
 30
0.0
 40
0.0043778699118009
 50
311.9769328976382781
 51
50.6172861048208205
  0
ARC
  5
1235F
  8
0
 10
3775.515106955399915
 20
152.275643817920411
 30
0.0
 40
0.0165362023226161
 50
50.6172861048409573
 51
136.4989669744716991
  0
ARC
  5
12360
  8
0
 10
3775.5070475371430803
 20
152.2848194995636959
 30
0.0
 40
0.0045120828117922
 50
150.7120703864623863
 51
224.815114008186498
  0
ARC
  5
12361
  8
0
 10
3774.9941948594328096
 20
152.3881938967728047
 30
0.0
 40
0.0520153081540849
 50
228.6248427659857043
 51
250.6824061917702124
  0
ARC
  5
12362
  8
0
 10
3774.9747079947587736
 20
152.3660710580782904
 30
0.0
 40
0.022533824359664
 50
201.7251057352418968
 51
228.6248427659857043
  0
ARC
  5
12363
  8
0
 10
3774.9669516473381918
 20
152.3629804949908078
 30
0.0
 40
0.0141844228532366
 50
141.6986817260466864
 51
201.7251057352418968
  0
ARC
  5
12364
  8
0
 10
3774.9922305199661423
 20
152.3430154999489048
 30
0.0
 40
0.0463965700710483
 50
109.7853042357180016
 51
141.6986817260466864
  0
ARC
  5
12365
  8
0
 10
3775.012623474729935
 20
152.2863262715133033
 30
0.0
 40
0.1066422439790375
 50
69.3727726550760337
 51
109.7853042357180016
  0
ARC
  5
12366
  8
0
 10
3775.0364362836057808
 20
152.349587927170802
 30
0.0
 40
0.0390472223939873
 50
34.2335493026159128
 51
69.3727726550760337
  0
ARC
  5
12367
  8
0
 10
3775.0572903767470052
 20
152.3637782120954967
 30
0.0
 40
0.0138230794556389
 50
336.4280254516061177
 51
34.2335493026159128
  0
ARC
  5
12368
  8
0
 10
3775.0089834962259374
 20
152.3460529990026089
 30
0.0
 40
0.0327407848759809
 50
182.4762321236329115
 51
233.9743497910093026
  0
ARC
  5
12369
  8
0
 10
3775.0229727956671013
 20
152.3652895019550044
 30
0.0
 40
0.0565261489613922
 50
233.9743497910093026
 51
304.1580969886553021
  0
ARC
  5
1236A
  8
0
 10
3775.0350101039098263
 20
152.3475492462773104
 30
0.0
 40
0.0350875514967077
 50
304.1580969886553021
 51
354.0259984478281012
  0
ARC
  5
1236B
  8
0
 10
3774.9931025555551969
 20
152.3890284391983982
 30
0.0
 40
0.0443115390536155
 50
207.6793041128048003
 51
247.5872269287544896
  0
ARC
  5
1236C
  8
0
 10
3775.0448938597401138
 20
152.4678729958478129
 30
0.0
 40
0.1682714615178465
 50
250.124935214782397
 51
270.2975316222158995
  0
ARC
  5
1236D
  8
0
 10
3775.0438707936700666
 20
152.4650429594283025
 30
0.0
 40
0.165262180819455
 50
233.6224286631722009
 51
250.124935214782397
  0
ARC
  5
1236E
  8
0
 10
3774.9816185940330797
 20
152.3805368920909018
 30
0.0
 40
0.0603021323421075
 50
207.5841287881615074
 51
233.6224286631722009
  0
ARC
  5
1236F
  8
0
 10
3774.9536337660751997
 20
152.3659166467494117
 30
0.0
 40
0.0287283747311875
 50
140.4697514310335009
 51
207.5841287881615074
  0
ARC
  5
12370
  8
0
 10
3774.9787848785149436
 20
152.3336301838915006
 30
0.0
 40
0.0692505038222791
 50
92.7438750360139466
 51
133.090855408923403
  0
ARC
  5
12371
  8
0
 10
3775.0136771855359257
 20
151.9082026971420873
 30
0.0
 40
0.4960721498107526
 50
76.412601369008442
 51
94.4172892433754924
  0
ARC
  5
12372
  8
0
 10
3775.0116189369500717
 20
151.8842413360713977
 30
0.0
 40
0.519859101461903
 50
69.9918803783194079
 51
76.8125228169902243
  0
ARC
  5
12373
  8
0
 10
3775.1807138092308378
 20
152.3451148177790913
 30
0.0
 40
0.0289705119776921
 50
36.3541525052431496
 51
72.3650805587733572
  0
ARC
  5
12374
  8
0
 10
3775.1973038556261599
 20
152.3573161845093864
 30
0.0
 40
0.0083767558458639
 50
311.7067884579934116
 51
36.4058860754135694
  0
ARC
  5
12375
  8
0
 10
3775.0946181180602252
 20
152.4635511996008859
 30
0.0
 40
0.1561208560300397
 50
286.6568856942142247
 51
313.9022735856098052
  0
ARC
  5
12376
  8
0
 10
3775.0453897439979301
 20
152.6139323963477068
 30
0.0
 40
0.3143288203952776
 50
270.0688889615772155
 51
287.3964983076259045
  0
LINE
  5
12377
  8
0
 10
3774.9762732837089061
 20
152.344638435004498
 30
0.0
 11
3774.975474939913056
 21
152.3862808700667983
 31
0.0
  0
LINE
  5
12378
  8
0
 10
3775.0699071027620448
 20
152.3438974328734048
 30
0.0
 11
3775.0700004657369391
 21
152.369212470418006
 31
0.0
  0
ARC
  5
12379
  8
0
 10
3775.0231765618459576
 20
152.3387562073550896
 30
0.0
 40
0.0164980483040879
 50
228.7944373778869931
 51
311.9769328976598786
  0
ARC
  5
1237A
  8
0
 10
3775.0312829172958118
 20
152.3297458951755061
 30
0.0
 40
0.0043778699118009
 50
311.9769328976382781
 51
50.6172861048208205
  0
ARC
  5
1237B
  8
0
 10
3775.0235684875888182
 20
152.3203484156570937
 30
0.0
 40
0.0165362023226161
 50
50.6172861048409573
 51
136.4989669744716991
  0
ARC
  5
1237C
  8
0
 10
3775.0155090693301645
 20
152.329524097300407
 30
0.0
 40
0.0045120828117922
 50
150.7120703864623863
 51
224.815114008186498
  0
ARC
  5
1237D
  8
0
 10
3774.5517171709911963
 20
152.5482066526226959
 30
0.0
 40
0.0520153081540849
 50
228.6248427659857043
 51
250.6824061917702124
  0
ARC
  5
1237E
  8
0
 10
3774.5322303063171603
 20
152.52608381392821
 30
0.0
 40
0.022533824359664
 50
201.7251057352418968
 51
228.6248427659857043
  0
ARC
  5
1237F
  8
0
 10
3774.5244739588961238
 20
152.5229932508406989
 30
0.0
 40
0.0141844228532366
 50
141.6986817260466864
 51
201.7251057352418968
  0
ARC
  5
12380
  8
0
 10
3774.5497528315240743
 20
152.503028255798796
 30
0.0
 40
0.0463965700710483
 50
109.7853042357180016
 51
141.6986817260466864
  0
ARC
  5
12381
  8
0
 10
3774.5701457862887764
 20
152.4463390273631944
 30
0.0
 40
0.1066422439790375
 50
69.3727726550760337
 51
109.7853042357180016
  0
ARC
  5
12382
  8
0
 10
3774.5939585951641675
 20
152.5096006830206932
 30
0.0
 40
0.0390472223939873
 50
34.2335493026159128
 51
69.3727726550760337
  0
ARC
  5
12383
  8
0
 10
3774.6148126883049372
 20
152.5237909679453878
 30
0.0
 40
0.0138230794556389
 50
336.4280254516061177
 51
34.2335493026159128
  0
ARC
  5
12384
  8
0
 10
3774.5665058077847789
 20
152.5060657548525
 30
0.0
 40
0.0327407848759809
 50
182.4762321236329115
 51
233.9743497910093026
  0
ARC
  5
12385
  8
0
 10
3774.5804951072250333
 20
152.5253022578048956
 30
0.0
 40
0.0565261489613922
 50
233.9743497910093026
 51
304.1580969886553021
  0
ARC
  5
12386
  8
0
 10
3774.592532415468213
 20
152.5075620021272016
 30
0.0
 40
0.0350875514967077
 50
304.1580969886553021
 51
354.0259984478281012
  0
ARC
  5
12387
  8
0
 10
3774.5506248671122194
 20
152.5490411950482894
 30
0.0
 40
0.0443115390536155
 50
207.6793041128048003
 51
247.5872269287544896
  0
ARC
  5
12388
  8
0
 10
3774.6251590856300027
 20
152.6176597994779058
 30
0.0
 40
0.1682714615178465
 50
236.7292449702929957
 51
256.9018413777287719
  0
ARC
  5
12389
  8
0
 10
3774.6235082058760781
 20
152.615143777546308
 30
0.0
 40
0.165262180819455
 50
220.226738418687205
 51
236.7292449702929957
  0
ARC
  5
1238A
  8
0
 10
3774.543371762264087
 20
152.5473591024228881
 30
0.0
 40
0.0603021323421075
 50
194.1884385436771936
 51
220.226738418687205
  0
ARC
  5
1238B
  8
0
 10
3774.5127611675088701
 20
152.5396200030968998
 30
0.0
 40
0.0287283747311875
 50
127.074061186544796
 51
194.1884385436771936
  0
ARC
  5
1238C
  8
0
 10
3774.5297480437598097
 20
152.5023850708950874
 30
0.0
 40
0.0692505038222791
 50
79.3481847915248864
 51
119.6951651644293975
  0
ARC
  5
1238D
  8
0
 10
3774.4651302478719117
 20
152.0804483931511015
 30
0.0
 40
0.4960721498107525
 50
63.0169111244990034
 51
81.021598998868825
  0
ARC
  5
1238E
  8
0
 10
3774.4575767555379571
 20
152.057615785653212
 30
0.0
 40
0.5198591014619028
 50
56.596190133833268
 51
63.4168325724850277
  0
ARC
  5
1238F
  8
0
 10
3774.7288438556001893
 20
152.4667754151342933
 30
0.0
 40
0.0289705119776921
 50
22.9584622607485294
 51
58.9693903142874873
  0
ARC
  5
12390
  8
0
 10
3774.7478092900601041
 20
152.4748013284917079
 30
0.0
 40
0.0083767558458639
 50
298.3110982135114
 51
23.0101958309240011
  0
ARC
  5
12391
  8
0
 10
3774.672529260355077
 20
152.6019357308329063
 30
0.0
 40
0.1561208560300397
 50
273.261195449728973
 51
300.5065833411101721
  0
ARC
  5
12392
  8
0
 10
3774.6594797508669217
 20
152.7596305229151028
 30
0.0
 40
0.3143288203952776
 50
256.6731987170767866
 51
274.0008080631254757
  0
LINE
  5
12393
  8
0
 10
3774.5337955952659286
 20
152.5046511908543891
 30
0.0
 11
3774.532997251470988
 21
152.5462936259166895
 31
0.0
  0
LINE
  5
12394
  8
0
 10
3774.6274294143208863
 20
152.503910188723296
 30
0.0
 11
3774.627522777294871
 21
152.5292252262678971
 31
0.0
  0
ARC
  5
12395
  8
0
 10
3774.5806988734038896
 20
152.4987689632050092
 30
0.0
 40
0.0164980483040879
 50
228.7944373778869931
 51
311.9769328976598786
  0
ARC
  5
12396
  8
0
 10
3774.5888052288541985
 20
152.4897586510253973
 30
0.0
 40
0.0043778699118009
 50
311.9769328976382781
 51
50.6172861048208205
  0
ARC
  5
12397
  8
0
 10
3774.581090799147205
 20
152.4803611715070133
 30
0.0
 40
0.0165362023226161
 50
50.6172861048409573
 51
136.4989669744716991
  0
ARC
  5
12398
  8
0
 10
3774.573031380889006
 20
152.4895368531502982
 30
0.0
 40
0.0045120828117922
 50
150.7120703864623863
 51
224.815114008186498
  0
ARC
  5
12399
  8
0
 10
3774.2083546738558653
 20
152.8065156046189941
 30
0.0
 40
0.0520153081540849
 50
228.6248427659857043
 51
250.6824061917702124
  0
ARC
  5
1239A
  8
0
 10
3774.1888678091818292
 20
152.7843927659245082
 30
0.0
 40
0.022533824359664
 50
201.7251057352418968
 51
228.6248427659857043
  0
ARC
  5
1239B
  8
0
 10
3774.1811114617607927
 20
152.7813022028369971
 30
0.0
 40
0.0141844228532366
 50
141.6986817260466864
 51
201.7251057352418968
  0
ARC
  5
1239C
  8
0
 10
3774.206390334389198
 20
152.7613372077950942
 30
0.0
 40
0.0463965700710483
 50
109.7853042357180016
 51
141.6986817260466864
  0
ARC
  5
1239D
  8
0
 10
3774.2267832891529906
 20
152.7046479793596063
 30
0.0
 40
0.1066422439790375
 50
69.3727726550760337
 51
109.7853042357180016
  0
ARC
  5
1239E
  8
0
 10
3774.2505960980288364
 20
152.7679096350169914
 30
0.0
 40
0.0390472223939873
 50
34.2335493026159128
 51
69.3727726550760337
  0
ARC
  5
1239F
  8
0
 10
3774.2714501911700609
 20
152.782099919941686
 30
0.0
 40
0.0138230794556389
 50
336.4280254516061177
 51
34.2335493026159128
  0
ARC
  5
123A0
  8
0
 10
3774.2231433106489931
 20
152.7643747068487983
 30
0.0
 40
0.0327407848759809
 50
182.4762321236329115
 51
233.9743497910093026
  0
ARC
  5
123A1
  8
0
 10
3774.237132610090157
 20
152.7836112098011938
 30
0.0
 40
0.0565261489613922
 50
233.9743497910093026
 51
304.1580969886553021
  0
ARC
  5
123A2
  8
0
 10
3774.2491699183328819
 20
152.7658709541234998
 30
0.0
 40
0.0350875514967077
 50
304.1580969886553021
 51
354.0259984478281012
  0
ARC
  5
123A3
  8
0
 10
3774.2072623699777978
 20
152.8073501470445876
 30
0.0
 40
0.0443115390536155
 50
207.6793041128048003
 51
247.5872269287544896
  0
LINE
  5
123A4
  8
0
 10
3774.1904330981310522
 20
152.7629601428506874
 30
0.0
 11
3774.1896347543361117
 21
152.8046025779129877
 31
0.0
  0
LINE
  5
123A5
  8
0
 10
3774.28406691718601
 20
152.7622191407195942
 30
0.0
 11
3774.2841602801599947
 21
152.7875341782641954
 31
0.0
  0
ARC
  5
123A6
  8
0
 10
3774.2373363762690133
 20
152.7570779152013927
 30
0.0
 40
0.0164980483040879
 50
228.7944373778869931
 51
311.9769328976598786
  0
ARC
  5
123A7
  8
0
 10
3774.2454427317188674
 20
152.7480676030216955
 30
0.0
 40
0.0043778699118009
 50
311.9769328976382781
 51
50.6172861048208205
  0
ARC
  5
123A8
  8
0
 10
3774.2377283020118739
 20
152.7386701235033115
 30
0.0
 40
0.0165362023226161
 50
50.6172861048409573
 51
136.4989669744716991
  0
ARC
  5
123A9
  8
0
 10
3774.2296688837541296
 20
152.7478458051465964
 30
0.0
 40
0.0045120828117922
 50
150.7120703864623863
 51
224.815114008186498
  0
ARC
  5
123AA
  8
0
 10
3775.3166568058481971
 20
152.9963161472419984
 30
0.0
 40
0.0327407848759809
 50
182.4762321236329115
 51
233.9743497910093026
  0
ARC
  5
123AB
  8
0
 10
3775.3306461052889063
 20
153.0155526501943939
 30
0.0
 40
0.0565261489613922
 50
233.9743497910093026
 51
304.1580969886553021
  0
ARC
  5
123AC
  8
0
 10
3775.342683413532086
 20
152.9978123945166999
 30
0.0
 40
0.0350875514967077
 50
304.1580969886553021
 51
354.0259984478281012
  0
LINE
  5
123AD
  8
0
 10
3775.2839465933311658
 20
152.9949015832438874
 30
0.0
 11
3775.2832296407627837
 21
153.0322985679941894
 31
0.0
  0
LINE
  5
123AE
  8
0
 10
3775.377580412385214
 20
152.9941605811127943
 30
0.0
 11
3775.377714845058108
 21
153.0306115210049995
 31
0.0
  0
ARC
  5
123AF
  8
0
 10
3775.3308498714682173
 20
152.9890193555945075
 30
0.0
 40
0.0164980483040879
 50
228.7944373778869931
 51
311.9769328976598786
  0
ARC
  5
123B0
  8
0
 10
3775.338956226918981
 20
152.9800090434148956
 30
0.0
 40
0.0043778699118009
 50
311.9769328976382781
 51
50.6172861048208205
  0
ARC
  5
123B1
  8
0
 10
3775.3312417972110779
 20
152.9706115638965116
 30
0.0
 40
0.0165362023226161
 50
50.6172861048409573
 51
136.4989669744716991
  0
ARC
  5
123B2
  8
0
 10
3775.3231823789528789
 20
152.9797872455397965
 30
0.0
 40
0.0045120828117922
 50
150.7120703864623863
 51
224.815114008186498
  0
ARC
  5
123B3
  8
0
 10
3775.3030260009550148
 20
153.0106456135210067
 30
0.0
 40
0.0316173927912927
 50
191.8602025098091133
 51
238.3388943642083007
  0
ARC
  5
123B4
  8
0
 10
3775.2972412916410576
 20
153.0094307799334103
 30
0.0
 40
0.0257064975543124
 50
143.4915009840059952
 51
191.8602025098091133
  0
ARC
  5
123B5
  8
0
 10
3775.3252212126180893
 20
152.9887203038647101
 30
0.0
 40
0.060517412464955
 50
93.6103013367978747
 51
143.4915009840046878
  0
ARC
  5
123B6
  8
0
 10
3775.326434137187789
 20
152.9694965739311101
 30
0.0
 40
0.079779369234026
 50
48.2637609498226823
 51
93.6103013367978747
  0
ARC
  5
123B7
  8
0
 10
3775.3529769993720038
 20
153.0096506422069922
 30
0.0
 40
0.0328832767879823
 50
313.6380346687719225
 51
36.1085590433639894
  0
ARC
  5
123B8
  8
0
 10
3775.2908569717669707
 20
153.0007020390407888
 30
0.0
 40
0.0348167189060985
 50
139.3035070192163971
 51
200.0239755967998008
  0
ARC
  5
123B9
  8
0
 10
3775.2999565641580375
 20
153.0040183326541126
 30
0.0
 40
0.0445017787922032
 50
200.0239755968013924
 51
242.6867272551642998
  0
ARC
  5
123BA
  8
0
 10
3775.3370108840558714
 20
153.0757689754161106
 30
0.0
 40
0.1252555858845767
 50
242.6867272551642998
 51
263.5631605324242059
  0
ARC
  5
123BB
  8
0
 10
3775.3319084676118109
 20
153.0305424366046054
 30
0.0
 40
0.079742132198531
 50
263.5631605324242059
 51
325.6529941461466251
  0
ARC
  5
123BC
  8
0
 10
3775.281021937028072
 20
153.0346665638114985
 30
0.0
 40
0.1266368051098518
 50
337.1797832552358045
 51
22.6347618339919094
  0
ARC
  5
123BD
  8
0
 10
3775.3769770204758061
 20
153.0692014472481048
 30
0.0
 40
0.0252916425209118
 50
34.1615509430781472
 51
113.1822754716803985
  0
ARC
  5
123BE
  8
0
 10
3775.4413542660518033
 20
152.87134233187831
 30
0.0
 40
0.2332691539501876
 50
108.581891974478097
 51
139.3169824162235102
  0
ARC
  5
123BF
  8
0
 10
3775.1541116041930763
 20
153.1090430350957092
 30
0.0
 40
0.0327407848759809
 50
182.4762321236329115
 51
233.9743497910093026
  0
ARC
  5
123C0
  8
0
 10
3775.168100903632876
 20
153.1282795380481048
 30
0.0
 40
0.0565261489613922
 50
233.9743497910093026
 51
304.1580969886553021
  0
ARC
  5
123C1
  8
0
 10
3775.1801382118760557
 20
153.1105392823704108
 30
0.0
 40
0.0350875514967077
 50
304.1580969886553021
 51
354.0259984478281012
  0
LINE
  5
123C2
  8
0
 10
3775.121401391674226
 20
153.107628471097712
 30
0.0
 11
3775.1206844391072082
 21
153.1450254558479003
 31
0.0
  0
LINE
  5
123C3
  8
0
 10
3775.2150352107291837
 20
153.1068874689665904
 30
0.0
 11
3775.2151696434011683
 21
153.1433384088587104
 31
0.0
  0
ARC
  5
123C4
  8
0
 10
3775.1683046698130966
 20
153.1017462434483036
 30
0.0
 40
0.0164980483040879
 50
228.7944373778869931
 51
311.9769328976598786
  0
ARC
  5
123C5
  8
0
 10
3775.1764110252620412
 20
153.0927359312686065
 30
0.0
 40
0.0043778699118009
 50
311.9769328976382781
 51
50.6172861048208205
  0
ARC
  5
123C6
  8
0
 10
3775.1686965955550477
 20
153.0833384517503077
 30
0.0
 40
0.0165362023226161
 50
50.6172861048409573
 51
136.4989669744716991
  0
ARC
  5
123C7
  8
0
 10
3775.1606371772968487
 20
153.0925141333935926
 30
0.0
 40
0.0045120828117922
 50
150.7120703864623863
 51
224.815114008186498
  0
ARC
  5
123C8
  8
0
 10
3775.140480799299894
 20
153.1233725013746891
 30
0.0
 40
0.0316173927912927
 50
191.8602025098091133
 51
238.3388943642083007
  0
ARC
  5
123C9
  8
0
 10
3775.1346960899850274
 20
153.1221576677872065
 30
0.0
 40
0.0257064975543124
 50
143.4915009840059952
 51
191.8602025098091133
  0
ARC
  5
123CA
  8
0
 10
3775.1626760109629686
 20
153.1014471917185062
 30
0.0
 40
0.060517412464955
 50
93.6103013367978747
 51
143.4915009840046878
  0
ARC
  5
123CB
  8
0
 10
3775.1638889355322135
 20
153.0822234617849062
 30
0.0
 40
0.079779369234026
 50
48.2637609498226823
 51
93.6103013367978747
  0
ARC
  5
123CC
  8
0
 10
3775.1904317977159735
 20
153.1223775300607883
 30
0.0
 40
0.0328832767879823
 50
313.6380346687719225
 51
36.1085590433639894
  0
ARC
  5
123CD
  8
0
 10
3775.004258053112153
 20
152.5245060607975063
 30
0.0
 40
0.0327407848759809
 50
182.4762321236329115
 51
233.9743497910093026
  0
ARC
  5
123CE
  8
0
 10
3775.0182473525528621
 20
152.5437425637499018
 30
0.0
 40
0.0565261489613922
 50
233.9743497910093026
 51
304.1580969886553021
  0
ARC
  5
123CF
  8
0
 10
3775.0302846607960419
 20
152.5260023080722078
 30
0.0
 40
0.0350875514967077
 50
304.1580969886553021
 51
354.0259984478281012
  0
LINE
  5
123D0
  8
0
 10
3774.9715478405942122
 20
152.5230914967995091
 30
0.0
 11
3774.97070783354593
 21
152.5669071300652888
 31
0.0
  0
LINE
  5
123D1
  8
0
 10
3775.0651816596478056
 20
152.5223504946683875
 30
0.0
 11
3775.0652838831329063
 21
152.5500680280902088
 31
0.0
  0
ARC
  5
123D2
  8
0
 10
3775.0184511187321732
 20
152.5172092691501007
 30
0.0
 40
0.0164980483040879
 50
228.7944373778869931
 51
311.9769328976598786
  0
ARC
  5
123D3
  8
0
 10
3775.0265574741829369
 20
152.5081989569704035
 30
0.0
 40
0.0043778699118009
 50
311.9769328976382781
 51
50.6172861048208205
  0
ARC
  5
123D4
  8
0
 10
3775.0188430444741243
 20
152.4988014774519911
 30
0.0
 40
0.0165362023226161
 50
50.6172861048409573
 51
136.4989669744716991
  0
ARC
  5
123D5
  8
0
 10
3775.0107836262168348
 20
152.5079771590953897
 30
0.0
 40
0.0045120828117922
 50
150.7120703864623863
 51
224.815114008186498
  0
ARC
  5
123D6
  8
0
 10
3774.6322688969389674
 20
152.6958000397771968
 30
0.0
 40
0.0327407848759809
 50
182.4762321236329115
 51
233.9743497910093026
  0
ARC
  5
123D7
  8
0
 10
3774.6462581963801313
 20
152.7150365427295924
 30
0.0
 40
0.0565261489613922
 50
233.9743497910093026
 51
304.1580969886553021
  0
ARC
  5
123D8
  8
0
 10
3774.6582955046228562
 20
152.6972962870520121
 30
0.0
 40
0.0350875514967077
 50
304.1580969886553021
 51
354.0259984478281012
  0
LINE
  5
123D9
  8
0
 10
3774.5995586844210266
 20
152.6943854757791996
 30
0.0
 11
3774.5986704971601284
 21
152.7407142385968086
 31
0.0
  0
LINE
  5
123DA
  8
0
 10
3774.6931925034750748
 20
152.6936444736481064
 30
0.0
 11
3774.6933234726898263
 21
152.7291563091139039
 31
0.0
  0
ARC
  5
123DB
  8
0
 10
3774.6464619625589876
 20
152.6885032481297912
 30
0.0
 40
0.0164980483040879
 50
228.7944373778869931
 51
311.9769328976598786
  0
ARC
  5
123DC
  8
0
 10
3774.6545683180088417
 20
152.6794929359500941
 30
0.0
 40
0.0043778699118009
 50
311.9769328976382781
 51
50.6172861048208205
  0
ARC
  5
123DD
  8
0
 10
3774.6468538883018482
 20
152.6700954564317954
 30
0.0
 40
0.0165362023226161
 50
50.6172861048409573
 51
136.4989669744716991
  0
ARC
  5
123DE
  8
0
 10
3774.6387944700431945
 20
152.6792711380751086
 30
0.0
 40
0.0045120828117922
 50
150.7120703864623863
 51
224.815114008186498
  0
ARC
  5
123DF
  8
0
 10
3774.3834123178080517
 20
152.9541691107851022
 30
0.0
 40
0.0327407848759809
 50
182.4762321236329115
 51
233.9743497910093026
  0
ARC
  5
123E0
  8
0
 10
3774.3974016172492156
 20
152.9734056137374978
 30
0.0
 40
0.0565261489613922
 50
233.9743497910093026
 51
304.1580969886553021
  0
ARC
  5
123E1
  8
0
 10
3774.4094389254919406
 20
152.9556653580598038
 30
0.0
 40
0.0350875514967077
 50
304.1580969886553021
 51
354.0259984478281012
  0
LINE
  5
123E2
  8
0
 10
3774.3507021052901109
 20
152.9527545467869913
 30
0.0
 11
3774.349759370522861
 21
153.0019285637191047
 31
0.0
  0
LINE
  5
123E3
  8
0
 10
3774.4443359243441591
 20
152.9520135446560118
 30
0.0
 11
3774.4444595219179064
 21
152.9855265861874045
 31
0.0
  0
ARC
  5
123E4
  8
0
 10
3774.3976053834271625
 20
152.9468723191376966
 30
0.0
 40
0.0164980483040879
 50
228.7944373778869931
 51
311.9769328976598786
  0
ARC
  5
123E5
  8
0
 10
3774.4057117388779261
 20
152.9378620069579995
 30
0.0
 40
0.0043778699118009
 50
311.9769328976382781
 51
50.6172861048208205
  0
ARC
  5
123E6
  8
0
 10
3774.3979973091709326
 20
152.9284645274395871
 30
0.0
 40
0.0165362023226161
 50
50.6172861048409573
 51
136.4989669744716991
  0
ARC
  5
123E7
  8
0
 10
3774.3899378909131883
 20
152.937640209083014
 30
0.0
 40
0.0045120828117922
 50
150.7120703864623863
 51
224.815114008186498
  0
ARC
  5
123E8
  8
0
 10
3774.7247663469670442
 20
152.8742500063777072
 30
0.0
 40
0.0327407848759809
 50
182.4762321236329115
 51
233.9743497910093026
  0
ARC
  5
123E9
  8
0
 10
3774.7387556464082081
 20
152.8934865093301028
 30
0.0
 40
0.0565261489613922
 50
233.9743497910093026
 51
304.1580969886553021
  0
ARC
  5
123EA
  8
0
 10
3774.7507929546509331
 20
152.8757462536524088
 30
0.0
 40
0.0350875514967077
 50
304.1580969886553021
 51
354.0259984478281012
  0
LINE
  5
123EB
  8
0
 10
3774.6920561344491034
 20
152.8728354423795963
 30
0.0
 11
3774.6911594124871954
 21
152.9196093839638877
 31
0.0
  0
LINE
  5
123EC
  8
0
 10
3774.7856899535031516
 20
152.8720944402485031
 30
0.0
 11
3774.7857931606549755
 21
152.9000786915536025
 31
0.0
  0
ARC
  5
123ED
  8
0
 10
3774.7389594125870644
 20
152.8669532147301879
 30
0.0
 40
0.0164980483040879
 50
228.7944373778869931
 51
311.9769328976598786
  0
ARC
  5
123EE
  8
0
 10
3774.7470657680369186
 20
152.8579429025506045
 30
0.0
 40
0.0043778699118009
 50
311.9769328976382781
 51
50.6172861048208205
  0
ARC
  5
123EF
  8
0
 10
3774.7393513383290156
 20
152.848545423032192
 30
0.0
 40
0.0165362023226161
 50
50.6172861048409573
 51
136.4989669744716991
  0
ARC
  5
123F0
  8
0
 10
3774.7312919200721808
 20
152.8577211046755053
 30
0.0
 40
0.0045120828117922
 50
150.7120703864623863
 51
224.815114008186498
  0
ARC
  5
123F1
  8
0
 10
3775.0152692382939676
 20
152.6939627593640978
 30
0.0
 40
0.0327407848759809
 50
182.4762321236329115
 51
233.9743497910093026
  0
ARC
  5
123F2
  8
0
 10
3775.029258537734222
 20
152.7131992623164933
 30
0.0
 40
0.0565261489613922
 50
233.9743497910093026
 51
304.1580969886553021
  0
ARC
  5
123F3
  8
0
 10
3775.0412958459778565
 20
152.6954590066387993
 30
0.0
 40
0.0350875514967077
 50
304.1580969886553021
 51
354.0259984478281012
  0
LINE
  5
123F4
  8
0
 10
3774.9825590257751173
 20
152.6925481953661006
 30
0.0
 11
3774.9817193665558079
 21
152.7363456855566142
 31
0.0
  0
LINE
  5
123F5
  8
0
 10
3775.076192844830075
 20
152.6918071932348937
 30
0.0
 11
3775.0763234449577794
 21
152.7272189523899044
 31
0.0
  0
ARC
  5
123F6
  8
0
 10
3775.0294623039130784
 20
152.6866659677166922
 30
0.0
 40
0.0164980483040879
 50
228.7944373778869931
 51
311.9769328976598786
  0
ARC
  5
123F7
  8
0
 10
3775.037568659363842
 20
152.677655655536995
 30
0.0
 40
0.0043778699118009
 50
311.9769328976382781
 51
50.6172861048208205
  0
ARC
  5
123F8
  8
0
 10
3775.029854229655939
 20
152.668258176018611
 30
0.0
 40
0.0165362023226161
 50
50.6172861048409573
 51
136.4989669744716991
  0
ARC
  5
123F9
  8
0
 10
3775.0217948113981947
 20
152.6774338576620096
 30
0.0
 40
0.0045120828117922
 50
150.7120703864623863
 51
224.815114008186498
  0
ARC
  5
123FA
  8
0
 10
3775.3846505951669315
 20
152.6209008986382116
 30
0.0
 40
0.0327407848759809
 50
182.4762321236329115
 51
233.9743497910093026
  0
ARC
  5
123FB
  8
0
 10
3775.3986398946071859
 20
152.6401374015906072
 30
0.0
 40
0.0565261489613922
 50
233.9743497910093026
 51
304.1580969886553021
  0
ARC
  5
123FC
  8
0
 10
3775.4106772028508203
 20
152.6223971459129132
 30
0.0
 40
0.0350875514967077
 50
304.1580969886553021
 51
354.0259984478281012
  0
LINE
  5
123FD
  8
0
 10
3775.3519403826489906
 20
152.619486334640186
 30
0.0
 11
3775.3511898825067874
 21
152.6586331954443096
 31
0.0
  0
LINE
  5
123FE
  8
0
 10
3775.4455742017030389
 20
152.6187453325090928
 30
0.0
 11
3775.4456920707648351
 21
152.6507051081902091
 31
0.0
  0
ARC
  5
123FF
  8
0
 10
3775.3988436607869517
 20
152.613604106990806
 30
0.0
 40
0.0164980483040879
 50
228.7944373778869931
 51
311.9769328976598786
  0
ARC
  5
12400
  8
0
 10
3775.4069500162368058
 20
152.6045937948111089
 30
0.0
 40
0.0043778699118009
 50
311.9769328976382781
 51
50.6172861048208205
  0
ARC
  5
12401
  8
0
 10
3775.3992355865298123
 20
152.5951963152928101
 30
0.0
 40
0.0165362023226161
 50
50.6172861048409573
 51
136.4989669744716991
  0
ARC
  5
12402
  8
0
 10
3775.391176168272068
 20
152.604371996936095
 30
0.0
 40
0.0045120828117922
 50
150.7120703864623863
 51
224.815114008186498
  0
ARC
  5
12403
  8
0
 10
3775.3588880062061435
 20
152.8112005257812029
 30
0.0
 40
0.0327407848759809
 50
182.4762321236329115
 51
233.9743497910093026
  0
ARC
  5
12404
  8
0
 10
3775.3728773056482169
 20
152.8304370287335985
 30
0.0
 40
0.0565261489613922
 50
233.9743497910093026
 51
304.1580969886553021
  0
ARC
  5
12405
  8
0
 10
3775.3849146138909418
 20
152.8126967730559045
 30
0.0
 40
0.0350875514967077
 50
304.1580969886553021
 51
354.0259984478281012
  0
LINE
  5
12406
  8
0
 10
3775.3261777936891121
 20
152.809785961783092
 30
0.0
 11
3775.3254496637350712
 21
152.8477659705218912
 31
0.0
  0
LINE
  5
12407
  8
0
 10
3775.4198116127431604
 20
152.8090449596519989
 30
0.0
 11
3775.4199287959158937
 21
152.8408187591014098
 31
0.0
  0
ARC
  5
12408
  8
0
 10
3775.3730810718261637
 20
152.8039037341337121
 30
0.0
 40
0.0164980483040879
 50
228.7944373778869931
 51
311.9769328976598786
  0
ARC
  5
12409
  8
0
 10
3775.3811874272769273
 20
152.7948934219539865
 30
0.0
 40
0.0043778699118009
 50
311.9769328976382781
 51
50.6172861048208205
  0
ARC
  5
1240A
  8
0
 10
3775.3734729975690243
 20
152.7854959424356878
 30
0.0
 40
0.0165362023226161
 50
50.6172861048409573
 51
136.4989669744716991
  0
ARC
  5
1240B
  8
0
 10
3775.3654135793108253
 20
152.794671624079001
 30
0.0
 40
0.0045120828117922
 50
150.7120703864623863
 51
224.815114008186498
  0
ARC
  5
1240C
  8
0
 10
3775.0889870188912028
 20
152.8882115738942105
 30
0.0
 40
0.0327407848759809
 50
182.4762321236329115
 51
233.9743497910093026
  0
ARC
  5
1240D
  8
0
 10
3775.1029763183319119
 20
152.907448076846606
 30
0.0
 40
0.0565261489613922
 50
233.9743497910093026
 51
304.1580969886553021
  0
ARC
  5
1240E
  8
0
 10
3775.1150136265750916
 20
152.8897078211689973
 30
0.0
 40
0.0350875514967077
 50
304.1580969886553021
 51
354.0259984478281012
  0
LINE
  5
1240F
  8
0
 10
3775.0562768063728072
 20
152.8867970098962132
 30
0.0
 11
3775.0554844233852236
 21
152.9281285231469951
 31
0.0
  0
LINE
  5
12410
  8
0
 10
3775.1499106254268554
 20
152.8860560077650916
 30
0.0
 11
3775.1500406113259487
 21
152.9213012207677025
 31
0.0
  0
ARC
  5
12411
  8
0
 10
3775.1031800845098587
 20
152.8809147822468049
 30
0.0
 40
0.0164980483040879
 50
228.7944373778869931
 51
311.9769328976598786
  0
ARC
  5
12412
  8
0
 10
3775.1112864399610771
 20
152.871904470067193
 30
0.0
 40
0.0043778699118009
 50
311.9769328976382781
 51
50.6172861048208205
  0
ARC
  5
12413
  8
0
 10
3775.1035720102540836
 20
152.8625069905486953
 30
0.0
 40
0.0165362023226161
 50
50.6172861048409573
 51
136.4989669744716991
  0
ARC
  5
12414
  8
0
 10
3775.0955125919958846
 20
152.8716826721920938
 30
0.0
 40
0.0045120828117922
 50
150.7120703864623863
 51
224.815114008186498
  0
ARC
  5
12415
  8
0
 10
3774.9094031101840301
 20
153.0510001860135958
 30
0.0
 40
0.0327407848759809
 50
182.4762321236329115
 51
233.9743497910093026
  0
ARC
  5
12416
  8
0
 10
3774.923392409625194
 20
153.0702366889659913
 30
0.0
 40
0.0565261489613922
 50
233.9743497910093026
 51
304.1580969886553021
  0
ARC
  5
12417
  8
0
 10
3774.935429717867919
 20
153.0524964332882973
 30
0.0
 40
0.0350875514967077
 50
304.1580969886553021
 51
354.0259984478281012
  0
LINE
  5
12418
  8
0
 10
3774.8766928976660893
 20
153.0495856220155133
 30
0.0
 11
3774.875935003954055
 21
153.0891181390562963
 31
0.0
  0
LINE
  5
12419
  8
0
 10
3774.9703267167201375
 20
153.0488446198843917
 30
0.0
 11
3774.9704636975029644
 21
153.0859864707238955
 31
0.0
  0
ARC
  5
1241A
  8
0
 10
3774.9235961758040503
 20
153.0437033943661902
 30
0.0
 40
0.0164980483040879
 50
228.7944373778869931
 51
311.9769328976598786
  0
ARC
  5
1241B
  8
0
 10
3774.9317025312539045
 20
153.034693082186493
 30
0.0
 40
0.0043778699118009
 50
311.9769328976382781
 51
50.6172861048208205
  0
ARC
  5
1241C
  8
0
 10
3774.9239881015469109
 20
153.025295602668109
 30
0.0
 40
0.0165362023226161
 50
50.6172861048409573
 51
136.4989669744716991
  0
ARC
  5
1241D
  8
0
 10
3774.9159286832878024
 20
153.0344712843113939
 30
0.0
 40
0.0045120828117922
 50
150.7120703864623863
 51
224.815114008186498
  0
ARC
  5
1241E
  8
0
 10
3774.5724448687569748
 20
153.1246390281754088
 30
0.0
 40
0.0327407848759809
 50
182.4762321236329115
 51
233.9743497910093026
  0
ARC
  5
1241F
  8
0
 10
3774.5864341681981387
 20
153.1438755311278044
 30
0.0
 40
0.0565261489613922
 50
233.9743497910093026
 51
304.1580969886553021
  0
ARC
  5
12420
  8
0
 10
3774.5984714764408636
 20
153.1261352754501104
 30
0.0
 40
0.0350875514967077
 50
304.1580969886553021
 51
354.0259984478281012
  0
LINE
  5
12421
  8
0
 10
3774.5397346562390339
 20
153.1232244641774116
 30
0.0
 11
3774.5389609460721658
 21
153.1635819838101895
 31
0.0
  0
LINE
  5
12422
  8
0
 10
3774.6333684752930822
 20
153.12248346204629
 30
0.0
 11
3774.6335274615230446
 21
153.1655920114164928
 31
0.0
  0
ARC
  5
12423
  8
0
 10
3774.586637934376995
 20
153.1173422365280032
 30
0.0
 40
0.0164980483040879
 50
228.7944373778869931
 51
311.9769328976598786
  0
ARC
  5
12424
  8
0
 10
3774.5947442898268491
 20
153.1083319243483061
 30
0.0
 40
0.0043778699118009
 50
311.9769328976382781
 51
50.6172861048208205
  0
ARC
  5
12425
  8
0
 10
3774.5870298601189461
 20
153.0989344448298937
 30
0.0
 40
0.0165362023226161
 50
50.6172861048409573
 51
136.4989669744716991
  0
ARC
  5
12426
  8
0
 10
3774.5789704418612018
 20
153.1081101264732922
 30
0.0
 40
0.0045120828117922
 50
150.7120703864623863
 51
224.815114008186498
  0
ARC
  5
12427
  8
0
 10
3774.0268864459990255
 20
153.0888617873777946
 30
0.0
 40
0.0327407848759809
 50
182.4762321236329115
 51
233.9743497910093026
  0
ARC
  5
12428
  8
0
 10
3774.0408757454401893
 20
153.1080982903301901
 30
0.0
 40
0.0565261489613922
 50
233.9743497910093026
 51
304.1580969886553021
  0
ARC
  5
12429
  8
0
 10
3774.0529130536829143
 20
153.0903580346524961
 30
0.0
 40
0.0350875514967077
 50
304.1580969886553021
 51
354.0259984478281012
  0
LINE
  5
1242A
  8
0
 10
3773.9941762334810846
 20
153.0874472233797121
 30
0.0
 11
3774.0008221884199884
 21
153.1443555119028872
 31
0.0
  0
LINE
  5
1242B
  8
0
 10
3774.0878100525351329
 20
153.0867062212485905
 30
0.0
 11
3774.0938015375108989
 21
153.119289624694602
 31
0.0
  0
ARC
  5
1242C
  8
0
 10
3774.0410795116190457
 20
153.081564995730389
 30
0.0
 40
0.0164980483040879
 50
228.7944373778869931
 51
311.9769328976598786
  0
ARC
  5
1242D
  8
0
 10
3774.0491858670688998
 20
153.0725546835506918
 30
0.0
 40
0.0043778699118009
 50
311.9769328976382781
 51
50.6172861048208205
  0
ARC
  5
1242E
  8
0
 10
3774.0414714373619063
 20
153.0631572040323078
 30
0.0
 40
0.0165362023226161
 50
50.6172861048409573
 51
136.4989669744716991
  0
ARC
  5
1242F
  8
0
 10
3774.033412019104162
 20
153.0723328856755927
 30
0.0
 40
0.0045120828117922
 50
150.7120703864623863
 51
224.815114008186498
  0
ARC
  5
12430
  8
0
 10
3774.2938752127101907
 20
153.2589653552726077
 30
0.0
 40
0.0327407848759809
 50
182.4762321236329115
 51
233.9743497910093026
  0
ARC
  5
12431
  8
0
 10
3774.3078645121508998
 20
153.2782018582250032
 30
0.0
 40
0.0565261489613922
 50
233.9743497910093026
 51
304.1580969886553021
  0
ARC
  5
12432
  8
0
 10
3774.3199018203940796
 20
153.2604616025473092
 30
0.0
 40
0.0350875514967077
 50
304.1580969886553021
 51
354.0259984478281012
  0
LINE
  5
12433
  8
0
 10
3774.2611650001917951
 20
153.2575507912744968
 30
0.0
 11
3774.2603481696010022
 21
153.3001575166823045
 31
0.0
  0
LINE
  5
12434
  8
0
 10
3774.3547988192458433
 20
153.2568097891434036
 30
0.0
 11
3774.3549650393838419
 21
153.3018797866382954
 31
0.0
  0
ARC
  5
12435
  8
0
 10
3774.3080682783302109
 20
153.2516685636250884
 30
0.0
 40
0.0164980483040879
 50
228.7944373778869931
 51
311.9769328976598786
  0
ARC
  5
12436
  8
0
 10
3774.3161746337800651
 20
153.2426582514455049
 30
0.0
 40
0.0043778699118009
 50
311.9769328976382781
 51
50.6172861048208205
  0
ARC
  5
12437
  8
0
 10
3774.3084602040730715
 20
153.2332607719270925
 30
0.0
 40
0.0165362023226161
 50
50.6172861048409573
 51
136.4989669744716991
  0
ARC
  5
12438
  8
0
 10
3774.3004007858148725
 20
153.2424364535704058
 30
0.0
 40
0.0045120828117922
 50
150.7120703864623863
 51
224.815114008186498
  0
ARC
  5
12439
  8
0
 10
3774.0002518282831261
 20
153.4408712280022939
 30
0.0
 40
0.0327407848759809
 50
182.4762321236329115
 51
233.9743497910093026
  0
ARC
  5
1243A
  8
0
 10
3774.0142411277229257
 20
153.4601077309546895
 30
0.0
 40
0.0565261489613922
 50
233.9743497910093026
 51
304.1580969886553021
  0
ARC
  5
1243B
  8
0
 10
3774.026278435967015
 20
153.4423674752769955
 30
0.0
 40
0.0350875514967077
 50
304.1580969886553021
 51
354.0259984478281012
  0
LINE
  5
1243C
  8
0
 10
3773.967541615763821
 20
153.4394566640042115
 30
0.0
 11
3773.9753748804691895
 21
153.4810990990665118
 31
0.0
  0
LINE
  5
1243D
  8
0
 10
3774.0611754348187787
 20
153.4387156618730899
 30
0.0
 11
3774.0612687977932183
 21
153.464030699417691
 31
0.0
  0
ARC
  5
1243E
  8
0
 10
3774.0144448939017821
 20
153.4335744363548031
 30
0.0
 40
0.0164980483040879
 50
228.7944373778869931
 51
311.9769328976598786
  0
ARC
  5
1243F
  8
0
 10
3774.022551249352091
 20
153.4245641241751912
 30
0.0
 40
0.0043778699118009
 50
311.9769328976382781
 51
50.6172861048208205
  0
ARC
  5
12440
  8
0
 10
3774.0148368196450974
 20
153.4151666446568072
 30
0.0
 40
0.0165362023226161
 50
50.6172861048409573
 51
136.4989669744716991
  0
ARC
  5
12441
  8
0
 10
3774.0067774013878079
 20
153.4243423263000921
 30
0.0
 40
0.0045120828117922
 50
150.7120703864623863
 51
224.815114008186498
  0
ARC
  5
12442
  8
0
 10
3774.868699914960871
 20
153.2523481718324092
 30
0.0
 40
0.0327407848759809
 50
182.4762321236329115
 51
233.9743497910093026
  0
ARC
  5
12443
  8
0
 10
3774.8826892144011254
 20
153.27158467478489
 30
0.0
 40
0.0565261489613922
 50
233.9743497910093026
 51
304.1580969886553021
  0
ARC
  5
12444
  8
0
 10
3774.8947265226438503
 20
153.253844419107196
 30
0.0
 40
0.0350875514967077
 50
304.1580969886553021
 51
354.0259984478281012
  0
LINE
  5
12445
  8
0
 10
3774.8359897024420206
 20
153.250933607834412
 30
0.0
 11
3774.8352806849461558
 21
153.2879166911066022
 31
0.0
  0
LINE
  5
12446
  8
0
 10
3774.9296235214960689
 20
153.2501926057032904
 30
0.0
 11
3774.9352140407158913
 21
153.2871501171483999
 31
0.0
  0
ARC
  5
12447
  8
0
 10
3774.8828929805799817
 20
153.2450513801850036
 30
0.0
 40
0.0164980483040879
 50
228.7944373778869931
 51
311.9769328976598786
  0
ARC
  5
12448
  8
0
 10
3774.8909993360312001
 20
153.2360410680053917
 30
0.0
 40
0.0043778699118009
 50
311.9769328976382781
 51
50.6172861048208205
  0
ARC
  5
12449
  8
0
 10
3774.8832849063228423
 20
153.2266435884870077
 30
0.0
 40
0.0165362023226161
 50
50.6172861048409573
 51
136.4989669744716991
  0
ARC
  5
1244A
  8
0
 10
3774.875225488065098
 20
153.2358192701302926
 30
0.0
 40
0.0045120828117922
 50
150.7120703864623863
 51
224.815114008186498
  0
ARC
  5
1244B
  8
0
 10
3774.3926773068028524
 20
153.1189488065874968
 30
0.0
 40
0.4397577642941712
 50
240.4511944918513109
 51
269.1946322697314145
  0
ARC
  5
1244C
  8
0
 10
3774.3908656397711638
 20
152.6953112594738116
 30
0.0
 40
0.0166599891886206
 50
254.7948831449801048
 51
4.623614450034462
  0
ARC
  5
1244D
  8
0
 10
3774.1744400141760707
 20
152.5741509560903921
 30
0.0
 40
0.2632692191435769
 50
27.7306456344997798
 51
67.44777407280543
  0
ARC
  5
1244E
  8
0
 10
3774.209483220427046
 20
152.6846908818114059
 30
0.0
 40
0.1480824501690733
 50
63.5634669454571295
 51
104.9973825908759011
  0
ARC
  5
1244F
  8
0
 10
3774.1776292936979189
 20
152.7875199511915127
 30
0.0
 40
0.0407259350821063
 50
99.1355677042404437
 51
228.1483930838022047
  0
ARC
  5
12450
  8
0
 10
3774.2268570302089756
 20
152.8244580391684053
 30
0.0
 40
0.1017976602925465
 50
221.3653676517249949
 51
239.8999100744030102
  0
ARC
  5
12451
  8
0
 10
3774.2237363452081809
 20
153.316186274105803
 30
0.0
 40
0.3526979618522641
 50
222.4177991202155908
 51
257.2441325872676998
  0
ARC
  5
12452
  8
0
 10
3774.1528248319250451
 20
153.0029515000379945
 30
0.0
 40
0.0315368396699393
 50
257.2441325872676998
 51
320.9610780450274206
  0
ARC
  5
12453
  8
0
 10
3774.0015766018800605
 20
152.9904243277269984
 30
0.0
 40
0.1758965255454503
 50
357.609628506960803
 51
51.5689233229700505
  0
ARC
  5
12454
  8
0
 10
3774.0147836131782242
 20
153.0196255602683948
 30
0.0
 40
0.1450226095946532
 50
48.4838622946358413
 51
95.439158204079618
  0
ARC
  5
12455
  8
0
 10
3774.0025698248177832
 20
153.1121826203576859
 30
0.0
 40
0.0518352382339264
 50
91.6944256447903001
 51
220.8469028064411077
  0
ARC
  5
12456
  8
0
 10
3774.1787776782398396
 20
153.5486573491712932
 30
0.0
 40
0.2698321225838934
 50
201.4404976719366971
 51
244.2195229344906977
  0
ARC
  5
12457
  8
0
 10
3774.0791687063328936
 20
153.3298637502454937
 30
0.0
 40
0.0299952172799418
 50
233.7236713168180131
 51
312.902243636502476
  0
ARC
  5
12458
  8
0
 10
3773.9816000383098071
 20
153.3896461819562944
 30
0.0
 40
0.1435441699515328
 50
325.2817145918323831
 51
29.7520963100550695
  0
ARC
  5
12459
  8
0
 10
3773.9999104284502209
 20
153.3992963021698017
 30
0.0
 40
0.1228606305239928
 50
30.0824829939420511
 51
82.0045561106814773
  0
ARC
  5
1245A
  8
0
 10
3773.996432920504958
 20
153.4258626141221953
 30
0.0
 40
0.0972985178407023
 50
77.7969040836673855
 51
117.6769156224846
  0
ARC
  5
1245B
  8
0
 10
3773.9731836086530166
 20
153.4681673436483891
 30
0.0
 40
0.0490442908696153
 50
116.5796079896263961
 51
201.7113826177001954
  0
ARC
  5
1245C
  8
0
 10
3774.9984257853020608
 20
152.7312480772390018
 30
0.0
 40
0.2520331105195957
 50
280.536374733251705
 51
310.8596818977126759
  0
ARC
  5
1245D
  8
0
 10
3775.1567334281280637
 20
152.5482326637531969
 30
0.0
 40
0.0100497405322836
 50
310.8596818977147791
 51
22.5268843992448602
  0
ARC
  5
1245E
  8
0
 10
3775.1472672005470486
 20
152.5393810459264046
 30
0.0
 40
0.0226465947944113
 50
34.1161308269828183
 51
77.2545888237356451
  0
ARC
  5
1245F
  8
0
 10
3775.0205048179109326
 20
152.0934777433108991
 30
0.0
 40
0.4861859199765854
 50
74.2759401820325422
 51
93.3406636723307486
  0
ARC
  5
12460
  8
0
 10
3774.9905806275160103
 20
152.4952362724660873
 30
0.0
 40
0.0836163942633404
 50
88.9084462927448413
 51
138.8181572598006142
  0
ARC
  5
12461
  8
0
 10
3774.9710252063669031
 20
152.5373719623854925
 30
0.0
 40
0.0452599948133767
 50
163.4114220256840895
 51
242.8386104760272985
  0
ARC
  5
12462
  8
0
 10
3775.016571519684021
 20
152.6223624925366948
 30
0.0
 40
0.1416804573537421
 50
242.1407537573294917
 51
281.3739230553654806
  0
ARC
  5
12463
  8
0
 10
3774.9861097025768686
 20
152.5534830810121889
 30
0.0
 40
0.0368470161588424
 50
203.9178476374376032
 51
247.3243837642199878
  0
ARC
  5
12464
  8
0
 10
3774.969007252495885
 20
152.5458979438741096
 30
0.0
 40
0.0181379781244775
 50
119.7526487067085981
 51
203.9178476374376032
  0
ARC
  5
12465
  8
0
 10
3775.0075491566208257
 20
152.4784708332068135
 30
0.0
 40
0.0958032446627589
 50
68.710894389272724
 51
119.7526487067085981
  0
ARC
  5
12466
  8
0
 10
3775.0234702721540998
 20
152.5193293365391014
 30
0.0
 40
0.0519523699351829
 50
38.533903476904527
 51
68.710894389272724
  0
ARC
  5
12467
  8
0
 10
3775.0474676811900281
 20
152.538440932986191
 30
0.0
 40
0.021274547991761
 50
326.4483714712379196
 51
38.533903476903248
  0
ARC
  5
12468
  8
0
 10
3775.3541759610770896
 20
152.6169641586313048
 30
0.0
 40
0.0464019289074636
 50
121.8113593735864981
 51
156.8872991810372071
  0
ARC
  5
12469
  8
0
 10
3775.3406237580461493
 20
152.6227482141026996
 30
0.0
 40
0.031667021214971
 50
156.8872991810385997
 51
238.1837388018348918
  0
ARC
  5
1246A
  8
0
 10
3775.3916179433422258
 20
152.6887003566650947
 30
0.0
 40
0.1149128095964356
 50
233.9106536199471122
 51
312.0043838514113759
  0
ARC
  5
1246B
  8
0
 10
3775.3850928280658081
 20
152.6672779589929121
 30
0.0
 40
0.1051257843929243
 50
322.5191946240971106
 51
14.1543467415538409
  0
ARC
  5
1246C
  8
0
 10
3775.4659579551871502
 20
152.6813338384496888
 30
0.0
 40
0.024075990476869
 50
28.9422426961335297
 51
77.4031525288874747
  0
ARC
  5
1246D
  8
0
 10
3775.4635312344607883
 20
152.6704745074042933
 30
0.0
 40
0.0352031664097528
 50
77.4031525288874747
 51
102.4344365443836011
  0
ARC
  5
1246E
  8
0
 10
3775.5113789691317834
 20
152.371796398248506
 30
0.0
 40
0.337636214962017
 50
99.4486815478807955
 51
122.550474127653203
  0
ARC
  5
1246F
  8
0
 10
3775.0047658958787906
 20
152.8191669255832892
 30
0.0
 40
0.176873986196164
 50
294.0147980643394021
 51
330.1961238263820064
  0
ARC
  5
12470
  8
0
 10
3775.1492810660920441
 20
152.7363893232993917
 30
0.0
 40
0.0103304007251184
 50
330.1961238263820064
 51
63.6922139079272327
  0
ARC
  5
12471
  8
0
 10
3775.1187930406467785
 20
152.6747225903856133
 30
0.0
 40
0.0791221563633069
 50
63.6922139079272327
 51
75.3688792400376002
  0
ARC
  5
12472
  8
0
 10
3775.0739312910818626
 20
152.2708125128501138
 30
0.0
 40
0.4848228959483109
 50
82.3133519997826255
 51
100.2103224311526048
  0
ARC
  5
12473
  8
0
 10
3775.0170147620979151
 20
152.653933107879908
 30
0.0
 40
0.0984022768879621
 50
107.1547951908708001
 51
137.3512675605786058
  0
ARC
  5
12474
  8
0
 10
3774.9802831803299341
 20
152.7028620019358982
 30
0.0
 40
0.039815303196339
 50
153.5428849025913962
 51
242.8237794524810056
  0
ARC
  5
12475
  8
0
 10
3775.0289007914461763
 20
152.7729574247101141
 30
0.0
 40
0.124884152617034
 50
237.6618537533273923
 51
292.5282440610238268
  0
ARC
  5
12476
  8
0
 10
3774.6776751498609883
 20
153.0074104469966869
 30
0.0
 40
0.3577103598756419
 50
262.3005578247957033
 51
289.5284987981293057
  0
ARC
  5
12477
  8
0
 10
3774.7930385321387803
 20
152.6821485523306023
 30
0.0
 40
0.0125958714919086
 50
289.5284987981298173
 51
57.3951358534699381
  0
ARC
  5
12478
  8
0
 10
3774.5576688149171787
 20
152.3141800114615023
 30
0.0
 40
0.4494021796586327
 50
57.3951358534708334
 51
77.1388646712529038
  0
ARC
  5
12479
  8
0
 10
3774.6300823416581807
 20
152.6313425274649092
 30
0.0
 40
0.1240780637179118
 50
77.1388646712529038
 51
115.0283524704319973
  0
ARC
  5
1247A
  8
0
 10
3774.5928336721481173
 20
152.711119465729098
 30
0.0
 40
0.036033624603073
 50
115.0283524704326936
 51
219.1159082315728028
  0
ARC
  5
1247B
  8
0
 10
3774.6507393233550829
 20
152.7683954775370125
 30
0.0
 40
0.1173625263680843
 50
222.9788164130422956
 51
259.6978717368480147
  0
ARC
  5
1247C
  8
0
 10
3775.0709101189449939
 20
153.0022731657456916
 30
0.0
 40
0.176873986196164
 50
298.5346765179548925
 51
334.7160022799949957
  0
ARC
  5
1247D
  8
0
 10
3775.2214991407358866
 20
152.9311415105034939
 30
0.0
 40
0.0103304007251184
 50
334.7160022799949957
 51
68.2120923615368469
  0
ARC
  5
1247E
  8
0
 10
3775.1959655762289003
 20
152.8672639500668993
 30
0.0
 40
0.0791221563633069
 50
68.2120923615368469
 51
79.8887576936514989
  0
ARC
  5
1247F
  8
0
 10
3775.1830734642439893
 20
152.4610746829052061
 30
0.0
 40
0.4848228959483109
 50
86.8332304533796844
 51
104.7302008847542965
  0
ARC
  5
12480
  8
0
 10
3775.0961421372148834
 20
152.8385184879788881
 30
0.0
 40
0.0984022768879621
 50
111.6746736444822972
 51
141.8711460141861949
  0
ARC
  5
12481
  8
0
 10
3775.0556689488971642
 20
152.8844005847064977
 30
0.0
 40
0.039815303196339
 50
158.0627633561979053
 51
247.3436579060791018
  0
ARC
  5
12482
  8
0
 10
3775.0986114944030305
 20
152.9581093236043898
 30
0.0
 40
0.124884152617034
 50
242.1817322069285865
 51
297.0481225146399993
  0
ARC
  5
12483
  8
0
 10
3774.7476453594949817
 20
153.1887413953483019
 30
0.0
 40
0.3577103598756419
 50
266.1093575509469815
 51
293.3372985243050266
  0
ARC
  5
12484
  8
0
 10
3774.8843601555358873
 20
152.8718611740725066
 30
0.0
 40
0.0125958714919086
 50
293.3372985243050266
 51
61.2039355796325069
  0
ARC
  5
12485
  8
0
 10
3774.6739534046550943
 20
152.4890704348457007
 30
0.0
 40
0.4494021796586327
 50
61.2039355796325069
 51
80.9476643974320069
  0
ARC
  5
12486
  8
0
 10
3774.7251387892329149
 20
152.810342650915004
 30
0.0
 40
0.1240780637179118
 50
80.9476643974320069
 51
118.8371521966053024
  0
ARC
  5
12487
  8
0
 10
3774.6826730373459213
 20
152.8874690612790914
 30
0.0
 40
0.036033624603073
 50
118.8371521966053024
 51
222.924707957743891
  0
ARC
  5
12488
  8
0
 10
3774.7366461090541634
 20
152.9484650734497961
 30
0.0
 40
0.1173625263680843
 50
226.7876161392022993
 51
263.5066714630000888
  0
ARC
  5
12489
  8
0
 10
3774.4934458371449182
 20
153.2482679193605861
 30
0.0
 40
0.3577103598756419
 50
250.4220819289161
 51
277.6500229022590815
  0
ARC
  5
1248A
  8
0
 10
3774.5393880765050199
 20
152.9062250554750904
 30
0.0
 40
0.0125958714919086
 50
277.6500229022590815
 51
45.516659957595202
  0
ARC
  5
1248B
  8
0
 10
3774.2571947820579226
 20
152.6713660200703941
 30
0.0
 40
0.3796747079821899
 50
39.9597095170665071
 51
60.8774092663665911
  0
ARC
  5
1248C
  8
0
 10
3774.3835494994577857
 20
152.9033319470659933
 30
0.0
 40
0.1155668317845295
 50
59.6318415986259183
 51
111.477690537063296
  0
ARC
  5
1248D
  8
0
 10
3774.3494336009671315
 20
152.9757850799886967
 30
0.0
 40
0.036033624603073
 50
103.1498765745674007
 51
207.23743233569121
  0
ARC
  5
1248E
  8
0
 10
3774.4178887808288891
 20
153.0199155039667005
 30
0.0
 40
0.1173625263680843
 50
211.1003405171595944
 51
247.819395840955508
  0
ARC
  5
1248F
  8
0
 10
3774.6149053163740064
 20
152.7208494995427941
 30
0.0
 40
0.0278471191768776
 50
188.1751325413640927
 51
236.4026179060666095
  0
ARC
  5
12490
  8
0
 10
3774.6111642458490678
 20
152.7203120603537059
 30
0.0
 40
0.0240676417580265
 50
124.1600712300830054
 51
188.1751325413640927
  0
ARC
  5
12491
  8
0
 10
3774.6367480991571028
 20
152.6595983869659108
 30
0.0
 40
0.089608510531303
 50
52.0064821075394619
 51
115.8693271924850023
  0
ARC
  5
12492
  8
0
 10
3774.6770519843121292
 20
152.7089277297073124
 30
0.0
 40
0.0259606771641384
 50
305.3106229181058779
 51
55.0910134907095497
  0
ARC
  5
12493
  8
0
 10
3774.0204808106627752
 20
153.1219989278777973
 30
0.0
 40
0.033287186911476
 50
178.7113957325834122
 51
221.6953449600611066
  0
ARC
  5
12494
  8
0
 10
3774.0120387145511813
 20
153.1221888259073012
 30
0.0
 40
0.0248429552684372
 50
115.5881816258191037
 51
178.7113957325850038
  0
ARC
  5
12495
  8
0
 10
3774.0310554398251952
 20
153.0716351208606909
 30
0.0
 40
0.0787910179553451
 50
27.1262149733081195
 51
112.1810968462114033
  0
ARC
  5
12496
  8
0
 10
3774.0827798540731237
 20
153.0994757235656039
 30
0.0
 40
0.0200976074602657
 50
280.207773815810981
 51
23.7191301936973993
  0
ARC
  5
12497
  8
0
 10
3774.3750506582719026
 20
152.9834827853306933
 30
0.0
 40
0.033287186911476
 50
178.7113957325834122
 51
222.5919522625717946
  0
ARC
  5
12498
  8
0
 10
3774.3666085621589446
 20
152.9836726833603109
 30
0.0
 40
0.0248429552684372
 50
115.5881816258191037
 51
178.7113957325850038
  0
ARC
  5
12499
  8
0
 10
3774.3856252874338679
 20
152.9331189783135869
 30
0.0
 40
0.0787910179553451
 50
27.1262149733081195
 51
112.1810968462114033
  0
ARC
  5
1249A
  8
0
 10
3774.4373497016817964
 20
152.9609595810186136
 30
0.0
 40
0.0200976074602657
 50
281.7532087606147115
 51
23.7191301936973993
  0
ARC
  5
1249B
  8
0
 10
3774.714851529733096
 20
152.8998080280103125
 30
0.0
 40
0.033287186911476
 50
178.7113957325834122
 51
226.6539847753728054
  0
ARC
  5
1249C
  8
0
 10
3774.7064094336210474
 20
152.8999979260397879
 30
0.0
 40
0.0248429552684372
 50
115.5881816258191037
 51
178.7113957325850038
  0
ARC
  5
1249D
  8
0
 10
3774.7254261588950612
 20
152.849444220993206
 30
0.0
 40
0.0787910179553451
 50
27.1262149733081195
 51
112.1810968462114033
  0
ARC
  5
1249E
  8
0
 10
3774.7771505731429897
 20
152.8772848236980906
 30
0.0
 40
0.0200976074602657
 50
280.3840782476448226
 51
23.7191301936973993
  0
ARC
  5
1249F
  8
0
 10
3775.0719287860652003
 20
152.9027297886146073
 30
0.0
 40
0.0290202897225502
 50
124.4495813599657055
 51
241.6743151733363106
  0
ARC
  5
124A0
  8
0
 10
3775.1349013262138214
 20
152.8996099717151935
 30
0.0
 40
0.0262712179117652
 50
298.795388989759374
 51
46.9831569389917405
  0
ARC
  5
124A1
  8
0
 10
3775.0959040318348343
 20
152.857815132802898
 30
0.0
 40
0.0834341213417865
 50
46.9831569389917405
 51
80.9482663290780238
  0
ARC
  5
124A2
  8
0
 10
3775.1302788549669458
 20
153.2894921168376925
 30
0.0
 40
0.2339663950684888
 50
288.48524959879569
 51
318.8534802044708272
  0
ARC
  5
124A3
  8
0
 10
3775.2978485072349031
 20
153.1430720310474101
 30
0.0
 40
0.0114390262263759
 50
318.8534802044720209
 51
48.2161729584641492
  0
ARC
  5
124A4
  8
0
 10
3775.2892565524130077
 20
153.1334569917630972
 30
0.0
 40
0.0243336246339298
 50
48.2161729584641492
 51
79.5460969456913745
  0
ARC
  5
124A5
  8
0
 10
3775.210906533402067
 20
152.7668778551606863
 30
0.0
 40
0.3991832226613322
 50
78.0336950640900824
 51
98.8480920422856713
  0
ARC
  5
124A6
  8
0
 10
3775.1582436119770136
 20
153.0934388562837967
 30
0.0
 40
0.0684318987143135
 50
97.3356901606902341
 51
148.8279198051035905
  0
ARC
  5
124A7
  8
0
 10
3775.1378854722629512
 20
153.1148779176888013
 30
0.0
 40
0.0406721791343685
 50
159.8931080262005935
 51
234.3878565714908007
  0
ARC
  5
124A8
  8
0
 10
3775.1727044914659928
 20
153.1596164900319081
 30
0.0
 40
0.0973447223185123
 50
233.0598781359973088
 51
289.0395494898306197
  0
ARC
  5
124A9
  8
0
 10
3774.9171113863890241
 20
153.2381723727945939
 30
0.0
 40
0.2339663950684888
 50
275.882871397865074
 51
306.251102003507981
  0
ARC
  5
124AA
  8
0
 10
3775.0486974181681035
 20
153.0587189077286041
 30
0.0
 40
0.0114390262263759
 50
306.251102003507981
 51
35.6137947575248077
  0
ARC
  5
124AB
  8
0
 10
3775.0382146179258598
 20
153.0512101417066901
 30
0.0
 40
0.0243336246339298
 50
35.6137947575235003
 51
66.9437187447262119
  0
ARC
  5
124AC
  8
0
 10
3774.8817706202330555
 20
152.7105574381259885
 30
0.0
 40
0.3991832226613322
 50
65.4313168631526452
 51
86.2457138413286231
  0
ARC
  5
124AD
  8
0
 10
3774.9016267728720777
 20
153.0407410294050123
 30
0.0
 40
0.0684318987143135
 50
84.7333119597385718
 51
136.2255416041554099
  0
ARC
  5
124AE
  8
0
 10
3774.8864367622268219
 20
153.0661053898967054
 30
0.0
 40
0.0406721791343685
 50
147.2907298252559087
 51
221.7854783705365946
  0
ARC
  5
124AF
  8
0
 10
3774.930178140839871
 20
153.1021691632788873
 30
0.0
 40
0.0973447223185123
 50
220.4574999350450923
 51
276.4371712888695924
  0
ARC
  5
124B0
  8
0
 10
3774.6566748797131368
 20
153.410532062221904
 30
0.0
 40
0.3436188120207638
 50
255.985619724351011
 51
282.4674871711710011
  0
ARC
  5
124B1
  8
0
 10
3774.7268788288420183
 20
153.0857411486855142
 30
0.0
 40
0.0114390262263759
 50
290.3522890781010233
 51
19.7149818320907784
  0
ARC
  5
124B2
  8
0
 10
3774.7147400812559681
 20
153.0813912664868042
 30
0.0
 40
0.0243336246339298
 50
19.7149818320907784
 51
51.0449058193020804
  0
ARC
  5
124B3
  8
0
 10
3774.508749750080824
 20
152.914836863320204
 30
0.0
 40
0.2887397995915817
 50
39.9686150213434033
 51
65.3358577770036533
  0
ARC
  5
124B4
  8
0
 10
3774.5782355873161578
 20
153.0778235188151939
 30
0.0
 40
0.1117322383724562
 50
62.8390552814726533
 51
115.7620735294974992
  0
ARC
  5
124B5
  8
0
 10
3774.5497611563541795
 20
153.1386654428254133
 30
0.0
 40
0.0445687864506009
 50
116.7902796711173039
 51
209.4138955326367011
  0
ARC
  5
124B6
  8
0
 10
3774.5973619761589362
 20
153.1839758656861932
 30
0.0
 40
0.1094754232409318
 50
217.8666399684057922
 51
257.3901508425112183
  0
ARC
  5
124B7
  8
0
 10
3774.4789137806460531
 20
153.5254205033876929
 30
0.0
 40
0.3701628524089693
 50
232.4128718544789081
 51
257.6911023585799967
  0
ARC
  5
124B8
  8
0
 10
3774.4063193364968356
 20
153.1874253879518903
 30
0.0
 40
0.0244876018121027
 50
255.048933002541105
 51
335.1170904622206876
  0
ARC
  5
124B9
  8
0
 10
3774.2468369532521137
 20
153.1709353571023939
 30
0.0
 40
0.1818020802050991
 50
1.950080776884908
 51
41.6936287655528304
  0
ARC
  5
124BA
  8
0
 10
3774.2973624348028352
 20
153.2128680944396137
 30
0.0
 40
0.1162053099714325
 50
42.8253677415201466
 51
63.9489489240360527
  0
ARC
  5
124BB
  8
0
 10
3774.2973917073409211
 20
153.2178560323611123
 30
0.0
 40
0.1117322383724562
 50
62.8390552814726533
 51
115.7620735294974992
  0
ARC
  5
124BC
  8
0
 10
3774.2689172763789429
 20
153.2786979563713032
 30
0.0
 40
0.0445687864506009
 50
116.7902796711173039
 51
209.4138955326367011
  0
ARC
  5
124BD
  8
0
 10
3774.331868017251054
 20
153.328563400447706
 30
0.0
 40
0.1245256513467296
 50
215.1849309002082009
 51
230.7776967840252098
  0
ARC
  5
124BE
  8
0
 10
3775.3650854547031486
 20
152.6398669785004927
 30
0.0
 40
0.0331193009156181
 50
204.9418666269640141
 51
251.0532783921624116
  0
ARC
  5
124BF
  8
0
 10
3775.3546236030351793
 20
152.6350014537437119
 30
0.0
 40
0.0215813777281466
 50
122.1439255251834055
 51
204.9418666269640141
  0
ARC
  5
124C0
  8
0
 10
3775.3927263458808739
 20
152.5875202651081963
 30
0.0
 40
0.0823548823725216
 50
51.8707792658103131
 51
127.0197453660522058
  0
ARC
  5
124C1
  8
0
 10
3775.4325544927010014
 20
152.6354949205885134
 30
0.0
 40
0.0200984020326069
 50
310.3957183578493186
 51
56.7465991066940987
  0
ARC
  5
124C2
  8
0
 10
3774.9948739032902267
 20
152.7171517831278891
 30
0.0
 40
0.0331193009156181
 50
204.9418666269640141
 51
249.9141236052278998
  0
ARC
  5
124C3
  8
0
 10
3774.9844120516218027
 20
152.7122862583711083
 30
0.0
 40
0.0215813777281466
 50
122.1439255251834055
 51
204.9418666269640141
  0
ARC
  5
124C4
  8
0
 10
3775.022514794467952
 20
152.6648050697357064
 30
0.0
 40
0.0823548823725216
 50
51.8707792658103131
 51
127.0197453660522058
  0
ARC
  5
124C5
  8
0
 10
3775.0623429412880796
 20
152.7127797252159098
 30
0.0
 40
0.0200984020326069
 50
313.652651055359172
 51
56.7465991066940987
  0
ARC
  5
124C6
  8
0
 10
3774.8933259849018214
 20
153.0725122807527896
 30
0.0
 40
0.0331193009156181
 50
204.9418666269640141
 51
241.573011033157286
  0
ARC
  5
124C7
  8
0
 10
3774.882864133233852
 20
153.0676467559960088
 30
0.0
 40
0.0215813777281466
 50
122.1439255251834055
 51
204.9418666269640141
  0
ARC
  5
124C8
  8
0
 10
3774.9209668760800014
 20
153.0201655673606069
 30
0.0
 40
0.0823548823725216
 50
51.8707792658103131
 51
127.0197453660522058
  0
ARC
  5
124C9
  8
0
 10
3774.9607950228992195
 20
153.0681402228408956
 30
0.0
 40
0.0200984020326069
 50
298.3297764876958809
 51
56.7465991066940987
  0
ARC
  5
124CA
  8
0
 10
3774.5608208004350672
 20
153.1440162297433005
 30
0.0
 40
0.0316173927912927
 50
191.8602025098091133
 51
228.8218314343071995
  0
ARC
  5
124CB
  8
0
 10
3774.5550360911202006
 20
153.1428013961557895
 30
0.0
 40
0.0257064975543124
 50
143.4915009840059952
 51
191.8602025098091133
  0
ARC
  5
124CC
  8
0
 10
3774.5830160120981418
 20
153.1220909200870892
 30
0.0
 40
0.060517412464955
 50
93.6103013367978747
 51
143.4915009840046878
  0
ARC
  5
124CD
  8
0
 10
3774.5842289366678415
 20
153.1028671901534892
 30
0.0
 40
0.079779369234026
 50
48.2637609498226823
 51
93.6103013367978747
  0
ARC
  5
124CE
  8
0
 10
3774.6107717988511467
 20
153.1430212584293997
 30
0.0
 40
0.0328832767879823
 50
311.8885499672684887
 51
36.1085590433639894
  0
ARC
  5
124CF
  8
0
 10
3774.2863630784731868
 20
153.2855022100310123
 30
0.0
 40
0.0316173927912927
 50
191.8602025098091133
 51
216.6325929455015
  0
ARC
  5
124D0
  8
0
 10
3774.2805783691578654
 20
153.2842873764435012
 30
0.0
 40
0.0257064975543124
 50
143.4915009840059952
 51
191.8602025098091133
  0
ARC
  5
124D1
  8
0
 10
3774.3085582901358066
 20
153.263576900374801
 30
0.0
 40
0.060517412464955
 50
93.6103013367978747
 51
143.4915009840046878
  0
ARC
  5
124D2
  8
0
 10
3774.2997746984369769
 20
153.2445557944791972
 30
0.0
 40
0.0795739518362226
 50
26.5911953302064497
 51
86.4170816525387693
  0
ARC
  5
124D3
  8
0
 10
3774.3473794063888818
 20
153.2715465349473902
 30
0.0
 40
0.0250828866479349
 50
281.2724246351389183
 51
20.1202101382924106
  0
ARC
  5
124D4
  8
0
 10
3773.99828829721082
 20
153.470620302218407
 30
0.0
 40
0.0327482513924583
 50
136.7425135374465128
 51
211.0347407745850887
  0
ARC
  5
124D5
  8
0
 10
3774.0130987142829326
 20
153.4327995978505896
 30
0.0
 40
0.0715973197858444
 50
21.7945385604611914
 51
122.6815546498712024
  0
ARC
  5
124D6
  8
0
 10
3774.0480244129198582
 20
153.453419393463605
 30
0.0
 40
0.0321123921820459
 50
282.3335333138821852
 51
10.7011079554283004
  0
ARC
  5
124D7
  8
0
 10
3774.0131137989751551
 20
153.4463562927062128
 30
0.0
 40
0.0512960872169726
 50
20.1547328941223292
 51
137.3670367724398886
  0
ARC
  5
124D8
  8
0
 10
3775.5657389960911132
 20
152.9963161472419984
 30
0.0
 40
0.0327407848759809
 50
306.0256502089907258
 51
357.523767876367117
  0
ARC
  5
124D9
  8
0
 10
3775.5517496966508588
 20
153.0155526501943939
 30
0.0
 40
0.0565261489613922
 50
235.8419030113446979
 51
306.0256502089907258
  0
ARC
  5
124DA
  8
0
 10
3775.5397123884081338
 20
152.9978123945166999
 30
0.0
 40
0.0350875514967077
 50
185.9740015521718988
 51
235.8419030113446979
  0
LINE
  5
124DB
  8
0
 10
3775.598449208609054
 20
152.9949015832438874
 30
0.0
 11
3775.5991661611769814
 21
153.0322985679941894
 31
0.0
  0
LINE
  5
124DC
  8
0
 10
3775.5048153895550058
 20
152.9941605811127943
 30
0.0
 11
3775.5046809568830213
 21
153.0306115210049995
 31
0.0
  0
ARC
  5
124DD
  8
0
 10
3775.551545930471093
 20
152.9890193555945075
 30
0.0
 40
0.0164980483040879
 50
228.023067102340093
 51
311.2055626221131206
  0
ARC
  5
124DE
  8
0
 10
3775.5434395750207841
 20
152.9800090434148956
 30
0.0
 40
0.0043778699118009
 50
129.3827138951791937
 51
228.0230671023616082
  0
ARC
  5
124DF
  8
0
 10
3775.5511540047277776
 20
152.9706115638965116
 30
0.0
 40
0.0165362023226161
 50
43.5010330255282511
 51
129.3827138951589859
  0
ARC
  5
124E0
  8
0
 10
3775.5592134229868861
 20
152.9797872455397965
 30
0.0
 40
0.0045120828117922
 50
315.1848859918134735
 51
29.2879296135375711
  0
ARC
  5
124E1
  8
0
 10
3775.5793698009838408
 20
153.0106456135210067
 30
0.0
 40
0.0316173927912927
 50
301.6611056357916141
 51
348.1397974901909151
  0
ARC
  5
124E2
  8
0
 10
3775.5851545102991622
 20
153.0094307799334103
 30
0.0
 40
0.0257064975543124
 50
348.1397974901909151
 51
36.5084990159939693
  0
ARC
  5
124E3
  8
0
 10
3775.557174589321221
 20
152.9887203038647101
 30
0.0
 40
0.060517412464955
 50
36.5084990159952767
 51
86.3896986632021253
  0
ARC
  5
124E4
  8
0
 10
3775.5559616647510666
 20
152.9694965739311101
 30
0.0
 40
0.079779369234026
 50
86.3896986632021253
 51
131.7362390501772893
  0
ARC
  5
124E5
  8
0
 10
3775.5294188025682161
 20
153.0096506422069922
 30
0.0
 40
0.0328832767879823
 50
143.8914409566359893
 51
226.3619653312281912
  0
ARC
  5
124E6
  8
0
 10
3775.5915388301718849
 20
153.0007020390407888
 30
0.0
 40
0.0348167189060985
 50
339.9760244032000855
 51
40.6964929807835816
  0
ARC
  5
124E7
  8
0
 10
3775.5824392377830918
 20
153.0040183326541126
 30
0.0
 40
0.0445017787922032
 50
297.3132727448356718
 51
339.9760244031986076
  0
ARC
  5
124E8
  8
0
 10
3775.5453849178829842
 20
153.0757689754161106
 30
0.0
 40
0.1252555858845767
 50
276.4368394675757941
 51
297.3132727448356718
  0
ARC
  5
124E9
  8
0
 10
3775.5504873343279542
 20
153.0305424366046054
 30
0.0
 40
0.079742132198531
 50
214.3470058538534033
 51
276.4368394675757941
  0
ARC
  5
124EA
  8
0
 10
3775.6013738649121478
 20
153.0346665638114985
 30
0.0
 40
0.1266368051098518
 50
157.3652381660081119
 51
202.8202167447643092
  0
ARC
  5
124EB
  8
0
 10
3775.505418781463959
 20
153.0692014472481048
 30
0.0
 40
0.0252916425209118
 50
66.8177245283196015
 51
145.838449056921803
  0
ARC
  5
124EC
  8
0
 10
3775.4410415358879618
 20
152.87134233187831
 30
0.0
 40
0.2332691539501876
 50
40.6830175837764898
 51
71.4181080255218887
  0
ARC
  5
124ED
  8
0
 10
3775.7282841977471435
 20
153.1090430350957092
 30
0.0
 40
0.0327407848759809
 50
306.0256502089907258
 51
357.523767876367117
  0
ARC
  5
124EE
  8
0
 10
3775.7142948983068891
 20
153.1282795380481048
 30
0.0
 40
0.0565261489613922
 50
235.8419030113446979
 51
306.0256502089907258
  0
ARC
  5
124EF
  8
0
 10
3775.7022575900641641
 20
153.1105392823704108
 30
0.0
 40
0.0350875514967077
 50
185.9740015521718988
 51
235.8419030113446979
  0
LINE
  5
124F0
  8
0
 10
3775.7609944102659938
 20
153.107628471097712
 30
0.0
 11
3775.7617113628330117
 21
153.1450254558479003
 31
0.0
  0
LINE
  5
124F1
  8
0
 10
3775.6673605912101266
 20
153.1068874689665904
 30
0.0
 11
3775.667226158538142
 21
153.1433384088587104
 31
0.0
  0
ARC
  5
124F2
  8
0
 10
3775.7140911321271233
 20
153.1017462434483036
 30
0.0
 40
0.0164980483040879
 50
228.023067102340093
 51
311.2055626221131206
  0
ARC
  5
124F3
  8
0
 10
3775.7059847766768144
 20
153.0927359312686065
 30
0.0
 40
0.0043778699118009
 50
129.3827138951791937
 51
228.0230671023616082
  0
ARC
  5
124F4
  8
0
 10
3775.7136992063838079
 20
153.0833384517503077
 30
0.0
 40
0.0165362023226161
 50
43.5010330255282511
 51
129.3827138951589859
  0
ARC
  5
124F5
  8
0
 10
3775.7217586246429164
 20
153.0925141333935926
 30
0.0
 40
0.0045120828117922
 50
315.1848859918134735
 51
29.2879296135375711
  0
ARC
  5
124F6
  8
0
 10
3775.7419150026398711
 20
153.1233725013746891
 30
0.0
 40
0.0316173927912927
 50
301.6611056357916141
 51
348.1397974901909151
  0
ARC
  5
124F7
  8
0
 10
3775.7476997119551925
 20
153.1221576677872065
 30
0.0
 40
0.0257064975543124
 50
348.1397974901909151
 51
36.5084990159939693
  0
ARC
  5
124F8
  8
0
 10
3775.7197197909767965
 20
153.1014471917185062
 30
0.0
 40
0.060517412464955
 50
36.5084990159952767
 51
86.3896986632021253
  0
ARC
  5
124F9
  8
0
 10
3775.7185068664070968
 20
153.0822234617849062
 30
0.0
 40
0.079779369234026
 50
86.3896986632021253
 51
131.7362390501772893
  0
ARC
  5
124FA
  8
0
 10
3775.6919640042237916
 20
153.1223775300607883
 30
0.0
 40
0.0328832767879823
 50
143.8914409566359893
 51
226.3619653312281912
  0
ARC
  5
124FB
  8
0
 10
3775.7521169469719098
 20
153.2894921168376925
 30
0.0
 40
0.2339663950684888
 50
221.1465197955292865
 51
251.51475040120431
  0
ARC
  5
124FC
  8
0
 10
3775.584547294704862
 20
153.1430720310474101
 30
0.0
 40
0.0114390262263759
 50
131.7838270415358011
 51
221.1465197955280928
  0
ARC
  5
124FD
  8
0
 10
3775.5931392495258478
 20
153.1334569917630972
 30
0.0
 40
0.0243336246339298
 50
100.4539030543085971
 51
131.7838270415358011
  0
ARC
  5
124FE
  8
0
 10
3775.6714892685381528
 20
152.7668778551606863
 30
0.0
 40
0.3991832226613322
 50
81.151907957714343
 51
101.9663049359099034
  0
ARC
  5
124FF
  8
0
 10
3775.7241521899632062
 20
153.0934388562837967
 30
0.0
 40
0.0684318987143135
 50
31.1720801948963988
 51
82.6643098393097659
  0
ARC
  5
12500
  8
0
 10
3775.7445103296781781
 20
153.1148779176888013
 30
0.0
 40
0.0406721791343685
 50
305.6121434285092278
 51
20.1068919737994101
  0
ARC
  5
12501
  8
0
 10
3775.7096913104742271
 20
153.1596164900319081
 30
0.0
 40
0.0973447223185123
 50
250.9604505101694087
 51
306.9401218640027196
  0
ARC
  5
12502
  8
0
 10
3775.2908569717669707
 20
153.3717877223500921
 30
0.0
 40
0.0348167189060985
 50
159.976024403200114
 51
220.6964929807834892
  0
ARC
  5
12503
  8
0
 10
3775.2999565641580375
 20
153.3684714287367967
 30
0.0
 40
0.0445017787922032
 50
117.3132727448356007
 51
159.9760244031986076
  0
ARC
  5
12504
  8
0
 10
3775.3370108840558714
 20
153.2967207859747987
 30
0.0
 40
0.1252555858845767
 50
96.4368394675757798
 51
117.3132727448356007
  0
ARC
  5
12505
  8
0
 10
3775.3319084676118109
 20
153.3419473247861902
 30
0.0
 40
0.079742132198531
 50
34.3470058538534175
 51
96.4368394675757798
  0
ARC
  5
12506
  8
0
 10
3775.281021937028072
 20
153.3378231975792971
 30
0.0
 40
0.1266368051098518
 50
337.3652381660081119
 51
22.8202167447642701
  0
ARC
  5
12507
  8
0
 10
3775.3769770204758061
 20
153.3032883141426908
 30
0.0
 40
0.0252916425209118
 50
246.8177245283195873
 51
325.8384490569217746
  0
ARC
  5
12508
  8
0
 10
3775.4413542660518033
 20
153.501147429512514
 30
0.0
 40
0.2332691539501876
 50
220.6830175837764898
 51
251.4181080255218887
  0
ARC
  5
12509
  8
0
 10
3775.1302788549669458
 20
153.0829976445531031
 30
0.0
 40
0.2339663950684888
 50
41.146519795529251
 51
71.5147504012042532
  0
ARC
  5
1250A
  8
0
 10
3775.2978485072349031
 20
153.229417730343414
 30
0.0
 40
0.0114390262263759
 50
311.7838270415358011
 51
41.1465197955280217
  0
ARC
  5
1250B
  8
0
 10
3775.2892565524130077
 20
153.2390327696276984
 30
0.0
 40
0.0243336246339298
 50
280.4539030543086255
 51
311.7838270415358011
  0
ARC
  5
1250C
  8
0
 10
3775.210906533402067
 20
153.6056119062301093
 30
0.0
 40
0.3991832226613322
 50
261.1519079577142861
 51
281.966304935909875
  0
ARC
  5
1250D
  8
0
 10
3775.1582436119770136
 20
153.2790509051071126
 30
0.0
 40
0.0684318987143135
 50
211.1720801948964095
 51
262.6643098393097944
  0
ARC
  5
1250E
  8
0
 10
3775.1378854722629512
 20
153.257611843702108
 30
0.0
 40
0.0406721791343685
 50
125.6121434285091993
 51
200.1068919737994065
  0
ARC
  5
1250F
  8
0
 10
3775.1727044914659928
 20
153.2128732713588875
 30
0.0
 40
0.0973447223185123
 50
70.9604505101694087
 51
126.9401218640027054
  0
ARC
  5
12510
  8
0
 10
3775.5915388301718849
 20
153.3717877223500921
 30
0.0
 40
0.0348167189060985
 50
319.3035070192165108
 51
20.0239755967998612
  0
ARC
  5
12511
  8
0
 10
3775.5824392377830918
 20
153.3684714287367967
 30
0.0
 40
0.0445017787922032
 50
20.0239755968013888
 51
62.6867272551643424
  0
ARC
  5
12512
  8
0
 10
3775.5453849178829842
 20
153.2967207859747987
 30
0.0
 40
0.1252555858845767
 50
62.6867272551643424
 51
83.5631605324242344
  0
ARC
  5
12513
  8
0
 10
3775.5504873343279542
 20
153.3419473247861902
 30
0.0
 40
0.079742132198531
 50
83.5631605324242344
 51
145.6529941461465967
  0
ARC
  5
12514
  8
0
 10
3775.6013738649121478
 20
153.3378231975792971
 30
0.0
 40
0.1266368051098518
 50
157.1797832552356908
 51
202.6347618339918881
  0
ARC
  5
12515
  8
0
 10
3775.505418781463959
 20
153.3032883141426908
 30
0.0
 40
0.0252916425209118
 50
214.1615509430781117
 51
293.1822754716803843
  0
ARC
  5
12516
  8
0
 10
3775.4410415358879618
 20
153.501147429512514
 30
0.0
 40
0.2332691539501876
 50
288.5818919744781965
 51
319.3169824162234818
  0
ARC
  5
12517
  8
0
 10
3775.7521169469719098
 20
153.0829976445531031
 30
0.0
 40
0.2339663950684888
 50
108.4852495987957042
 51
138.8534802044707135
  0
ARC
  5
12518
  8
0
 10
3775.584547294704862
 20
153.229417730343414
 30
0.0
 40
0.0114390262263759
 50
138.8534802044719072
 51
228.2161729584641137
  0
ARC
  5
12519
  8
0
 10
3775.5931392495258478
 20
153.2390327696276984
 30
0.0
 40
0.0243336246339298
 50
228.2161729584641137
 51
259.5460969456913745
  0
ARC
  5
1251A
  8
0
 10
3775.6714892685381528
 20
153.6056119062301093
 30
0.0
 40
0.3991832226613322
 50
258.033695064090125
 51
278.8480920422856002
  0
ARC
  5
1251B
  8
0
 10
3775.7241521899632062
 20
153.2790509051071126
 30
0.0
 40
0.0684318987143135
 50
277.3356901606902056
 51
328.8279198051037042
  0
ARC
  5
1251C
  8
0
 10
3775.7445103296781781
 20
153.257611843702108
 30
0.0
 40
0.0406721791343685
 50
339.8931080262005935
 51
54.3878565714907865
  0
ARC
  5
1251D
  8
0
 10
3775.7096913104742271
 20
153.2128732713588875
 30
0.0
 40
0.0973447223185123
 50
53.0598781359972875
 51
109.0395494898306055
  0
ARC
  5
1251E
  8
0
 10
3775.7282841977471435
 20
153.2711824263892879
 30
0.0
 40
0.0327407848759809
 50
306.0256502089907258
 51
357.523767876367117
  0
ARC
  5
1251F
  8
0
 10
3775.7142948983068891
 20
153.2904189293415982
 30
0.0
 40
0.0565261489613922
 50
235.8419030113446979
 51
306.0256502089907258
  0
ARC
  5
12520
  8
0
 10
3775.7022575900641641
 20
153.2726786736639895
 30
0.0
 40
0.0350875514967077
 50
185.9740015521718988
 51
235.8419030113446979
  0
LINE
  5
12521
  8
0
 10
3775.7609944102659938
 20
153.2697678623912054
 30
0.0
 11
3775.7614838232489092
 21
153.2952961479390979
 31
0.0
  0
LINE
  5
12522
  8
0
 10
3775.6673605912101266
 20
153.2690268602601122
 30
0.0
 11
3775.6672425748488422
 21
153.3010265760690913
 31
0.0
  0
ARC
  5
12523
  8
0
 10
3775.7140911321271233
 20
153.263885634741797
 30
0.0
 40
0.0164980483040879
 50
228.023067102340093
 51
311.2055626221131206
  0
ARC
  5
12524
  8
0
 10
3775.7059847766768144
 20
153.2548753225622136
 30
0.0
 40
0.0043778699118009
 50
129.3827138951791937
 51
228.0230671023616082
  0
ARC
  5
12525
  8
0
 10
3775.7136992063838079
 20
153.2454778430438012
 30
0.0
 40
0.0165362023226161
 50
43.5010330255282511
 51
129.3827138951589859
  0
ARC
  5
12526
  8
0
 10
3775.7217586246429164
 20
153.254653524687086
 30
0.0
 40
0.0045120828117922
 50
315.1848859918134735
 51
29.2879296135375711
  0
ARC
  5
12527
  8
0
 10
3775.5666686342578942
 20
153.384196542760094
 30
0.0
 40
0.0327407848759809
 50
306.0256502089907258
 51
357.523767876367117
  0
ARC
  5
12528
  8
0
 10
3775.552679334817185
 20
153.4034330457124895
 30
0.0
 40
0.0565261489613922
 50
235.8419030113446979
 51
306.0256502089907258
  0
ARC
  5
12529
  8
0
 10
3775.5406420265740053
 20
153.3856927900347955
 30
0.0
 40
0.0350875514967077
 50
185.9740015521718988
 51
235.8419030113446979
  0
LINE
  5
1252A
  8
0
 10
3775.599378846775835
 20
153.3827819787620115
 30
0.0
 11
3775.5998909751951942
 21
153.4094951248627865
 31
0.0
  0
LINE
  5
1252B
  8
0
 10
3775.5057450277217868
 20
153.3820409766308899
 30
0.0
 11
3775.5056496965739825
 21
153.4078896775513101
 31
0.0
  0
ARC
  5
1252C
  8
0
 10
3775.5524755686378739
 20
153.3768997511126884
 30
0.0
 40
0.0164980483040879
 50
228.023067102340093
 51
311.2055626221131206
  0
ARC
  5
1252D
  8
0
 10
3775.5443692131880198
 20
153.3678894389329912
 30
0.0
 40
0.0043778699118009
 50
129.3827138951791937
 51
228.0230671023616082
  0
ARC
  5
1252E
  8
0
 10
3775.5520836428950133
 20
153.3584919594146072
 30
0.0
 40
0.0165362023226161
 50
43.5010330255282511
 51
129.3827138951589859
  0
ARC
  5
1252F
  8
0
 10
3775.5601430611541218
 20
153.3676676410578921
 30
0.0
 40
0.0045120828117922
 50
315.1848859918134735
 51
29.2879296135375711
  0
ARC
  5
12530
  8
0
 10
3775.3403679864782134
 20
153.3827076989635998
 30
0.0
 40
0.0327407848759809
 50
306.0256502089907258
 51
357.523767876367117
  0
ARC
  5
12531
  8
0
 10
3775.3263786870370495
 20
153.4019442019159953
 30
0.0
 40
0.0565261489613922
 50
235.8419030113446979
 51
306.0256502089907258
  0
ARC
  5
12532
  8
0
 10
3775.3143413787929603
 20
153.3842039462383013
 30
0.0
 40
0.0350875514967077
 50
185.9740015521718988
 51
235.8419030113446979
  0
LINE
  5
12533
  8
0
 10
3775.3730781989961542
 20
153.3812931349656026
 30
0.0
 11
3775.3736267492508887
 21
153.4099060815777023
 31
0.0
  0
LINE
  5
12534
  8
0
 10
3775.2794443799411965
 20
153.3805521328343957
 30
0.0
 11
3775.279343477868224
 21
153.4079113702846087
 31
0.0
  0
ARC
  5
12535
  8
0
 10
3775.3261749208581932
 20
153.3754109073161942
 30
0.0
 40
0.0164980483040879
 50
228.023067102340093
 51
311.2055626221131206
  0
ARC
  5
12536
  8
0
 10
3775.3180685654069748
 20
153.366400595136497
 30
0.0
 40
0.0043778699118009
 50
129.3827138951791937
 51
228.0230671023616082
  0
ARC
  5
12537
  8
0
 10
3775.3257829951148778
 20
153.357003115618113
 30
0.0
 40
0.0165362023226161
 50
43.5010330255282511
 51
129.3827138951589859
  0
ARC
  5
12538
  8
0
 10
3775.3338424133730769
 20
153.3661787972615116
 30
0.0
 40
0.0045120828117922
 50
315.1848859918134735
 51
29.2879296135375711
  0
ARC
  5
12539
  8
0
 10
3775.1820034108900472
 20
153.2692323432524972
 30
0.0
 40
0.0327407848759809
 50
306.0256502089907258
 51
357.523767876367117
  0
ARC
  5
1253A
  8
0
 10
3775.1680141114488833
 20
153.2884688462048928
 30
0.0
 40
0.0565261489613922
 50
235.8419030113446979
 51
306.0256502089907258
  0
ARC
  5
1253B
  8
0
 10
3775.1559768032061584
 20
153.2707285905271988
 30
0.0
 40
0.0350875514967077
 50
185.9740015521718988
 51
235.8419030113446979
  0
LINE
  5
1253C
  8
0
 10
3775.2147136234079881
 20
153.2678177792543863
 30
0.0
 11
3775.2153488208841736
 21
153.3009503341907873
 31
0.0
  0
LINE
  5
1253D
  8
0
 10
3775.1210798043539398
 20
153.2670767771232931
 30
0.0
 11
3775.1209755827958361
 21
153.2953360809825938
 31
0.0
  0
ARC
  5
1253E
  8
0
 10
3775.167810345270027
 20
153.2619355516050916
 30
0.0
 40
0.0164980483040879
 50
228.023067102340093
 51
311.2055626221131206
  0
ARC
  5
1253F
  8
0
 10
3775.1597039898201729
 20
153.2529252394253945
 30
0.0
 40
0.0043778699118009
 50
129.3827138951791937
 51
228.0230671023616082
  0
ARC
  5
12540
  8
0
 10
3775.1674184195280759
 20
153.2435277599070105
 30
0.0
 40
0.0165362023226161
 50
43.5010330255282511
 51
129.3827138951589859
  0
ARC
  5
12541
  8
0
 10
3775.1754778377849107
 20
153.2527034415502953
 30
0.0
 40
0.0045120828117922
 50
315.1848859918134735
 51
29.2879296135375711
  0
ARC
  5
12542
  8
0
 10
3775.4361649087431942
 20
152.4620232052282915
 30
0.0
 40
0.0327407848759809
 50
182.4762321236329115
 51
233.9743497910093026
  0
ARC
  5
12543
  8
0
 10
3775.4501542081829939
 20
152.4812597081806871
 30
0.0
 40
0.0565261489613922
 50
233.9743497910093026
 51
304.1580969886553021
  0
ARC
  5
12544
  8
0
 10
3775.4621915164270831
 20
152.4635194525029931
 30
0.0
 40
0.0350875514967077
 50
304.1580969886553021
 51
354.0259984478281012
  0
LINE
  5
12545
  8
0
 10
3775.4034546962247987
 20
152.4606086412302943
 30
0.0
 11
3775.4026146891769713
 21
152.5044242744961025
 31
0.0
  0
LINE
  5
12546
  8
0
 10
3775.4970885152802111
 20
152.4598676390992011
 30
0.0
 11
3775.4971907387639476
 21
152.4875851725209941
 31
0.0
  0
ARC
  5
12547
  8
0
 10
3775.4503579743632145
 20
152.4547264135808859
 30
0.0
 40
0.0164980483040879
 50
228.7944373778869931
 51
311.9769328976598786
  0
ARC
  5
12548
  8
0
 10
3775.4584643298130686
 20
152.4457161014011888
 30
0.0
 40
0.0043778699118009
 50
311.9769328976382781
 51
50.6172861048208205
  0
ARC
  5
12549
  8
0
 10
3775.4507499001060751
 20
152.4363186218828048
 30
0.0
 40
0.0165362023226161
 50
50.6172861048409573
 51
136.4989669744716991
  0
ARC
  5
1254A
  8
0
 10
3775.4426904818478761
 20
152.4454943035262033
 30
0.0
 40
0.0045120828117922
 50
150.7120703864623863
 51
224.815114008186498
  0
ARC
  5
1254B
  8
0
 10
3775.3815475621167934
 20
152.6591157158574106
 30
0.0
 40
0.2520331105195957
 50
294.1854364234492891
 51
324.5087435879132727
  0
ARC
  5
1254C
  8
0
 10
3775.5785714205539989
 20
152.5186253227439863
 30
0.0
 40
0.0100497405322836
 50
324.5087435879173086
 51
36.1759460894483595
  0
ARC
  5
1254D
  8
0
 10
3775.5714612802821648
 20
152.5077898943681873
 30
0.0
 40
0.0226465947944113
 50
47.765192517197157
 51
90.903650513936384
  0
ARC
  5
1254E
  8
0
 10
3775.5535004788071092
 20
152.0445665502398072
 30
0.0
 40
0.4861859199765854
 50
87.925001872222893
 51
106.9897253625340028
  0
ARC
  5
1254F
  8
0
 10
3775.4296166788071787
 20
152.4279177952060991
 30
0.0
 40
0.0836163942633404
 50
102.5575079829402938
 51
152.4672189500089132
  0
ARC
  5
12550
  8
0
 10
3775.4006705763808895
 20
152.4642489666103984
 30
0.0
 40
0.0452599948133767
 50
177.0604837158842031
 51
256.4876721662469095
  0
ARC
  5
12551
  8
0
 10
3775.4248750483789081
 20
152.5575870639092102
 30
0.0
 40
0.1416804573537421
 50
255.7898154475365118
 51
295.0229847455678964
  0
ARC
  5
12552
  8
0
 10
3775.4180165582079098
 20
152.4910002254430026
 30
0.0
 40
0.0368470161588424
 50
203.9178476374376032
 51
247.3243837642199878
  0
ARC
  5
12553
  8
0
 10
3775.4009141081269263
 20
152.4834150883048949
 30
0.0
 40
0.0181379781244775
 50
119.7526487067085981
 51
203.9178476374376032
  0
ARC
  5
12554
  8
0
 10
3775.4394560122509574
 20
152.4159879776375988
 30
0.0
 40
0.0958032446627589
 50
68.710894389272724
 51
119.7526487067085981
  0
ARC
  5
12555
  8
0
 10
3775.4553771277837768
 20
152.4568464809698867
 30
0.0
 40
0.0519523699351829
 50
38.533903476904527
 51
68.710894389272724
  0
ARC
  5
12556
  8
0
 10
3775.4793745368201598
 20
152.4759580774170047
 30
0.0
 40
0.021274547991761
 50
326.4483714712379196
 51
38.533903476903248
  0
ARC
  5
12557
  8
0
 10
3775.3316829056598181
 20
152.8083978164677035
 30
0.0
 40
0.0464019289074636
 50
121.8113593735864981
 51
156.8872991810372071
  0
ARC
  5
12558
  8
0
 10
3775.3181307026279683
 20
152.814181871939212
 30
0.0
 40
0.031667021214971
 50
156.8872991810385997
 51
238.1837388018348918
  0
ARC
  5
12559
  8
0
 10
3775.3691248879240447
 20
152.880134014501607
 30
0.0
 40
0.1149128095964356
 50
233.9106536199471122
 51
312.0043838514113759
  0
ARC
  5
1255A
  8
0
 10
3775.3625997726480819
 20
152.8587116168293107
 30
0.0
 40
0.1051257843929243
 50
322.5191946240971106
 51
14.1543467415538409
  0
ARC
  5
1255B
  8
0
 10
3775.4434648997689692
 20
152.8727674962860874
 30
0.0
 40
0.024075990476869
 50
28.9422426961335297
 51
77.4031525288874747
  0
ARC
  5
1255C
  8
0
 10
3775.441038179043062
 20
152.8619081652406919
 30
0.0
 40
0.0352031664097528
 50
77.4031525288874747
 51
102.4344365443836011
  0
ARC
  5
1255D
  8
0
 10
3775.4888859137140571
 20
152.5632300560849899
 30
0.0
 40
0.337636214962017
 50
99.4486815478807955
 51
122.550474127653203
  0
ARC
  5
1255E
  8
0
 10
3775.3432768967718403
 20
152.8274236816801022
 30
0.0
 40
0.0356255834351451
 50
203.8570020003197953
 51
249.9341831858760088
  0
ARC
  5
1255F
  8
0
 10
3775.3335243672299839
 20
152.8231107086164968
 30
0.0
 40
0.0249619269747272
 50
126.296276109365607
 51
203.857002000321188
  0
ARC
  5
12560
  8
0
 10
3775.3811416511439347
 20
152.7582788005965995
 30
0.0
 40
0.1054018550252493
 50
101.3648706619203068
 51
126.296276109365607
  0
ARC
  5
12561
  8
0
 10
3775.3725773323121757
 20
152.8008879035963901
 30
0.0
 40
0.0619405709268097
 50
36.4293919376802009
 51
101.3648706619203068
  0
ARC
  5
12562
  8
0
 10
3775.4019660348089928
 20
152.8225784032327965
 30
0.0
 40
0.0254142296238527
 50
311.4265492245186238
 51
36.4293919376802009
  0
ARC
  5
12563
  8
0
 10
3775.9721126324861871
 20
152.4231437215869107
 30
0.0
 40
0.0520153081540849
 50
228.6248427659857043
 51
250.6824061917702124
  0
ARC
  5
12564
  8
0
 10
3775.9526257678130605
 20
152.4010208828925101
 30
0.0
 40
0.022533824359664
 50
201.7251057352418968
 51
228.6248427659857043
  0
ARC
  5
12565
  8
0
 10
3775.9448694203911145
 20
152.3979303198049138
 30
0.0
 40
0.0141844228532366
 50
141.6986817260466864
 51
201.7251057352418968
  0
ARC
  5
12566
  8
0
 10
3775.9701482930199745
 20
152.3779653247630108
 30
0.0
 40
0.0463965700710483
 50
109.7853042357180016
 51
141.6986817260466864
  0
ARC
  5
12567
  8
0
 10
3775.9905412477842219
 20
152.3212760963274945
 30
0.0
 40
0.1066422439790375
 50
69.3727726550760337
 51
109.7853042357180016
  0
ARC
  5
12568
  8
0
 10
3776.0143540566591582
 20
152.384537751984908
 30
0.0
 40
0.0390472223939873
 50
34.2335493026159128
 51
69.3727726550760337
  0
ARC
  5
12569
  8
0
 10
3776.0352081498008374
 20
152.3987280369096027
 30
0.0
 40
0.0138230794556389
 50
336.4280254516061177
 51
34.2335493026159128
  0
ARC
  5
1256A
  8
0
 10
3775.9869012692802244
 20
152.3810028238166865
 30
0.0
 40
0.0327407848759809
 50
182.4762321236329115
 51
233.9743497910093026
  0
ARC
  5
1256B
  8
0
 10
3776.0008905687209335
 20
152.4002393267691104
 30
0.0
 40
0.0565261489613922
 50
233.9743497910093026
 51
304.1580969886553021
  0
ARC
  5
1256C
  8
0
 10
3776.0129278769641132
 20
152.382499071091388
 30
0.0
 40
0.0350875514967077
 50
304.1580969886553021
 51
354.0259984478281012
  0
ARC
  5
1256D
  8
0
 10
3775.9710203286081196
 20
152.4239782640125895
 30
0.0
 40
0.0443115390536155
 50
207.6793041128048003
 51
247.5872269287544896
  0
LINE
  5
1256E
  8
0
 10
3775.9541910567609193
 20
152.379588259818604
 30
0.0
 11
3775.9533927129668882
 21
152.4212306948809044
 31
0.0
  0
LINE
  5
1256F
  8
0
 10
3776.047824875815877
 20
152.3788472576875108
 30
0.0
 11
3776.0479182387898618
 21
152.404162295232112
 31
0.0
  0
ARC
  5
12570
  8
0
 10
3776.0010943348997898
 20
152.3737060321693093
 30
0.0
 40
0.0164980483040879
 50
228.7944373778869931
 51
311.9769328976598786
  0
ARC
  5
12571
  8
0
 10
3776.0092006903500987
 20
152.3646957199896121
 30
0.0
 40
0.0043778699118009
 50
311.9769328976382781
 51
50.6172861048208205
  0
ARC
  5
12572
  8
0
 10
3776.0014862606431052
 20
152.3552982404711997
 30
0.0
 40
0.0165362023226161
 50
50.6172861048409573
 51
136.4989669744716991
  0
ARC
  5
12573
  8
0
 10
3775.9934268423839967
 20
152.364473922114513
 30
0.0
 40
0.0045120828117922
 50
150.7120703864623863
 51
224.815114008186498
  0
ARC
  5
12574
  8
0
 10
3775.8529508229789826
 20
152.5710134425841886
 30
0.0
 40
0.0520153081540849
 50
228.6248427659857043
 51
250.6824061917702124
  0
ARC
  5
12575
  8
0
 10
3775.8334639583058561
 20
152.5488906038897028
 30
0.0
 40
0.022533824359664
 50
201.7251057352418968
 51
228.6248427659857043
  0
ARC
  5
12576
  8
0
 10
3775.8257076108848196
 20
152.5458000408021064
 30
0.0
 40
0.0141844228532366
 50
141.6986817260466864
 51
201.7251057352418968
  0
ARC
  5
12577
  8
0
 10
3775.8509864835132248
 20
152.5258350457602887
 30
0.0
 40
0.0463965700710483
 50
109.7853042357180016
 51
141.6986817260466864
  0
ARC
  5
12578
  8
0
 10
3775.8713794382770175
 20
152.4691458173246872
 30
0.0
 40
0.1066422439790375
 50
69.3727726550760337
 51
109.7853042357180016
  0
ARC
  5
12579
  8
0
 10
3775.8951922471528633
 20
152.5324074729821007
 30
0.0
 40
0.0390472223939873
 50
34.2335493026159128
 51
69.3727726550760337
  0
ARC
  5
1257A
  8
0
 10
3775.9160463402940877
 20
152.5465977579067953
 30
0.0
 40
0.0138230794556389
 50
336.4280254516061177
 51
34.2335493026159128
  0
ARC
  5
1257B
  8
0
 10
3775.8677394597730199
 20
152.5288725448139076
 30
0.0
 40
0.0327407848759809
 50
182.4762321236329115
 51
233.9743497910093026
  0
ARC
  5
1257C
  8
0
 10
3775.8817287592141838
 20
152.5481090477663031
 30
0.0
 40
0.0565261489613922
 50
233.9743497910093026
 51
304.1580969886553021
  0
ARC
  5
1257D
  8
0
 10
3775.8937660674569088
 20
152.5303687920886944
 30
0.0
 40
0.0350875514967077
 50
304.1580969886553021
 51
354.0259984478281012
  0
ARC
  5
1257E
  8
0
 10
3775.8518585191009151
 20
152.5718479850098106
 30
0.0
 40
0.0443115390536155
 50
207.6793041128048003
 51
247.5872269287544896
  0
LINE
  5
1257F
  8
0
 10
3775.8350292472550791
 20
152.5274579808159103
 30
0.0
 11
3775.8342309034601385
 21
152.5691004158782107
 31
0.0
  0
LINE
  5
12580
  8
0
 10
3775.9286630663091273
 20
152.5267169786847887
 30
0.0
 11
3775.9287564292840216
 21
152.5520320162293046
 31
0.0
  0
ARC
  5
12581
  8
0
 10
3775.8819325253930401
 20
152.521575753166502
 30
0.0
 40
0.0164980483040879
 50
228.7944373778869931
 51
311.9769328976598786
  0
ARC
  5
12582
  8
0
 10
3775.8900388808438038
 20
152.5125654409868048
 30
0.0
 40
0.0043778699118009
 50
311.9769328976382781
 51
50.6172861048208205
  0
ARC
  5
12583
  8
0
 10
3775.8823244511349913
 20
152.5031679614683924
 30
0.0
 40
0.0165362023226161
 50
50.6172861048409573
 51
136.4989669744716991
  0
ARC
  5
12584
  8
0
 10
3775.8742650328767922
 20
152.5123436431117909
 30
0.0
 40
0.0045120828117922
 50
150.7120703864623863
 51
224.815114008186498
  0
ARC
  5
12585
  8
0
 10
3775.7503601661251196
 20
152.7103314940127916
 30
0.0
 40
0.0520153081540849
 50
228.6248427659857043
 51
250.6824061917702124
  0
ARC
  5
12586
  8
0
 10
3775.730873301451993
 20
152.6882086553183058
 30
0.0
 40
0.022533824359664
 50
201.7251057352418968
 51
228.6248427659857043
  0
ARC
  5
12587
  8
0
 10
3775.7231169540309565
 20
152.6851180922307947
 30
0.0
 40
0.0141844228532366
 50
141.6986817260466864
 51
201.7251057352418968
  0
ARC
  5
12588
  8
0
 10
3775.748395826658907
 20
152.6651530971888917
 30
0.0
 40
0.0463965700710483
 50
109.7853042357180016
 51
141.6986817260466864
  0
ARC
  5
12589
  8
0
 10
3775.7687887814231544
 20
152.6084638687532902
 30
0.0
 40
0.1066422439790375
 50
69.3727726550760337
 51
109.7853042357180016
  0
ARC
  5
1258A
  8
0
 10
3775.7926015902990002
 20
152.6717255244107889
 30
0.0
 40
0.0390472223939873
 50
34.2335493026159128
 51
69.3727726550760337
  0
ARC
  5
1258B
  8
0
 10
3775.8134556834388604
 20
152.685915809335512
 30
0.0
 40
0.0138230794556389
 50
336.4280254516061177
 51
34.2335493026159128
  0
ARC
  5
1258C
  8
0
 10
3775.7651488029191569
 20
152.6681905962425958
 30
0.0
 40
0.0327407848759809
 50
182.4762321236329115
 51
233.9743497910093026
  0
ARC
  5
1258D
  8
0
 10
3775.779138102359866
 20
152.6874270991949913
 30
0.0
 40
0.0565261489613922
 50
233.9743497910093026
 51
304.1580969886553021
  0
ARC
  5
1258E
  8
0
 10
3775.7911754106030457
 20
152.6696868435172973
 30
0.0
 40
0.0350875514967077
 50
304.1580969886553021
 51
354.0259984478281012
  0
ARC
  5
1258F
  8
0
 10
3775.7492678622470521
 20
152.7111660364384988
 30
0.0
 40
0.0443115390536155
 50
207.6793041128048003
 51
247.5872269287544896
  0
LINE
  5
12590
  8
0
 10
3775.7324385904012161
 20
152.6667760322445133
 30
0.0
 11
3775.7316402466049112
 21
152.7084184673068137
 31
0.0
  0
LINE
  5
12591
  8
0
 10
3775.8260724094548095
 20
152.6660350301133917
 30
0.0
 11
3775.8261657724287943
 21
152.6913500676579929
 31
0.0
  0
ARC
  5
12592
  8
0
 10
3775.7793418685391771
 20
152.6608938045951902
 30
0.0
 40
0.0164980483040879
 50
228.7944373778869931
 51
311.9769328976598786
  0
ARC
  5
12593
  8
0
 10
3775.7874482239890312
 20
152.651883492415493
 30
0.0
 40
0.0043778699118009
 50
311.9769328976382781
 51
50.6172861048208205
  0
ARC
  5
12594
  8
0
 10
3775.7797337942811282
 20
152.642486012897109
 30
0.0
 40
0.0165362023226161
 50
50.6172861048409573
 51
136.4989669744716991
  0
ARC
  5
12595
  8
0
 10
3775.7716743760229292
 20
152.6516616945403939
 30
0.0
 40
0.0045120828117922
 50
150.7120703864623863
 51
224.815114008186498
  0
ARC
  5
12596
  8
0
 10
3775.6735060268179041
 20
152.8382925653056077
 30
0.0
 40
0.0327407848759809
 50
306.0256502089907258
 51
357.523767876367117
  0
ARC
  5
12597
  8
0
 10
3775.6595167273771949
 20
152.8575290682580032
 30
0.0
 40
0.0565261489613922
 50
235.8419030113446979
 51
306.0256502089907258
  0
ARC
  5
12598
  8
0
 10
3775.6474794191340152
 20
152.8397888125803092
 30
0.0
 40
0.0350875514967077
 50
185.9740015521718988
 51
235.8419030113446979
  0
LINE
  5
12599
  8
0
 10
3775.7062162393358449
 20
152.8368780013074968
 30
0.0
 11
3775.706933191904227
 21
152.8742749860577987
 31
0.0
  0
LINE
  5
1259A
  8
0
 10
3775.6125824202817967
 20
152.8361369991764036
 30
0.0
 11
3775.6124479876089026
 21
152.8725879390686089
 31
0.0
  0
ARC
  5
1259B
  8
0
 10
3775.6593129611978839
 20
152.8309957736582021
 30
0.0
 40
0.0164980483040879
 50
228.023067102340093
 51
311.2055626221131206
  0
ARC
  5
1259C
  8
0
 10
3775.6512066057471202
 20
152.8219854614785049
 30
0.0
 40
0.0043778699118009
 50
129.3827138951791937
 51
228.0230671023616082
  0
ARC
  5
1259D
  8
0
 10
3775.6589210354559327
 20
152.8125879819600925
 30
0.0
 40
0.0165362023226161
 50
43.5010330255282511
 51
129.3827138951589859
  0
ARC
  5
1259E
  8
0
 10
3775.6669804537132222
 20
152.8217636636034058
 30
0.0
 40
0.0045120828117922
 50
315.1848859918134735
 51
29.2879296135375711
  0
ARC
  5
1259F
  8
0
 10
3775.6871368317110864
 20
152.8526220315845876
 30
0.0
 40
0.0316173927912927
 50
301.6611056357916141
 51
348.1397974901909151
  0
ARC
  5
125A0
  8
0
 10
3775.6929215410250436
 20
152.8514071979969913
 30
0.0
 40
0.0257064975543124
 50
348.1397974901909151
 51
36.5084990159939693
  0
ARC
  5
125A1
  8
0
 10
3775.6649416200480118
 20
152.8306967219284047
 30
0.0
 40
0.060517412464955
 50
36.5084990159952767
 51
86.3896986632021253
  0
ARC
  5
125A2
  8
0
 10
3775.6637286954778574
 20
152.8114729919948047
 30
0.0
 40
0.079779369234026
 50
86.3896986632021253
 51
131.7362390501772893
  0
ARC
  5
125A3
  8
0
 10
3775.6371858332950069
 20
152.8516270602706015
 30
0.0
 40
0.0328832767879823
 50
143.8914409566359893
 51
226.3619653312281912
  0
ARC
  5
125A4
  8
0
 10
3775.9800956625590516
 20
152.5066300810019868
 30
0.0
 40
0.1735759215776338
 50
248.0257494742498068
 51
296.1765856122701734
  0
ARC
  5
125A5
  8
0
 10
3775.9952276332510337
 20
152.4758461059448962
 30
0.0
 40
0.1392738858165727
 50
296.1765856122701734
 51
355.3524123352285073
  0
ARC
  5
125A6
  8
0
 10
3776.1214124513508068
 20
152.4624439110490073
 30
0.0
 40
0.0128073488699419
 50
9.5156842694592818
 51
77.3841931902092313
  0
ARC
  5
125A7
  8
0
 10
3776.1107639229130655
 20
152.4335359385175934
 30
0.0
 40
0.0435345339711042
 50
72.0098217325725756
 51
98.9235856435686429
  0
ARC
  5
125A8
  8
0
 10
3776.1711413267730677
 20
152.0053204121564931
 30
0.0
 40
0.475980793180597
 50
98.1077905054718258
 51
122.5948705233950022
  0
ARC
  5
125A9
  8
0
 10
3775.9341972324950802
 20
152.3736456680863114
 30
0.0
 40
0.0380451099262775
 50
120.7716430910320042
 51
186.2493128649489904
  0
ARC
  5
125AA
  8
0
 10
3775.9355605368509714
 20
152.3810419226595911
 30
0.0
 40
0.0408457213243762
 50
196.4076224185564001
 51
240.0123665252421006
  0
ARC
  5
125AB
  8
0
 10
3775.8206857676382242
 20
152.5257640827553871
 30
0.0
 40
0.0326776930304873
 50
126.9126672748136002
 51
230.6246785489381068
  0
ARC
  5
125AC
  8
0
 10
3775.8573957423118372
 20
152.5704948045728884
 30
0.0
 40
0.090543569978292
 50
230.6246785489381068
 51
276.3578279655909
  0
ARC
  5
125AD
  8
0
 10
3775.8731137817949275
 20
152.586681175234105
 30
0.0
 40
0.1063255082968831
 50
266.9315598284920839
 51
319.3379441709096227
  0
ARC
  5
125AE
  8
0
 10
3775.9119293167400429
 20
152.5674185031658965
 30
0.0
 40
0.0652104031179548
 50
309.9116760338076233
 51
42.2365682098395681
  0
ARC
  5
125AF
  8
0
 10
3775.9379116862369301
 20
152.5910081117536947
 30
0.0
 40
0.0301169114426564
 50
42.2365682098383601
 51
79.1060694922554433
  0
ARC
  5
125B0
  8
0
 10
3775.9377309531741957
 20
152.590069042544286
 30
0.0
 40
0.0310732144383961
 50
79.1060694922554433
 51
111.7037555587290001
  0
ARC
  5
125B1
  8
0
 10
3776.0124349548527789
 20
152.3076293064247011
 30
0.0
 40
0.3230225807693274
 50
105.4762720777812035
 51
130.8716687379425991
  0
ARC
  5
125B2
  8
0
 10
3775.729547972007822
 20
152.6661548851274119
 30
0.0
 40
0.0399902185795896
 50
161.5830625535942033
 51
257.3127328227470798
  0
ARC
  5
125B3
  8
0
 10
3775.7668004459328586
 20
152.7459962200437076
 30
0.0
 40
0.1274590472930493
 50
248.827394038678392
 51
286.0712451304316915
  0
ARC
  5
125B4
  8
0
 10
3775.7825098205998984
 20
152.7064381040958096
 30
0.0
 40
0.0851989310006546
 50
283.2830234537681235
 51
317.9441005854238824
  0
ARC
  5
125B5
  8
0
 10
3775.8086192866480815
 20
152.6767152801897112
 30
0.0
 40
0.0461307384826131
 50
323.6412176928229769
 51
357.1875324939189795
  0
ARC
  5
125B6
  8
0
 10
3775.7306380245618129
 20
152.6603984637773124
 30
0.0
 40
0.1248498890738969
 50
6.4630069391012333
 51
52.4444639224987483
  0
ARC
  5
125B7
  8
0
 10
3775.7870994899590187
 20
152.7228721110172103
 30
0.0
 40
0.0414501031270851
 50
61.7199383676919524
 51
115.9459481387690971
  0
ARC
  5
125B8
  8
0
 10
3775.8391013093660149
 20
152.6159968026759088
 30
0.0
 40
0.1603051440576695
 50
115.9459481387690971
 51
156.9394283822751959
  0
ARC
  5
125B9
  8
0
 10
3775.6284863122850766
 20
152.8458400428947925
 30
0.0
 40
0.0495482364830037
 50
187.2431884511651958
 51
253.0897523851828055
  0
ARC
  5
125BA
  8
0
 10
3775.6521903699699578
 20
152.9038548343166894
 30
0.0
 40
0.1120997995471013
 50
250.1218292286021949
 51
292.5116188262384753
  0
ARC
  5
125BB
  8
0
 10
3775.6802323676511151
 20
152.8490041415867893
 30
0.0
 40
0.0509288698775971
 50
286.9853881998076872
 51
353.4318935270080146
  0
ARC
  5
125BC
  8
0
 10
3775.6552356026550115
 20
152.8346013960085088
 30
0.0
 40
0.0760764403821831
 50
6.4736154455024346
 51
27.4427236552456506
  0
ARC
  5
125BD
  8
0
 10
3775.6115982900091694
 20
152.8128070281676969
 30
0.0
 40
0.1248498890738969
 50
27.0898717754959186
 51
73.0713287589036753
  0
ARC
  5
125BE
  8
0
 10
3775.6424320144969897
 20
152.8911660423806893
 30
0.0
 40
0.0414501031270851
 50
82.3468032040873368
 51
136.5728129751537949
  0
ARC
  5
125BF
  8
0
 10
3775.6650923795491508
 20
152.8510842426460954
 30
0.0
 40
0.0865253707762891
 50
127.5752701824186062
 51
187.6319070572826035
  0
ARC
  5
125C0
  8
0
 10
3776.3485711145031019
 20
152.5591373027762074
 30
0.0
 40
0.0325340046150614
 50
148.4670416552077086
 51
239.6034774012414061
  0
ARC
  5
125C1
  8
0
 10
3776.3879627952278497
 20
152.6262881343814968
 30
0.0
 40
0.1103860353886102
 50
239.6034774012414061
 51
275.1076445965085213
  0
ARC
  5
125C2
  8
0
 10
3776.3826168814621269
 20
152.6860977960772061
 30
0.0
 40
0.170434136325725
 50
275.1076445965085213
 51
311.2916609605211988
  0
ARC
  5
125C3
  8
0
 10
3776.4188326820521979
 20
152.6247817603309045
 30
0.0
 40
0.1013352747446588
 50
318.805326884282124
 51
34.9190904240516033
  0
ARC
  5
125C4
  8
0
 10
3776.4846411792868821
 20
152.6669887922818134
 30
0.0
 40
0.0234158040952145
 50
42.4327563478065883
 51
97.0040689876426256
  0
ARC
  5
125C5
  8
0
 10
3776.4814588917179208
 20
152.6413147799522108
 30
0.0
 40
0.0489161686366041
 50
89.617017276869845
 51
111.7406597762529969
  0
ARC
  5
125C6
  8
0
 10
3776.5194965812279406
 20
152.4672987606122945
 30
0.0
 40
0.2265239018521744
 50
104.353608065471704
 51
151.2794186627650106
  0
ARC
  5
125C7
  8
0
 10
3776.1881628987821387
 20
152.6945185451351108
 30
0.0
 40
0.0335809645043825
 50
164.2018103934647115
 51
230.6541470960397078
  0
ARC
  5
125C8
  8
0
 10
3776.219080292324179
 20
152.732230602755692
 30
0.0
 40
0.0823465724001134
 50
230.6541470960397078
 51
275.791034560112621
  0
ARC
  5
125C9
  8
0
 10
3776.2297540795780151
 20
152.7703949208504923
 30
0.0
 40
0.1201139201593241
 50
268.8718094942996117
 51
315.7925284247920104
  0
ARC
  5
125CA
  8
0
 10
3776.2850989215689879
 20
152.7130368184106999
 30
0.0
 40
0.0405270007723477
 50
319.3656700832486877
 51
1.1873213904983571
  0
ARC
  5
125CB
  8
0
 10
3776.1848491356090562
 20
152.6847769567798139
 30
0.0
 40
0.1437443642556737
 50
11.6796881147618201
 51
53.807223138929487
  0
ARC
  5
125CC
  8
0
 10
3776.2518914842971753
 20
152.7764029444076073
 30
0.0
 40
0.0302102366711078
 50
53.807223138929487
 51
133.7134195854077063
  0
ARC
  5
125CD
  8
0
 10
3776.3421250760898147
 20
152.6327792837981008
 30
0.0
 40
0.1993049573306003
 50
123.8823595078455071
 51
159.1670622998788076
  0
ARC
  5
125CE
  8
0
 10
3776.0585319226561296
 20
152.8336215766643136
 30
0.0
 40
0.0594942537735172
 50
203.3285750342610925
 51
271.3348541225328177
  0
ARC
  5
125CF
  8
0
 10
3776.0761770451517805
 20
152.8925701155469881
 30
0.0
 40
0.1195375737917692
 50
262.1825521466186046
 51
309.5966807155281231
  0
ARC
  5
125D0
  8
0
 10
3776.1297076504079087
 20
152.8317823904147019
 30
0.0
 40
0.0386594042710503
 50
305.8842118919390032
 51
40.7629292217467381
  0
ARC
  5
125D1
  8
0
 10
3775.9850856551420293
 20
152.6756621034456032
 30
0.0
 40
0.2512660115283954
 50
46.2027623740500601
 51
74.0703020495128044
  0
ARC
  5
125D2
  8
0
 10
3776.0448593429491666
 20
152.8850872123227873
 30
0.0
 40
0.0334776509984307
 50
74.0703020495128044
 51
139.6752062770063105
  0
ARC
  5
125D3
  8
0
 10
3776.1206217340591138
 20
152.8410058488890968
 30
0.0
 40
0.120752573558246
 50
147.0119665322064009
 51
194.8483330034162009
  0
ARC
  5
125D4
  8
0
 10
3775.8720469341078569
 20
152.9902364764307947
 30
0.0
 40
0.0753297748283434
 50
224.7119731814779016
 51
267.4173711723104816
  0
ARC
  5
125D5
  8
0
 10
3775.8743355250840068
 20
153.0409746170813037
 30
0.0
 40
0.1261195037636278
 50
267.4173711723104816
 51
300.9494985085427174
  0
ARC
  5
125D6
  8
0
 10
3775.9160672927459927
 20
152.9713824227494001
 30
0.0
 40
0.0449738695979569
 50
300.9494985085427174
 51
342.4352958660562081
  0
ARC
  5
125D7
  8
0
 10
3775.9223030683588149
 20
152.9694085453525076
 30
0.0
 40
0.0384331441430827
 50
342.4352958660562081
 51
70.0697069418740313
  0
ARC
  5
125D8
  8
0
 10
3775.7864765869098846
 20
152.7141262585579113
 30
0.0
 40
0.3272632978820984
 50
62.9306141078161829
 51
85.3678941062017032
  0
ARC
  5
125D9
  8
0
 10
3775.8081565672009674
 20
153.0175313717959114
 30
0.0
 40
0.0232788236924811
 50
78.2288012721594441
 51
162.1938732074978873
  0
ARC
  5
125DA
  8
0
 10
3775.9140472268391022
 20
153.0225365421324
 30
0.0
 40
0.1280717897774514
 50
179.0544683212168877
 51
221.7602917693768916
  0
ARC
  5
125DB
  8
0
 10
3776.6640356785110271
 20
152.8390351861139891
 30
0.0
 40
0.0454281500730333
 50
163.6336653601466935
 51
228.3764370650042963
  0
ARC
  5
125DC
  8
0
 10
3776.6897140532291814
 20
152.9002893632579969
 30
0.0
 40
0.1103860353886102
 50
239.6034774012414061
 51
275.1076445965085213
  0
ARC
  5
125DD
  8
0
 10
3776.6959118911240694
 20
152.9143228742966016
 30
0.0
 40
0.1240343404126234
 50
271.6768413614412907
 51
334.508171177176223
  0
ARC
  5
125DE
  8
0
 10
3776.6937752627009104
 20
152.8715537939085891
 30
0.0
 40
0.1145883620572357
 50
354.6856787946691156
 51
66.7851292102931211
  0
ARC
  5
125DF
  8
0
 10
3776.7239770915448389
 20
152.9437678661676898
 30
0.0
 40
0.0363231896754228
 50
65.6668531972204619
 51
117.523204664917003
  0
ARC
  5
125E0
  8
0
 10
3776.7311494275118093
 20
152.9258651772109943
 30
0.0
 40
0.0555470413688426
 50
115.5502346543619012
 51
126.2108109542706984
  0
ARC
  5
125E1
  8
0
 10
3776.8183710289681585
 20
152.8070727543837961
 30
0.0
 40
0.2029215196517101
 50
126.2664587631367965
 51
167.2561329956581062
  0
ARC
  5
125E2
  8
0
 10
3776.4467591401958089
 20
152.9583312009077929
 30
0.0
 40
0.0493863674079352
 50
202.8620545922692031
 51
251.6320100907097128
  0
ARC
  5
125E3
  8
0
 10
3776.4695999055870743
 20
153.0233490294868091
 30
0.0
 40
0.1182952103789155
 50
251.056242007229514
 51
284.2542940483098732
  0
ARC
  5
125E4
  8
0
 10
3776.4801955617190288
 20
153.0075892891503031
 30
0.0
 40
0.1006148018284462
 50
280.6135937532038724
 51
330.367659450380188
  0
ARC
  5
125E5
  8
0
 10
3776.5278695128331492
 20
152.9736901962438083
 30
0.0
 40
0.0428225941606316
 50
338.2789348844003143
 51
31.2214064328097791
  0
ARC
  5
125E6
  8
0
 10
3776.4299283198279227
 20
152.8919443667471967
 30
0.0
 40
0.1700323007161776
 50
37.6844243810872825
 51
84.1082925084632222
  0
ARC
  5
125E7
  8
0
 10
3776.4485072393499649
 20
153.0190068082013966
 30
0.0
 40
0.0420867427975505
 50
91.5322000966927334
 51
137.1587137627246875
  0
ARC
  5
125E8
  8
0
 10
3776.5258424346470747
 20
152.975793339974814
 30
0.0
 40
0.129868593150456
 50
146.4195949148410989
 51
196.3917846358498878
  0
ARC
  5
125E9
  8
0
 10
3776.2622946351448263
 20
153.1127669030250047
 30
0.0
 40
0.1057342700611022
 50
237.0249813825546994
 51
297.17394763108598
  0
ARC
  5
125EA
  8
0
 10
3776.2632911370069451
 20
153.1108257495642135
 30
0.0
 40
0.1035522772291743
 50
297.17394763108598
 51
328.3485196725189894
  0
ARC
  5
125EB
  8
0
 10
3776.311790028366886
 20
153.0729655820514097
 30
0.0
 40
0.0429386299999529
 50
337.431973343947277
 51
77.4568708800878767
  0
ARC
  5
125EC
  8
0
 10
3776.2011704327369443
 20
152.7859161311874914
 30
0.0
 40
0.3501479282203807
 50
69.96741174609231
 51
93.473212787256287
  0
ARC
  5
125ED
  8
0
 10
3776.1751598279638529
 20
153.1148023171340924
 30
0.0
 40
0.0211694918616106
 50
76.9002999818222861
 51
181.5973224677323117
  0
ARC
  5
125EE
  8
0
 10
3776.2874119634070667
 20
153.1299593766576947
 30
0.0
 40
0.1343395273181087
 50
186.7316355403887087
 51
232.0227291832121921
  0
ARC
  5
125EF
  8
0
 10
3775.9887790618899999
 20
153.2032738334775104
 30
0.0
 40
0.1021166087307049
 50
251.6255253348832923
 51
313.6712001156619749
  0
ARC
  5
125F0
  8
0
 10
3776.0306127067310626
 20
153.1594533475370952
 30
0.0
 40
0.041533700013095
 50
313.6712001156619749
 51
72.0294912169693617
  0
ARC
  5
125F1
  8
0
 10
3776.0057495538030707
 20
153.1188814522168968
 30
0.0
 40
0.0885002737422504
 50
64.8029659743808253
 51
86.3619238445712369
  0
ARC
  5
125F2
  8
0
 10
3775.9838032894758726
 20
152.809233365443788
 30
0.0
 40
0.398923290517219
 50
86.0382312224096211
 51
105.915791276328207
  0
ARC
  5
125F3
  8
0
 10
3775.880326486298145
 20
153.1683196022956963
 30
0.0
 40
0.025247923958451
 50
103.5551673398123995
 51
141.9575365980211927
  0
ARC
  5
125F4
  8
0
 10
3775.8693402544540731
 20
153.1775671250784114
 30
0.0
 40
0.0109089828284873
 50
144.6513767166121056
 51
226.4229240391217957
  0
ARC
  5
125F5
  8
0
 10
3776.0254727671372166
 20
153.3120812447864978
 30
0.0
 40
0.2169440946695937
 50
221.0311434914023039
 51
251.487140667550392
  0
ARC
  5
125F6
  8
0
 10
3776.8294284625008004
 20
153.1866161994570916
 30
0.0
 40
0.0669076330904579
 50
217.2940565647872972
 51
272.7201119013545849
  0
ARC
  5
125F7
  8
0
 10
3776.8242007339781594
 20
153.2966490682038909
 30
0.0
 40
0.1770646181170692
 50
272.7201119013545849
 51
309.5046660866000821
  0
ARC
  5
125F8
  8
0
 10
3776.9007927997517982
 20
153.2037508779050938
 30
0.0
 40
0.0566635454458191
 50
309.5046660866000821
 51
16.7456184747181887
  0
ARC
  5
125F9
  8
0
 10
3776.8007349203840022
 20
153.1362765897364966
 30
0.0
 40
0.1756038297132481
 50
28.5035105850702593
 51
83.3830154989375245
  0
ARC
  5
125FA
  8
0
 10
3776.8143001864650614
 20
153.2728653315770941
 30
0.0
 40
0.038428580723439
 50
80.004853683812911
 51
145.0486103006253131
  0
ARC
  5
125FB
  8
0
 10
3776.8949109855889219
 20
153.2153583165583086
 30
0.0
 40
0.1374482907035792
 50
144.6507035639336891
 51
210.2688088434811959
  0
ARC
  5
125FC
  8
0
 10
3776.5497197177310227
 20
153.2834309333219096
 30
0.0
 40
0.0778283868138091
 50
223.4118586258975938
 51
275.8046755449730085
  0
ARC
  5
125FD
  8
0
 10
3776.5534196515832264
 20
153.3313568241059102
 30
0.0
 40
0.1254245963387163
 50
271.9059228571408084
 51
307.3329870253459148
  0
ARC
  5
125FE
  8
0
 10
3776.5951662745342219
 20
153.2836049982018096
 30
0.0
 40
0.0622830051535084
 50
303.4342343374888742
 51
346.2130120268334963
  0
ARC
  5
125FF
  8
0
 10
3776.6120928624109183
 20
153.2794515052179918
 30
0.0
 40
0.0448542679319205
 50
346.2130120268334963
 51
67.4709134836407713
  0
ARC
  5
12600
  8
0
 10
3776.4905497278591611
 20
152.9864412335303996
 30
0.0
 40
0.3620730455466878
 50
67.4709134836407713
 51
91.2920934157377388
  0
ARC
  5
12601
  8
0
 10
3776.480417214091176
 20
153.3212270332296896
 30
0.0
 40
0.0272662962042285
 50
85.8609757579086903
 51
168.6630985071535065
  0
ARC
  5
12602
  8
0
 10
3776.5886147474211612
 20
153.3253427375626075
 30
0.0
 40
0.1349375531395093
 50
179.4716759887585908
 51
224.9898890738355135
  0
ARC
  5
12603
  8
0
 10
3776.282068738720227
 20
153.3887525345348877
 30
0.0
 40
0.1136792106637344
 50
255.8879576479968136
 51
293.3229624936791993
  0
ARC
  5
12604
  8
0
 10
3776.2889112911639131
 20
153.372881816791903
 30
0.0
 40
0.0963962651503163
 50
293.3229624936791993
 51
329.4066123804911967
  0
ARC
  5
12605
  8
0
 10
3776.3339587026698609
 20
153.3462478685351869
 30
0.0
 40
0.0440642817827143
 50
329.4066123804911967
 51
74.4247828113183232
  0
ARC
  5
12606
  8
0
 10
3776.3075979497198205
 20
153.3044902172017885
 30
0.0
 40
0.092460408624766
 50
65.6024845344809648
 51
89.1651895176294005
  0
ARC
  5
12607
  8
0
 10
3776.3014352025120388
 20
153.0027726661321026
 30
0.0
 40
0.3942396797791373
 50
88.9085075873737907
 51
111.0974437726740973
  0
ARC
  5
12608
  8
0
 10
3776.1646167845751734
 20
153.3521736408791867
 30
0.0
 40
0.0191033022685882
 50
105.4535151386519942
 51
205.1634874015560115
  0
ARC
  5
12609
  8
0
 10
3776.3084152861670191
 20
153.4869286298734892
 30
0.0
 40
0.2153222650912208
 50
221.5714208626777975
 51
255.4584136771227065
  0
ARC
  5
1260A
  8
0
 10
3775.9543040858138738
 20
153.3940277663539007
 30
0.0
 40
0.0924195682173509
 50
271.4547082249255823
 51
317.0743461636459983
  0
ARC
  5
1260B
  8
0
 10
3775.9890764748938636
 20
153.3616862429686023
 30
0.0
 40
0.0449317468612477
 50
317.0743461636459983
 51
35.7097720781453418
  0
ARC
  5
1260C
  8
0
 10
3775.9659373763320218
 20
153.3306507478953904
 30
0.0
 40
0.0826664813218105
 50
43.8424627658273067
 51
87.9611897762632537
  0
ARC
  5
1260D
  8
0
 10
3775.9653152219389085
 20
153.3082545432096992
 30
0.0
 40
0.1050707880722959
 50
88.0566275787648465
 51
107.0464611628712959
  0
ARC
  5
1260E
  8
0
 10
3776.0274934991671216
 20
153.0998503195395131
 30
0.0
 40
0.3225508458634192
 50
106.7539923652088021
 51
130.0720139794480872
  0
ARC
  5
1260F
  8
0
 10
3775.8313890134531903
 20
153.336222323138486
 30
0.0
 40
0.0155702764771203
 50
137.8167980669653048
 51
245.5663611823347878
  0
ARC
  5
12610
  8
0
 10
3775.939228956135139
 20
153.6243712573646008
 30
0.0
 40
0.3232031392076541
 50
249.2931325071039907
 51
273.0898658940615178
  0
ARC
  5
12611
  8
0
 10
3776.8188538273238919
 20
153.5557764898742903
 30
0.0
 40
0.0905733967318599
 50
234.5457469804763093
 51
280.7802048383599072
  0
ARC
  5
12612
  8
0
 10
3776.8039663642330197
 20
153.6339660590996914
 30
0.0
 40
0.1701676508772551
 50
280.7802048383599072
 51
305.6393665091954972
  0
ARC
  5
12613
  8
0
 10
3776.8570376475649937
 20
153.5599443772534869
 30
0.0
 40
0.0790865304526831
 50
305.6393665091964067
 51
343.1653305305263189
  0
ARC
  5
12614
  8
0
 10
3776.8760778593418763
 20
153.5541832247286038
 30
0.0
 40
0.0591938045721355
 50
343.1653305305263189
 51
41.3707022182302566
  0
ARC
  5
12615
  8
0
 10
3776.7639632762698056
 20
153.3857249233537914
 30
0.0
 40
0.2599877294990248
 50
52.9801292371983834
 51
96.053599581292616
  0
ARC
  5
12616
  8
0
 10
3776.7540658257948962
 20
153.5892412126279112
 30
0.0
 40
0.0577438551163379
 50
107.6630266002474059
 51
148.153289529694689
  0
ARC
  5
12617
  8
0
 10
3776.8487376071689141
 20
153.601186916083293
 30
0.0
 40
0.1449117121414526
 50
172.6563076995840902
 51
235.3356488264757047
  0
ARC
  5
12618
  8
0
 10
3776.4714899867249187
 20
153.6180268786218051
 30
0.0
 40
0.1106864870191365
 50
252.6666821102811866
 51
292.8287370147588717
  0
ARC
  5
12619
  8
0
 10
3776.4723026595152078
 20
153.6160963175069014
 30
0.0
 40
0.1085918502291647
 50
292.8287370147588717
 51
328.2371197001825749
  0
ARC
  5
1261A
  8
0
 10
3776.5232411065849192
 20
153.5845588115857936
 30
0.0
 40
0.0486807521777485
 50
328.2371197001825749
 51
54.1196443671903467
  0
ARC
  5
1261B
  8
0
 10
3776.5027060356101174
 20
153.5561702370235935
 30
0.0
 40
0.0837178797093079
 50
54.1196443671903467
 51
81.6728084814530604
  0
ARC
  5
1261C
  8
0
 10
3776.4659605297688358
 20
153.3051230801279132
 30
0.0
 40
0.3374399859297477
 50
81.6728084814530604
 51
109.5326738143051983
  0
ARC
  5
1261D
  8
0
 10
3776.3617606070520196
 20
153.5988421633929875
 30
0.0
 40
0.0257854917085366
 50
109.5326738143057952
 51
188.5276373127186105
  0
ARC
  5
1261E
  8
0
 10
3776.4984386624769286
 20
153.6910814101433971
 30
0.0
 40
0.1884938609256277
 50
210.6394557405353112
 51
251.4629671742459891
  0
ARC
  5
1261F
  8
0
 10
3776.1371757839501697
 20
153.6298841279509872
 30
0.0
 40
0.1070812091074539
 50
273.0498826351399089
 51
310.0244049563719955
  0
ARC
  5
12620
  8
0
 10
3776.166542665534962
 20
153.597123263688502
 30
0.0
 40
0.0631236136743423
 50
308.7360061323062155
 51
2.9884255442687939
  0
ARC
  5
12621
  8
0
 10
3776.1702061527607839
 20
153.5896002915328893
 30
0.0
 40
0.0603510183614953
 50
10.3221716066979603
 51
79.6220976993556775
  0
ARC
  5
12622
  8
0
 10
3776.1559635985831846
 20
153.5450780201929888
 30
0.0
 40
0.1068785503042157
 50
76.4096376574842537
 51
106.9097291356637953
  0
ARC
  5
12623
  8
0
 10
3776.2194070519649358
 20
153.3263292384746137
 30
0.0
 40
0.3346358049647903
 50
106.408761075033695
 51
131.6984646649347042
  0
ARC
  5
12624
  8
0
 10
3776.0073694259122021
 20
153.5635029993779028
 30
0.0
 40
0.016508091000417
 50
129.79360668676199
 51
246.8795170405662986
  0
ARC
  5
12625
  8
0
 10
3776.1231058900862081
 20
153.8223703402370006
 30
0.0
 40
0.3000675482016374
 50
245.9644290597007057
 51
273.7771402435951131
  0
ARC
  5
12626
  8
0
 10
3775.7967547500929868
 20
153.5290973734147997
 30
0.0
 40
0.0622696075050405
 50
300.0084586132401796
 51
346.538093993337327
  0
ARC
  5
12627
  8
0
 10
3775.8146801087568747
 20
153.5248064784204018
 30
0.0
 40
0.0438378343114987
 50
346.538093993337327
 51
57.9494010803171165
  0
ARC
  5
12628
  8
0
 10
3775.784390187876852
 20
153.476427594840203
 30
0.0
 40
0.1009166892696158
 50
57.9494010803171165
 51
105.9575117511145947
  0
ARC
  5
12629
  8
0
 10
3775.7780519484158503
 20
153.4985936871987917
 30
0.0
 40
0.0778622118321606
 50
105.9575117511145947
 51
132.4577236155678008
  0
ARC
  5
1262A
  8
0
 10
3775.8769150799362251
 20
153.3905435581760059
 30
0.0
 40
0.2243161266167399
 50
132.4577236155678008
 51
161.8021326905831074
  0
ARC
  5
1262B
  8
0
 10
3775.6789573859468874
 20
153.4556205714411021
 30
0.0
 40
0.0159360261626193
 50
161.8021326905831074
 51
293.2658528926569943
  0
ARC
  5
1262C
  8
0
 10
3775.6802776971430831
 20
153.7763581078451978
 30
0.0
 40
0.3354145646044768
 50
270.8497600496589257
 51
296.1109974887646104
  0
ARC
  5
1262D
  8
0
 10
3775.5418198435691011
 20
153.5992856607828116
 30
0.0
 40
0.0485895017978464
 50
320.5229609324480862
 51
18.3657808218590013
  0
ARC
  5
1262E
  8
0
 10
3775.5336005978319918
 20
153.5965569326079958
 30
0.0
 40
0.0572498688768835
 50
18.3657808218590013
 51
75.1082529182194065
  0
ARC
  5
1262F
  8
0
 10
3775.5181591914429191
 20
153.5384902028411886
 30
0.0
 40
0.1173346601063041
 50
75.1082529182194065
 51
116.0333942829180955
  0
ARC
  5
12630
  8
0
 10
3775.4880541670181628
 20
153.6001234519420962
 30
0.0
 40
0.0487418770283654
 50
116.0333942829180955
 51
168.6288453952674047
  0
ARC
  5
12631
  8
0
 10
3775.632781081721987
 20
153.5710172040477062
 30
0.0
 40
0.1963665819610544
 50
168.6288453952674047
 51
199.9215796741652014
  0
ARC
  5
12632
  8
0
 10
3775.4687342122670088
 20
153.5147129905450925
 30
0.0
 40
0.0231418132045581
 50
207.2735646157426004
 51
299.6374848392168815
  0
ARC
  5
12633
  8
0
 10
3775.3772852069710098
 20
153.7400173957541938
 30
0.0
 40
0.2661150864972642
 50
292.7460909928054207
 51
319.6291439736020834
  0
ARC
  5
12634
  8
0
 10
3775.7724912747257804
 20
154.0126955027191968
 30
0.0
 40
0.3265374632661093
 50
264.9251037524701928
 51
291.5715301374031014
  0
ARC
  5
12635
  8
0
 10
3775.8631870414178593
 20
153.7832911742191015
 30
0.0
 40
0.0798553438688691
 50
291.5715301374031014
 51
355.6187413806371751
  0
ARC
  5
12636
  8
0
 10
3775.8778270760658415
 20
153.7687866882091896
 30
0.0
 40
0.0655231525562559
 50
7.3691494039473531
 51
83.1176773256606651
  0
ARC
  5
12637
  8
0
 10
3775.865325461501925
 20
153.7336653871961971
 30
0.0
 40
0.1022191251497466
 50
78.5148296338726084
 51
125.9087910976574989
  0
ARC
  5
12638
  8
0
 10
3775.9458007129878752
 20
153.6236326182265941
 30
0.0
 40
0.2385396916349501
 50
126.0642483027371981
 51
158.3859554315704088
  0
ARC
  5
12639
  8
0
 10
3775.7418605955522253
 20
153.7060093488229882
 30
0.0
 40
0.0186531390336703
 50
162.8833693404972109
 51
275.3705420796948147
  0
ARC
  5
1263A
  8
0
 10
3776.2300779428451278
 20
153.8679601345073138
 30
0.0
 40
0.1052927517804386
 50
267.0744236621389973
 51
319.5712927302748199
  0
ARC
  5
1263B
  8
0
 10
3776.259137177536104
 20
153.8432036710042041
 30
0.0
 40
0.0671178699073076
 50
319.5712927302748199
 51
4.3827804784474971
  0
ARC
  5
1263C
  8
0
 10
3776.272070244896895
 20
153.8441949065102108
 30
0.0
 40
0.0541468722908782
 50
4.3827804784458726
 51
74.4348285502528029
  0
ARC
  5
1263D
  8
0
 10
3776.2476847414050098
 20
153.7566504259960141
 30
0.0
 40
0.1450242008666837
 50
74.4348285502528029
 51
94.296666320416918
  0
ARC
  5
1263E
  8
0
 10
3776.2576446485918495
 20
153.6240847410647063
 30
0.0
 40
0.2779635124809581
 50
94.296666320416918
 51
128.3828280628162872
  0
ARC
  5
1263F
  8
0
 10
3776.0982825946161938
 20
153.825273451826007
 30
0.0
 40
0.0213058385550924
 50
128.3828280628162872
 51
221.7763020148466921
  0
ARC
  5
12640
  8
0
 10
3776.233920359206877
 20
154.023872639243308
 30
0.0
 40
0.2612306577758813
 50
234.5459984017714135
 51
267.9781393147599147
  0
ARC
  5
12641
  8
0
 10
3776.6345880011081135
 20
153.9006655980217886
 30
0.0
 40
0.1144726821275738
 50
256.0256129460785814
 51
296.4697273273221754
  0
ARC
  5
12642
  8
0
 10
3776.6301928076231889
 20
153.9094926688374869
 30
0.0
 40
0.1243334582107639
 50
296.4697273273221754
 51
331.1631534227988141
  0
ARC
  5
12643
  8
0
 10
3776.6866042954648037
 20
153.8784329320749862
 30
0.0
 40
0.0599365389641386
 50
331.1631534227988141
 51
71.2498069628291688
  0
ARC
  5
12644
  8
0
 10
3776.597690884109852
 20
153.6165053678215031
 30
0.0
 40
0.3365439207071986
 50
71.2498069628291688
 51
107.6131610255579005
  0
ARC
  5
12645
  8
0
 10
3776.5050358156017865
 20
153.9083585330984931
 30
0.0
 40
0.0303360961787362
 50
107.6131610255575026
 51
184.2006812683002863
  0
ARC
  5
12646
  8
0
 10
3776.6520476788900851
 20
153.9739319181223891
 30
0.0
 40
0.1897883825023118
 50
200.9293382100090923
 51
256.2520358786192105
  0
ARC
  5
12647
  8
0
 10
3775.5129713353589977
 20
153.8448751775574124
 30
0.0
 40
0.060079840808859
 50
311.4866252093793833
 51
16.6915659701078098
  0
ARC
  5
12648
  8
0
 10
3775.4981619833438344
 20
153.8339179862281867
 30
0.0
 40
0.0776635630421823
 50
21.3015122137163786
 51
84.7645356601746869
  0
ARC
  5
12649
  8
0
 10
3775.4891678877688719
 20
153.8239133170972082
 30
0.0
 40
0.0888122000673134
 50
79.5681772960904112
 51
148.1349169681656122
  0
ARC
  5
1264A
  8
0
 10
3775.5754061197098963
 20
153.7841674861512047
 30
0.0
 40
0.1834145380349502
 50
151.814544603276488
 51
190.822266866147487
  0
ARC
  5
1264B
  8
0
 10
3775.4207478289958999
 20
153.761244434091509
 30
0.0
 40
0.0279741686681217
 50
204.3081991089611904
 51
281.7475643528561022
  0
ARC
  5
1264C
  8
0
 10
3775.3732892715261187
 20
153.9894589064388128
 30
0.0
 40
0.2610710585354732
 50
281.7475643528561022
 51
313.4311201349487987
  0
ARC
  5
1264D
  8
0
 10
3775.8744874226308639
 20
154.0222010378003006
 30
0.0
 40
0.0875652249156203
 50
280.2308048994019032
 51
340.0149172941690949
  0
ARC
  5
1264E
  8
0
 10
3775.900050671801182
 20
154.0129043125288035
 30
0.0
 40
0.0603639600762232
 50
340.0149172941690949
 51
70.3434338577148139
  0
ARC
  5
1264F
  8
0
 10
3775.8792177509358226
 20
153.954580946674497
 30
0.0
 40
0.1222963877399803
 50
70.3434338577148139
 51
109.7920257956676977
  0
ARC
  5
12650
  8
0
 10
3775.9151095812358108
 20
153.8548440015846097
 30
0.0
 40
0.2282948863054241
 50
109.7920257956676977
 51
149.2426729408977906
  0
ARC
  5
12651
  8
0
 10
3775.7361444629377729
 20
153.9613480476164113
 30
0.0
 40
0.0200363321266781
 50
149.2426729408992117
 51
254.959086033379009
  0
ARC
  5
12652
  8
0
 10
3775.8235343613810073
 20
154.2865624897686132
 30
0.0
 40
0.3567876168074793
 50
254.959086033379009
 51
280.742872228503586
  0
ARC
  5
12653
  8
0
 10
3776.3026047634530187
 20
154.1552531982131882
 30
0.0
 40
0.1131101184085582
 50
273.8333778866091848
 51
324.8070925340132931
  0
ARC
  5
12654
  8
0
 10
3776.3349192054138257
 20
154.1324638571502987
 30
0.0
 40
0.0735680240614341
 50
324.8070925340132931
 51
37.1711578323758616
  0
ARC
  5
12655
  8
0
 10
3776.3353175397987798
 20
154.1327658934804106
 30
0.0
 40
0.0730681278455096
 50
37.1711578323758616
 51
86.298832927607279
  0
ARC
  5
12656
  8
0
 10
3776.3163426752780651
 20
153.8394348977174104
 30
0.0
 40
0.367012201708055
 50
86.298832927607279
 51
120.8863600783529932
  0
ARC
  5
12657
  8
0
 10
3776.1406696931280749
 20
154.1331217030675873
 30
0.0
 40
0.0247945278600105
 50
120.886360078352098
 51
213.0173252822200141
  0
ARC
  5
12658
  8
0
 10
3776.2982276063221434
 20
154.2860511934138117
 30
0.0
 40
0.243947386517937
 50
223.0218826902602984
 51
272.8052623875846052
  0
ARC
  5
12659
  8
0
 10
3775.8755480014560817
 20
154.2987487698667053
 30
0.0
 40
0.0933335402600364
 50
280.1518837942205096
 51
336.1125145508669902
  0
ARC
  5
1265A
  8
0
 10
3775.8929666993872161
 20
154.2910344166911045
 30
0.0
 40
0.0742830210405641
 50
336.1125145508669902
 51
43.0768246361438898
  0
ARC
  5
1265B
  8
0
 10
3775.8799285871100437
 20
154.2788434551750925
 30
0.0
 40
0.0921327245232441
 50
43.0768246361438898
 51
99.4372826770488416
  0
ARC
  5
1265C
  8
0
 10
3775.9192706329931752
 20
154.042153353427409
 30
0.0
 40
0.3320702181327943
 50
99.4372826770488416
 51
136.8064021508770907
  0
ARC
  5
1265D
  8
0
 10
3775.6934425848139654
 20
154.2541725254471885
 30
0.0
 40
0.0223115432770128
 50
136.8064021508783128
 51
242.4844353918732054
  0
ARC
  5
1265E
  8
0
 10
3775.8253301003110209
 20
154.5073581349161884
 30
0.0
 40
0.3077888095977392
 50
242.4844353918732054
 51
282.5097261014335004
  0
ARC
  5
1265F
  8
0
 10
3775.4565546187150176
 20
154.0683696699074972
 30
0.0
 40
0.0702942717258654
 50
298.405103306786998
 51
8.8445217289126301
  0
ARC
  5
12660
  8
0
 10
3775.4477225546388581
 20
154.0593531900235007
 30
0.0
 40
0.0807614362259252
 50
14.2095919710111094
 51
87.6646980900492565
  0
ARC
  5
12661
  8
0
 10
3775.4416230263959733
 20
154.0447942744993099
 30
0.0
 40
0.0957150226187578
 50
84.3698054753035365
 51
131.3963566189684968
  0
ARC
  5
12662
  8
0
 10
3775.5193438622159192
 20
153.959037573545686
 30
0.0
 40
0.2114456966063437
 50
131.8284775702024945
 51
170.9555903340124132
  0
ARC
  5
12663
  8
0
 10
3775.3316421187300875
 20
153.9889157637634014
 30
0.0
 40
0.0213808372595497
 50
170.9555903340107932
 51
280.0861089665463055
  0
ARC
  5
12664
  8
0
 10
3775.3435456916968178
 20
154.2636279265308019
 30
0.0
 40
0.2958750956505233
 50
268.4197846633188078
 51
299.6675037351716924
  0
ARC
  5
12665
  8
0
 10
3775.3911673652351055
 20
154.3333337886124923
 30
0.0
 40
0.0820862595220822
 50
296.822874461318122
 51
2.6884685868138498
  0
ARC
  5
12666
  8
0
 10
3775.393865566392833
 20
154.3334604883033876
 30
0.0
 40
0.0793850852778501
 50
2.6884685868138498
 51
74.6521937788926948
  0
ARC
  5
12667
  8
0
 10
3775.3773210395288515
 20
154.2731815367351942
 30
0.0
 40
0.1418932717121933
 50
74.6521937788926948
 51
105.6660148115622064
  0
ARC
  5
12668
  8
0
 10
3775.4302428597729886
 20
154.1776640377300964
 30
0.0
 40
0.2494254927184061
 50
111.4561644750729954
 51
158.6321484237278128
  0
ARC
  5
12669
  8
0
 10
3775.2226390463338248
 20
154.2616639046898968
 30
0.0
 40
0.0256172658807851
 50
164.4222980872451103
 51
257.8108020573563977
  0
ARC
  5
1266A
  8
0
 10
3775.2877354412798923
 20
154.5630217102205108
 30
0.0
 40
0.3339256627646529
 50
257.8108020573563977
 51
294.8768028495705948
  0
ARC
  5
1266B
  8
0
 10
3775.1371414729160279
 20
153.5750115905879056
 30
0.0
 40
0.1661240466616515
 50
321.0312030528484115
 51
357.7211717762777994
  0
ARC
  5
1266C
  8
0
 10
3775.2507111347708815
 20
153.5704921947908019
 30
0.0
 40
0.0524644978669022
 50
357.7211717762777994
 51
68.0199324983015003
  0
ARC
  5
1266D
  8
0
 10
3775.2253189506109265
 20
153.5374713899090011
 30
0.0
 40
0.093262471304681
 50
61.1303826033407915
 51
121.5945257901714029
  0
ARC
  5
1266E
  8
0
 10
3775.1952533087619486
 20
153.5760563264678922
 30
0.0
 40
0.0449699011750979
 50
114.7049758952222049
 51
207.3588430797296098
  0
ARC
  5
1266F
  8
0
 10
3775.393963969134802
 20
153.6788771261512068
 30
0.0
 40
0.2687064502537637
 50
207.3588430797310025
 51
232.5637698671673093
  0
ARC
  5
12670
  8
0
 10
3775.2459906161079743
 20
153.4855894439768065
 30
0.0
 40
0.0252804013462317
 50
232.5637698671673093
 51
323.4565113515711801
  0
ARC
  5
12671
  8
0
 10
3774.9274493109169271
 20
153.3711269515669073
 30
0.0
 40
0.1689848973982439
 50
1.5371285024690551
 51
36.1330390975050477
  0
ARC
  5
12672
  8
0
 10
3774.9980219616049908
 20
153.422651774553799
 30
0.0
 40
0.0816046570182901
 50
36.1330390975050477
 51
89.8656216644965582
  0
ARC
  5
12673
  8
0
 10
3774.9884357634068692
 20
153.4296658077176971
 30
0.0
 40
0.0752285114338134
 50
82.5320341737762107
 51
143.1573742064682051
  0
ARC
  5
12674
  8
0
 10
3774.972121169150796
 20
153.4508119349391961
 30
0.0
 40
0.0500049827826652
 50
151.366911570835299
 51
239.7847314115186066
  0
ARC
  5
12675
  8
0
 10
3775.1313594517000638
 20
153.6694676482339901
 30
0.0
 40
0.3202794601587013
 50
234.847302079842791
 51
258.8666486824337767
  0
ARC
  5
12676
  8
0
 10
3775.0775348723727802
 20
153.3725445403208028
 30
0.0
 40
0.0190943901344637
 50
245.1669275144595019
 51
9.3901966208603582
  0
ARC
  5
12677
  8
0
 10
3774.7231807957618912
 20
153.6091259651838925
 30
0.0
 40
0.159772368706541
 50
331.6446141494428161
 51
14.0977662689935492
  0
ARC
  5
12678
  8
0
 10
3774.7942791620348544
 20
153.6169659095073996
 30
0.0
 40
0.0894348694916369
 50
20.3333490875471412
 51
87.8991705243292358
  0
ARC
  5
12679
  8
0
 10
3774.7847744839950792
 20
153.6302526170157989
 30
0.0
 40
0.0771543998121366
 50
80.4630677039725271
 51
150.6356379354780017
  0
ARC
  5
1267A
  8
0
 10
3774.7683025842088682
 20
153.6479750173579077
 30
0.0
 40
0.0546078181994715
 50
158.3901948321498878
 51
214.5396004071862137
  0
ARC
  5
1267B
  8
0
 10
3774.9501076103529158
 20
153.7710281641676886
 30
0.0
 40
0.2741404079505677
 50
214.1809705515420887
 51
243.6259693475296899
  0
ARC
  5
1267C
  8
0
 10
3774.8428249561720804
 20
153.5439751546284981
 30
0.0
 40
0.0235461360013898
 50
231.9936452149271986
 51
332.8862925816068241
  0
ARC
  5
1267D
  8
0
 10
3775.0034509184861236
 20
153.8455334933642007
 30
0.0
 40
0.1994118585549656
 50
304.2413820641045845
 51
340.0455711011315998
  0
ARC
  5
1267E
  8
0
 10
3775.1393887826648097
 20
153.7961785651731077
 30
0.0
 40
0.0547916253427983
 50
340.0455711011315998
 51
40.7322199712556809
  0
ARC
  5
1267F
  8
0
 10
3775.1063322743070785
 20
153.7677131247214959
 30
0.0
 40
0.0984151745438023
 50
40.7322199712556809
 51
116.626661217349195
  0
ARC
  5
12680
  8
0
 10
3775.0903771332891665
 20
153.7995378081542981
 30
0.0
 40
0.062814935772932
 50
116.626661217349195
 51
179.9303555407886961
  0
ARC
  5
12681
  8
0
 10
3775.1919205714289092
 20
153.7994143794938111
 30
0.0
 40
0.1643584489290193
 50
179.9303555407902877
 51
224.9414335718464883
  0
ARC
  5
12682
  8
0
 10
3775.0971157664362181
 20
153.7048031912410124
 30
0.0
 40
0.0304210456681416
 50
224.9414335718464883
 51
307.5502879641642267
  0
ARC
  5
12683
  8
0
 10
3774.5540866905907933
 20
153.8549543009845877
 30
0.0
 40
0.1779563644315421
 50
303.2281752398041021
 51
345.8918037179082035
  0
ARC
  5
12684
  8
0
 10
3774.6706894633689444
 20
153.8256479755509929
 30
0.0
 40
0.0577271361649089
 50
345.8918037179082035
 51
42.5715915281411696
  0
ARC
  5
12685
  8
0
 10
3774.6302073146439398
 20
153.7884597587380995
 30
0.0
 40
0.1126977449941023
 50
42.5715915281411696
 51
111.6462476189096975
  0
ARC
  5
12686
  8
0
 10
3774.6075765419777781
 20
153.8454840441584963
 30
0.0
 40
0.0513469422352114
 50
111.6462476189096975
 51
187.1385201985266065
  0
ARC
  5
12687
  8
0
 10
3774.8000750050009628
 20
153.8695924316058949
 30
0.0
 40
0.2453491912214205
 50
187.1385201985266065
 51
220.169141206810707
  0
ARC
  5
12688
  8
0
 10
3774.6349864106659879
 20
153.7302340953457929
 30
0.0
 40
0.0293052376729818
 50
220.1691412068119007
 51
304.540778519118021
  0
ARC
  5
12689
  8
0
 10
3774.898645639364986
 20
154.1156825235916017
 30
0.0
 40
0.2379407958992447
 50
283.932081718596578
 51
319.9994274646222152
  0
ARC
  5
1268A
  8
0
 10
3775.0336537371767918
 20
154.002394979532113
 30
0.0
 40
0.0616987631328477
 50
319.9994274646234089
 51
44.0785299302568419
  0
ARC
  5
1268B
  8
0
 10
3775.0026110409658031
 20
153.9723350622440137
 30
0.0
 40
0.1049104237740565
 50
44.0785299302568419
 51
115.4744822048646995
  0
ARC
  5
1268C
  8
0
 10
3774.9823019279788241
 20
154.014962851274106
 30
0.0
 40
0.0576919055006914
 50
115.4744822048640032
 51
159.0034324466564044
  0
ARC
  5
1268D
  8
0
 10
3775.1292599116331985
 20
153.9585610676070928
 30
0.0
 40
0.2151015944032916
 50
159.0034324466564044
 51
195.5562119693829004
  0
ARC
  5
1268E
  8
0
 10
3774.94600040578689
 20
153.9075450353091981
 30
0.0
 40
0.0248736205558132
 50
195.5562119693859984
 51
293.5408792139324987
  0
ARC
  5
1268F
  8
0
 10
3774.7865673018318375
 20
154.3828028677328064
 30
0.0
 40
0.2568626303283735
 50
268.1657500662029179
 51
314.4943592076115237
  0
ARC
  5
12690
  8
0
 10
3774.918026319501223
 20
154.2490034223372106
 30
0.0
 40
0.0692892715749948
 50
314.4940290784509784
 51
19.7763473485907113
  0
ARC
  5
12691
  8
0
 10
3774.885102707472015
 20
154.2371655434453999
 30
0.0
 40
0.1042764064346961
 50
19.776347348592239
 51
86.4443712282779728
  0
ARC
  5
12692
  8
0
 10
3774.8856111762729597
 20
154.2453485428981139
 30
0.0
 40
0.096077624783435
 50
86.4443712282779728
 51
127.243843985478307
  0
ARC
  5
12693
  8
0
 10
3774.9461496459589398
 20
154.1657186581591077
 30
0.0
 40
0.1961067448206707
 50
127.243843985478307
 51
183.7211117028778062
  0
ARC
  5
12694
  8
0
 10
3774.7791968823180468
 20
154.1548605316353076
 30
0.0
 40
0.0288012631442671
 50
183.7211117028778062
 51
268.3062214441993092
  0
ARC
  5
12695
  8
0
 10
3774.3797809168281674
 20
154.1108516722842978
 30
0.0
 40
0.1987800076913064
 50
281.4922528032756759
 51
336.241233225569772
  0
ARC
  5
12696
  8
0
 10
3774.4996209488408567
 20
154.0580989079512904
 30
0.0
 40
0.0678430479827517
 50
336.241233225569772
 51
48.2498449863936472
  0
ARC
  5
12697
  8
0
 10
3774.4525430782377953
 20
154.0053528975410018
 30
0.0
 40
0.1385428889632344
 50
48.2498449863936472
 51
104.1277146963055031
  0
ARC
  5
12698
  8
0
 10
3774.4304294581920658
 20
154.0932110205241088
 30
0.0
 40
0.0479445337593013
 50
104.1277146963055031
 51
156.9298212098532872
  0
ARC
  5
12699
  8
0
 10
3774.609252969472891
 20
154.0170463117293878
 30
0.0
 40
0.2423125122240793
 50
156.9298212098532872
 51
200.2121882685038088
  0
ARC
  5
1269A
  8
0
 10
3774.4092373338698962
 20
153.9434065748681064
 30
0.0
 40
0.0291715604328295
 50
200.2121882685023024
 51
290.3564471406829171
  0
ARC
  5
1269B
  8
0
 10
3774.8172046525692167
 20
153.0681034399426039
 30
0.0
 40
0.2567259747521847
 50
38.3816057225674001
 51
65.4253758618859962
  0
ARC
  5
1269C
  8
0
 10
3774.879090613776043
 20
153.2034324234533926
 30
0.0
 40
0.1079180247879131
 50
65.4253758618859962
 51
113.4767350437402058
  0
ARC
  5
1269D
  8
0
 10
3774.8530271545168944
 20
153.2634408980497938
 30
0.0
 40
0.0424938631047291
 50
113.4767350437394953
 51
202.5636539274362065
  0
ARC
  5
1269E
  8
0
 10
3774.885043333296835
 20
153.2858052766603976
 30
0.0
 40
0.0810737127716287
 50
208.4876564238385868
 51
260.0467782061024877
  0
ARC
  5
1269F
  8
0
 10
3774.9477599760461999
 20
153.555932343641814
 30
0.0
 40
0.3582929588276284
 50
257.6341198179003982
 51
279.6745286237498931
  0
ARC
  5
126A0
  8
0
 10
3775.0076271233169791
 20
153.2174815793902951
 30
0.0
 40
0.0147506718081561
 50
271.3378677391856968
 51
42.7990173951939781
  0
ARC
  5
126A1
  8
0
 10
3774.5406726779538076
 20
153.3019743198796903
 30
0.0
 40
0.1890813571643088
 50
6.6007782179325991
 51
43.5589873715628997
  0
ARC
  5
126A2
  8
0
 10
3774.5989257579099103
 20
153.3573685207529991
 30
0.0
 40
0.1086951716926107
 50
43.5589873715628997
 51
81.6687484991958854
  0
ARC
  5
126A3
  8
0
 10
3774.6005836170447765
 20
153.368689500143887
 30
0.0
 40
0.0972534466792259
 50
81.6687484991958854
 51
123.8168126648412937
  0
ARC
  5
126A4
  8
0
 10
3774.5715781560520554
 20
153.4119898493819107
 30
0.0
 40
0.0451359159289433
 50
123.8168126648412937
 51
216.8373864272680009
  0
ARC
  5
126A5
  8
0
 10
3774.6376912717441883
 20
153.461516094797588
 30
0.0
 40
0.1277421690305573
 50
216.8373864272680009
 51
233.2492517575385023
  0
ARC
  5
126A6
  8
0
 10
3774.7362887947979289
 20
153.6175819734390018
 30
0.0
 40
0.3121150696475045
 50
235.8897433067592999
 51
263.7738085023935923
  0
ARC
  5
126A7
  8
0
 10
3774.7066796012509258
 20
153.3294761150451109
 30
0.0
 40
0.0225702010066126
 50
259.169923569102707
 51
345.1965616853913161
  0
ARC
  5
126A8
  8
0
 10
3774.3364726004288059
 20
153.5348334344494958
 30
0.0
 40
0.1504938009283242
 50
328.7705860015535109
 51
15.9026087771792906
  0
ARC
  5
126A9
  8
0
 10
3774.3906308399041336
 20
153.5429406873587936
 30
0.0
 40
0.0964443220515812
 50
20.0901790185634894
 51
83.8136554217671232
  0
ARC
  5
126AA
  8
0
 10
3774.3820045846819085
 20
153.5550576396022109
 30
0.0
 40
0.0858978147788908
 50
77.2076633625183462
 51
131.4559018687326102
  0
ARC
  5
126AB
  8
0
 10
3774.3559704678568778
 20
153.585146777443498
 30
0.0
 40
0.0461131394979876
 50
131.9636497298106974
 51
217.7190349739983048
  0
ARC
  5
126AC
  8
0
 10
3774.5658619053338043
 20
153.7059883241481089
 30
0.0
 40
0.2879478295562103
 50
211.1740298043773976
 51
241.6852379388818974
  0
ARC
  5
126AD
  8
0
 10
3774.4449915555251209
 20
153.4731896082855087
 30
0.0
 40
0.025983118889104
 50
232.804796594518308
 51
320.913701867426596
  0
ARC
  5
126AE
  8
0
 10
3774.1062255501801701
 20
153.7682636567801922
 30
0.0
 40
0.1568010157158544
 50
299.5848230994317873
 51
1.647393421180787
  0
ARC
  5
126AF
  8
0
 10
3774.1869027043389906
 20
153.7705839611919885
 30
0.0
 40
0.0760905020535375
 50
1.6473934211824151
 51
49.2377053410067731
  0
ARC
  5
126B0
  8
0
 10
3774.1429245679178166
 20
153.7195669633865975
 30
0.0
 40
0.1434463521936016
 50
49.2377053410067731
 51
93.9989191691860952
  0
ARC
  5
126B1
  8
0
 10
3774.1373843557757937
 20
153.7988171719497075
 30
0.0
 40
0.064002727478438
 50
93.9989191691860952
 51
169.8788963360669015
  0
ARC
  5
126B2
  8
0
 10
3774.286727962266923
 20
153.7983132994355913
 30
0.0
 40
0.2126752471284449
 50
176.8326006760590019
 51
227.8998851567245936
  0
ARC
  5
126B3
  8
0
 10
3774.1741059779210445
 20
153.6830712436841111
 30
0.0
 40
0.0520464753664584
 50
234.853589496727011
 51
280.5552295869359227
  0
ARC
  5
126B4
  8
0
 10
3774.861909793176892
 20
153.2691265511226959
 30
0.0
 40
0.0327759399743014
 50
146.2413632573415043
 51
218.1775222818640998
  0
ARC
  5
126B5
  8
0
 10
3774.8848366236061338
 20
153.2339879520999091
 30
0.0
 40
0.0732400160251474
 50
38.8265423703281414
 51
133.2429870798358138
  0
ARC
  5
126B6
  8
0
 10
3774.9143033140530861
 20
153.2665522263629896
 30
0.0
 40
0.0306528435114846
 50
292.7960846879789756
 51
25.828166192819161
  0
ARC
  5
126B7
  8
0
 10
3774.5916917684889995
 20
153.3965997323005013
 30
0.0
 40
0.0327407848759809
 50
182.4762321236329115
 51
233.9743497910093026
  0
ARC
  5
126B8
  8
0
 10
3774.6056810679287992
 20
153.4158362352528968
 30
0.0
 40
0.0565261489613922
 50
233.9743497910093026
 51
304.1580969886553021
  0
ARC
  5
126B9
  8
0
 10
3774.6177183761719789
 20
153.3980959795752028
 30
0.0
 40
0.0350875514967077
 50
304.1580969886553021
 51
354.0259984478281012
  0
LINE
  5
126BA
  8
0
 10
3774.5589815559710587
 20
153.3951851683023904
 30
0.0
 11
3774.5582725384738296
 21
153.4321682515746943
 31
0.0
  0
LINE
  5
126BB
  8
0
 10
3774.6526153750251069
 20
153.3944441661712972
 30
0.0
 11
3774.6582058942440199
 21
153.4314016776164067
 31
0.0
  0
ARC
  5
126BC
  8
0
 10
3774.6058848341090197
 20
153.3893029406530957
 30
0.0
 40
0.0164980483040879
 50
228.7944373778869931
 51
311.9769328976598786
  0
ARC
  5
126BD
  8
0
 10
3774.6139911895579644
 20
153.3802926284733985
 30
0.0
 40
0.0043778699118009
 50
311.9769328976382781
 51
50.6172861048208205
  0
ARC
  5
126BE
  8
0
 10
3774.6062767598509708
 20
153.3708951489549861
 30
0.0
 40
0.0165362023226161
 50
50.6172861048409573
 51
136.4989669744716991
  0
ARC
  5
126BF
  8
0
 10
3774.5982173415932266
 20
153.3800708305982994
 30
0.0
 40
0.0045120828117922
 50
150.7120703864623863
 51
224.815114008186498
  0
ARC
  5
126C0
  8
0
 10
3774.5849016467050205
 20
153.413378111590788
 30
0.0
 40
0.0327759399743014
 50
146.2413632573415043
 51
218.1775222818640998
  0
ARC
  5
126C1
  8
0
 10
3774.6078284771338076
 20
153.3782395125678875
 30
0.0
 40
0.0732400160251474
 50
38.8265423703281414
 51
133.2429870798358138
  0
ARC
  5
126C2
  8
0
 10
3774.6372951675812146
 20
153.4108037868311101
 30
0.0
 40
0.0306528435114846
 50
292.7960846879789756
 51
25.828166192819161
  0
ARC
  5
126C3
  8
0
 10
3774.3778946516131327
 20
153.5669705665266065
 30
0.0
 40
0.0327407848759809
 50
182.4762321236329115
 51
233.9743497910093026
  0
ARC
  5
126C4
  8
0
 10
3774.3918839510529324
 20
153.586207069479002
 30
0.0
 40
0.0565261489613922
 50
233.9743497910093026
 51
304.1580969886553021
  0
ARC
  5
126C5
  8
0
 10
3774.4039212592961121
 20
153.568466813801308
 30
0.0
 40
0.0350875514967077
 50
304.1580969886553021
 51
354.0259984478281012
  0
LINE
  5
126C6
  8
0
 10
3774.3451844390951919
 20
153.5655560025286093
 30
0.0
 11
3774.3444754215979628
 21
153.6025390858007995
 31
0.0
  0
LINE
  5
126C7
  8
0
 10
3774.4388182581478759
 20
153.5648150003974877
 30
0.0
 11
3774.4444087773690626
 21
153.6017725118425119
 31
0.0
  0
ARC
  5
126C8
  8
0
 10
3774.3920877172317887
 20
153.5596737748792009
 30
0.0
 40
0.0164980483040879
 50
228.7944373778869931
 51
311.9769328976598786
  0
ARC
  5
126C9
  8
0
 10
3774.4001940726830071
 20
153.5506634626995037
 30
0.0
 40
0.0043778699118009
 50
311.9769328976382781
 51
50.6172861048208205
  0
ARC
  5
126CA
  8
0
 10
3774.3924796429751041
 20
153.5412659831810913
 30
0.0
 40
0.0165362023226161
 50
50.6172861048409573
 51
136.4989669744716991
  0
ARC
  5
126CB
  8
0
 10
3774.3844202247169051
 20
153.5504416648244899
 30
0.0
 40
0.0045120828117922
 50
150.7120703864623863
 51
224.815114008186498
  0
ARC
  5
126CC
  8
0
 10
3774.3711045298291538
 20
153.5837489458168932
 30
0.0
 40
0.0327759399743014
 50
146.2413632573415043
 51
218.1775222818640998
  0
ARC
  5
126CD
  8
0
 10
3774.3940313602579408
 20
153.5486103467939927
 30
0.0
 40
0.0732400160251474
 50
38.8265423703281414
 51
133.2429870798358138
  0
ARC
  5
126CE
  8
0
 10
3774.4234980507048931
 20
153.5811746210571869
 30
0.0
 40
0.0306528435114846
 50
292.7960846879789756
 51
25.828166192819161
  0
ARC
  5
126CF
  8
0
 10
3774.1481838344811877
 20
153.7773390520247005
 30
0.0
 40
0.0327407848759809
 50
182.4762321236329115
 51
233.9743497910093026
  0
ARC
  5
126D0
  8
0
 10
3774.1621731339209873
 20
153.7965755549770961
 30
0.0
 40
0.0565261489613922
 50
233.9743497910093026
 51
304.1580969886553021
  0
ARC
  5
126D1
  8
0
 10
3774.174210442164167
 20
153.7788352992994021
 30
0.0
 40
0.0350875514967077
 50
304.1580969886553021
 51
354.0259984478281012
  0
LINE
  5
126D2
  8
0
 10
3774.1154736219627921
 20
153.7759244880267033
 30
0.0
 11
3774.1147646044660178
 21
153.8129075712988936
 31
0.0
  0
LINE
  5
126D3
  8
0
 10
3774.2091074410168403
 20
153.7751834858956101
 30
0.0
 11
3774.2146979602371175
 21
153.8121409973406912
 31
0.0
  0
ARC
  5
126D4
  8
0
 10
3774.1623769000998436
 20
153.770042260377295
 30
0.0
 40
0.0164980483040879
 50
228.7944373778869931
 51
311.9769328976598786
  0
ARC
  5
126D5
  8
0
 10
3774.170483255551062
 20
153.7610319481975978
 30
0.0
 40
0.0043778699118009
 50
311.9769328976382781
 51
50.6172861048208205
  0
ARC
  5
126D6
  8
0
 10
3774.162768825843159
 20
153.7516344686792138
 30
0.0
 40
0.0165362023226161
 50
50.6172861048409573
 51
136.4989669744716991
  0
ARC
  5
126D7
  8
0
 10
3774.15470940758496
 20
153.7608101503226123
 30
0.0
 40
0.0045120828117922
 50
150.7120703864623863
 51
224.815114008186498
  0
ARC
  5
126D8
  8
0
 10
3774.1413937126972087
 20
153.7941174313149872
 30
0.0
 40
0.0327759399743014
 50
146.2413632573415043
 51
218.1775222818640998
  0
ARC
  5
126D9
  8
0
 10
3774.1643205431259958
 20
153.7589788322920867
 30
0.0
 40
0.0732400160251474
 50
38.8265423703281414
 51
133.2429870798358138
  0
ARC
  5
126DA
  8
0
 10
3774.193787233572948
 20
153.7915431065553094
 30
0.0
 40
0.0306528435114846
 50
292.7960846879789756
 51
25.828166192819161
  0
ARC
  5
126DB
  8
0
 10
3774.9799764967660849
 20
153.4425523962372893
 30
0.0
 40
0.0327407848759809
 50
182.4762321236329115
 51
233.9743497910093026
  0
ARC
  5
126DC
  8
0
 10
3774.9939657962058845
 20
153.4617888991897132
 30
0.0
 40
0.0565261489613922
 50
233.9743497910093026
 51
304.1580969886553021
  0
ARC
  5
126DD
  8
0
 10
3775.0060031044499738
 20
153.4440486435119908
 30
0.0
 40
0.0350875514967077
 50
304.1580969886553021
 51
354.0259984478281012
  0
LINE
  5
126DE
  8
0
 10
3774.9472662842467798
 20
153.4411378322392068
 30
0.0
 11
3774.946557266750915
 21
153.4781209155115107
 31
0.0
  0
LINE
  5
126DF
  8
0
 10
3775.0409001033021923
 20
153.4403968301081136
 30
0.0
 11
3775.0464906225220147
 21
153.4773543415531947
 31
0.0
  0
ARC
  5
126E0
  8
0
 10
3774.9941695623851956
 20
153.4352556045899121
 30
0.0
 40
0.0164980483040879
 50
228.7944373778869931
 51
311.9769328976598786
  0
ARC
  5
126E1
  8
0
 10
3775.0022759178359593
 20
153.4262452924101865
 30
0.0
 40
0.0043778699118009
 50
311.9769328976382781
 51
50.6172861048208205
  0
ARC
  5
126E2
  8
0
 10
3774.9945614881280562
 20
153.4168478128918025
 30
0.0
 40
0.0165362023226161
 50
50.6172861048409573
 51
136.4989669744716991
  0
ARC
  5
126E3
  8
0
 10
3774.9865020698698572
 20
153.4260234945350874
 30
0.0
 40
0.0045120828117922
 50
150.7120703864623863
 51
224.815114008186498
  0
ARC
  5
126E4
  8
0
 10
3774.9731863749821059
 20
153.4593307755276044
 30
0.0
 40
0.0327759399743014
 50
146.2413632573415043
 51
218.1775222818640998
  0
ARC
  5
126E5
  8
0
 10
3774.9961132054118025
 20
153.4241921765047039
 30
0.0
 40
0.0732400160251474
 50
38.8265423703281414
 51
133.2429870798358138
  0
ARC
  5
126E6
  8
0
 10
3775.0255798958578453
 20
153.4567564507678981
 30
0.0
 40
0.0306528435114846
 50
292.7960846879789756
 51
25.828166192819161
  0
ARC
  5
126E7
  8
0
 10
3774.7777837739618008
 20
153.6352180458621888
 30
0.0
 40
0.0327407848759809
 50
182.4762321236329115
 51
233.9743497910093026
  0
ARC
  5
126E8
  8
0
 10
3774.7917730734029647
 20
153.6544545488146127
 30
0.0
 40
0.0565261489613922
 50
233.9743497910093026
 51
304.1580969886553021
  0
ARC
  5
126E9
  8
0
 10
3774.8038103816461444
 20
153.6367142931368903
 30
0.0
 40
0.0350875514967077
 50
304.1580969886553021
 51
354.0259984478281012
  0
LINE
  5
126EA
  8
0
 10
3774.7450735614429504
 20
153.6338034818641063
 30
0.0
 11
3774.7443645439470856
 21
153.6707865651364102
 31
0.0
  0
LINE
  5
126EB
  8
0
 10
3774.8387073804979082
 20
153.6330624797330131
 30
0.0
 11
3774.8442978997181854
 21
153.6700199911780942
 31
0.0
  0
ARC
  5
126EC
  8
0
 10
3774.791976839581821
 20
153.6279212542148116
 30
0.0
 40
0.0164980483040879
 50
228.7944373778869931
 51
311.9769328976598786
  0
ARC
  5
126ED
  8
0
 10
3774.8000831950321299
 20
153.618910942035086
 30
0.0
 40
0.0043778699118009
 50
311.9769328976382781
 51
50.6172861048208205
  0
ARC
  5
126EE
  8
0
 10
3774.7923687653242268
 20
153.609513462516702
 30
0.0
 40
0.0165362023226161
 50
50.6172861048409573
 51
136.4989669744716991
  0
ARC
  5
126EF
  8
0
 10
3774.7843093470660278
 20
153.6186891441601006
 30
0.0
 40
0.0045120828117922
 50
150.7120703864623863
 51
224.815114008186498
  0
ARC
  5
126F0
  8
0
 10
3774.7709936521778218
 20
153.6519964251525039
 30
0.0
 40
0.0327759399743014
 50
146.2413632573415043
 51
218.1775222818640998
  0
ARC
  5
126F1
  8
0
 10
3774.7939204826079731
 20
153.6168578261296034
 30
0.0
 40
0.0732400160251474
 50
38.8265423703281414
 51
133.2429870798358138
  0
ARC
  5
126F2
  8
0
 10
3774.8233871730540159
 20
153.6494221003927123
 30
0.0
 40
0.0306528435114846
 50
292.7960846879789756
 51
25.828166192819161
  0
ARC
  5
126F3
  8
0
 10
3774.6196961690370699
 20
153.8274313710502099
 30
0.0
 40
0.0327407848759809
 50
182.4762321236329115
 51
233.9743497910093026
  0
ARC
  5
126F4
  8
0
 10
3774.6336854684759601
 20
153.8466678740026055
 30
0.0
 40
0.0565261489613922
 50
233.9743497910093026
 51
304.1580969886553021
  0
ARC
  5
126F5
  8
0
 10
3774.6457227767200493
 20
153.8289276183249115
 30
0.0
 40
0.0350875514967077
 50
304.1580969886553021
 51
354.0259984478281012
  0
LINE
  5
126F6
  8
0
 10
3774.5869859565168554
 20
153.826016807052099
 30
0.0
 11
3774.5862769390219
 21
153.8629998903244029
 31
0.0
  0
LINE
  5
126F7
  8
0
 10
3774.6806197755731773
 20
153.8252758049210058
 30
0.0
 11
3774.6862102947920903
 21
153.8622333163660869
 31
0.0
  0
ARC
  5
126F8
  8
0
 10
3774.6338892346570901
 20
153.8201345794028043
 30
0.0
 40
0.0164980483040879
 50
228.7944373778869931
 51
311.9769328976598786
  0
ARC
  5
126F9
  8
0
 10
3774.6419955901060348
 20
153.8111242672231072
 30
0.0
 40
0.0043778699118009
 50
311.9769328976382781
 51
50.6172861048208205
  0
ARC
  5
126FA
  8
0
 10
3774.6342811603990413
 20
153.8017267877046947
 30
0.0
 40
0.0165362023226161
 50
50.6172861048409573
 51
136.4989669744716991
  0
ARC
  5
126FB
  8
0
 10
3774.6262217421408423
 20
153.810902469348008
 30
0.0
 40
0.0045120828117922
 50
150.7120703864623863
 51
224.815114008186498
  0
ARC
  5
126FC
  8
0
 10
3774.6129060472521815
 20
153.8442097503404966
 30
0.0
 40
0.0327759399743014
 50
146.2413632573415043
 51
218.1775222818640998
  0
ARC
  5
126FD
  8
0
 10
3774.635832877681878
 20
153.8090711513175961
 30
0.0
 40
0.0732400160251474
 50
38.8265423703281414
 51
133.2429870798358138
  0
ARC
  5
126FE
  8
0
 10
3774.6652995681288303
 20
153.841635425580705
 30
0.0
 40
0.0306528435114846
 50
292.7960846879789756
 51
25.828166192819161
  0
ARC
  5
126FF
  8
0
 10
3774.4471386975010319
 20
154.0582654388628043
 30
0.0
 40
0.0327407848759809
 50
182.4762321236329115
 51
233.9743497910093026
  0
ARC
  5
12700
  8
0
 10
3774.4611279969421958
 20
154.0775019418150862
 30
0.0
 40
0.0565261489613922
 50
233.9743497910093026
 51
304.1580969886553021
  0
ARC
  5
12701
  8
0
 10
3774.4731653051849207
 20
154.0597616861375059
 30
0.0
 40
0.0350875514967077
 50
304.1580969886553021
 51
354.0259984478281012
  0
LINE
  5
12702
  8
0
 10
3774.414428484983091
 20
154.0568508748646934
 30
0.0
 11
3774.4196043968490812
 21
154.101267405634303
 31
0.0
  0
LINE
  5
12703
  8
0
 10
3774.5080623040371393
 20
154.0561098727336002
 30
0.0
 11
3774.5136528232569617
 21
154.0930673841787097
 31
0.0
  0
ARC
  5
12704
  8
0
 10
3774.4613317631210521
 20
154.0509686472153135
 30
0.0
 40
0.0164980483040879
 50
228.7944373778869931
 51
311.9769328976598786
  0
ARC
  5
12705
  8
0
 10
3774.4694381185709062
 20
154.0419583350355879
 30
0.0
 40
0.0043778699118009
 50
311.9769328976382781
 51
50.6172861048208205
  0
ARC
  5
12706
  8
0
 10
3774.4617236888639127
 20
154.0325608555172892
 30
0.0
 40
0.0165362023226161
 50
50.6172861048409573
 51
136.4989669744716991
  0
ARC
  5
12707
  8
0
 10
3774.4536642706048042
 20
154.0417365371606024
 30
0.0
 40
0.0045120828117922
 50
150.7120703864623863
 51
224.815114008186498
  0
ARC
  5
12708
  8
0
 10
3774.462772142429003
 20
154.0529364482511028
 30
0.0
 40
0.0648022815952927
 50
38.2637768498990027
 51
131.7702619502962023
  0
ARC
  5
12709
  8
0
 10
3774.4965400956511985
 20
154.0659641414206931
 30
0.0
 40
0.0358777464300876
 50
263.1922300373046255
 51
337.9615336573298237
  0
ARC
  5
1270A
  8
0
 10
3774.4882732175078672
 20
154.069310634816901
 30
0.0
 40
0.044796282873448
 50
337.9615336573298237
 51
41.1020668158358617
  0
ARC
  5
1270B
  8
0
 10
3774.4654364307289143
 20
154.049387385231995
 30
0.0
 40
0.0751023005002128
 50
41.1020668158358617
 51
89.0454710170921402
  0
ARC
  5
1270C
  8
0
 10
3774.4655883480531884
 20
154.0585054071488003
 30
0.0
 40
0.0659830131075709
 50
89.0454710170921402
 51
133.7293914724000103
  0
ARC
  5
1270D
  8
0
 10
3774.4404065465669191
 20
154.0848296086059861
 30
0.0
 40
0.0295538117927474
 50
133.7293914723989019
 51
213.5775918320593121
  0
ARC
  5
1270E
  8
0
 10
3775.2092212858929088
 20
153.5674940029429933
 30
0.0
 40
0.0327407848759809
 50
182.4762321236329115
 51
233.9743497910093026
  0
ARC
  5
1270F
  8
0
 10
3775.2232105853331632
 20
153.5867305058955026
 30
0.0
 40
0.0565261489613922
 50
233.9743497910093026
 51
304.1580969886553021
  0
ARC
  5
12710
  8
0
 10
3775.2352478935758882
 20
153.5689902502176949
 30
0.0
 40
0.0350875514967077
 50
304.1580969886553021
 51
354.0259984478281012
  0
LINE
  5
12711
  8
0
 10
3775.1765110733740585
 20
153.5660794389449961
 30
0.0
 11
3775.1758020558781936
 21
153.6030625222171864
 31
0.0
  0
LINE
  5
12712
  8
0
 10
3775.2701448924290162
 20
153.5653384368139029
 30
0.0
 11
3775.2757354116488386
 21
153.6022959482590124
 31
0.0
  0
ARC
  5
12713
  8
0
 10
3775.223414351512929
 20
153.5601972112955877
 30
0.0
 40
0.0164980483040879
 50
228.7944373778869931
 51
311.9769328976598786
  0
ARC
  5
12714
  8
0
 10
3775.2315207069627832
 20
153.5511868991158906
 30
0.0
 40
0.0043778699118009
 50
311.9769328976382781
 51
50.6172861048208205
  0
ARC
  5
12715
  8
0
 10
3775.2238062772557896
 20
153.5417894195975919
 30
0.0
 40
0.0165362023226161
 50
50.6172861048409573
 51
136.4989669744716991
  0
ARC
  5
12716
  8
0
 10
3775.2157468589971359
 20
153.5509651012409051
 30
0.0
 40
0.0045120828117922
 50
150.7120703864623863
 51
224.815114008186498
  0
ARC
  5
12717
  8
0
 10
3775.2024311641089298
 20
153.5842723822333085
 30
0.0
 40
0.0327759399743014
 50
146.2413632573415043
 51
218.1775222818640998
  0
ARC
  5
12718
  8
0
 10
3775.2253579945381716
 20
153.5491337832104932
 30
0.0
 40
0.0732400160251474
 50
38.8265423703281414
 51
133.2429870798358138
  0
ARC
  5
12719
  8
0
 10
3775.2548246849851239
 20
153.5816980574736021
 30
0.0
 40
0.0306528435114846
 50
292.7960846879789756
 51
25.828166192819161
  0
ARC
  5
1271A
  8
0
 10
3775.495529096005157
 20
153.5966370240211063
 30
0.0
 40
0.0327407848759809
 50
182.4762321236329115
 51
233.9743497910093026
  0
ARC
  5
1271B
  8
0
 10
3775.5095183954467757
 20
153.6158735269735018
 30
0.0
 40
0.0565261489613922
 50
233.9743497910093026
 51
304.1580969886553021
  0
ARC
  5
1271C
  8
0
 10
3775.5215557036899554
 20
153.5981332712958931
 30
0.0
 40
0.0350875514967077
 50
304.1580969886553021
 51
354.0259984478281012
  0
LINE
  5
1271D
  8
0
 10
3775.4628188834872162
 20
153.5952224600231091
 30
0.0
 11
3775.4621098659908967
 21
153.6322055432952993
 31
0.0
  0
LINE
  5
1271E
  8
0
 10
3775.5564527025421739
 20
153.5944814578919875
 30
0.0
 11
3775.5620432217619964
 21
153.631438969337097
 31
0.0
  0
ARC
  5
1271F
  8
0
 10
3775.5097221616260867
 20
153.5893402323737007
 30
0.0
 40
0.0164980483040879
 50
228.7944373778869931
 51
311.9769328976598786
  0
ARC
  5
12720
  8
0
 10
3775.5178285170759409
 20
153.5803299201940035
 30
0.0
 40
0.0043778699118009
 50
311.9769328976382781
 51
50.6172861048208205
  0
ARC
  5
12721
  8
0
 10
3775.5101140873689474
 20
153.5709324406755911
 30
0.0
 40
0.0165362023226161
 50
50.6172861048409573
 51
136.4989669744716991
  0
ARC
  5
12722
  8
0
 10
3775.5020546691112031
 20
153.5801081223189897
 30
0.0
 40
0.0045120828117922
 50
150.7120703864623863
 51
224.815114008186498
  0
ARC
  5
12723
  8
0
 10
3775.4887389742220876
 20
153.613415403311393
 30
0.0
 40
0.0327759399743014
 50
146.2413632573415043
 51
218.1775222818640998
  0
ARC
  5
12724
  8
0
 10
3775.5116658046508746
 20
153.5782768042884925
 30
0.0
 40
0.0732400160251474
 50
38.8265423703281414
 51
133.2429870798358138
  0
ARC
  5
12725
  8
0
 10
3775.5411324950978269
 20
153.6108410785516867
 30
0.0
 40
0.0306528435114846
 50
292.7960846879789756
 51
25.828166192819161
  0
ARC
  5
12726
  8
0
 10
3775.46988784940595
 20
153.8422413775928135
 30
0.0
 40
0.0327407848759809
 50
182.4762321236329115
 51
233.9743497910093026
  0
ARC
  5
12727
  8
0
 10
3775.4838771488462044
 20
153.861477880545209
 30
0.0
 40
0.0565261489613922
 50
233.9743497910093026
 51
304.1580969886553021
  0
ARC
  5
12728
  8
0
 10
3775.4959144570889293
 20
153.8437376248674866
 30
0.0
 40
0.0350875514967077
 50
304.1580969886553021
 51
354.0259984478281012
  0
LINE
  5
12729
  8
0
 10
3775.4371776368870997
 20
153.8408268135947026
 30
0.0
 11
3775.4364686193898706
 21
153.8778098968670065
 31
0.0
  0
LINE
  5
1272A
  8
0
 10
3775.5308114559411479
 20
153.8400858114636094
 30
0.0
 11
3775.5364019751609703
 21
153.8770433229086905
 31
0.0
  0
ARC
  5
1272B
  8
0
 10
3775.4840809150250607
 20
153.8349445859452942
 30
0.0
 40
0.0164980483040879
 50
228.7944373778869931
 51
311.9769328976598786
  0
ARC
  5
1272C
  8
0
 10
3775.4921872704758243
 20
153.8259342737657107
 30
0.0
 40
0.0043778699118009
 50
311.9769328976382781
 51
50.6172861048208205
  0
ARC
  5
1272D
  8
0
 10
3775.4844728407679213
 20
153.8165367942472983
 30
0.0
 40
0.0165362023226161
 50
50.6172861048409573
 51
136.4989669744716991
  0
ARC
  5
1272E
  8
0
 10
3775.476413422510177
 20
153.8257124758906116
 30
0.0
 40
0.0045120828117922
 50
150.7120703864623863
 51
224.815114008186498
  0
ARC
  5
1272F
  8
0
 10
3775.463097727621971
 20
153.8590197568829865
 30
0.0
 40
0.0327759399743014
 50
146.2413632573415043
 51
218.1775222818640998
  0
ARC
  5
12730
  8
0
 10
3775.4860245580512128
 20
153.8238811578601997
 30
0.0
 40
0.0732400160251474
 50
38.8265423703281414
 51
133.2429870798358138
  0
ARC
  5
12731
  8
0
 10
3775.5154912484981651
 20
153.8564454321233086
 30
0.0
 40
0.0306528435114846
 50
292.7960846879789756
 51
25.828166192819161
  0
ARC
  5
12732
  8
0
 10
3775.4194153101561824
 20
154.0653434041144862
 30
0.0
 40
0.0327407848759809
 50
182.4762321236329115
 51
233.9743497910093026
  0
ARC
  5
12733
  8
0
 10
3775.433404609595982
 20
154.0845799070669102
 30
0.0
 40
0.0565261489613922
 50
233.9743497910093026
 51
304.1580969886553021
  0
ARC
  5
12734
  8
0
 10
3775.4454419178400713
 20
154.0668396513891878
 30
0.0
 40
0.0350875514967077
 50
304.1580969886553021
 51
354.0259984478281012
  0
LINE
  5
12735
  8
0
 10
3775.3867050976377868
 20
154.0639288401164038
 30
0.0
 11
3775.3859960801410125
 21
154.1009119233887077
 31
0.0
  0
LINE
  5
12736
  8
0
 10
3775.480338916691835
 20
154.0631878379853106
 30
0.0
 11
3775.4859294359121122
 21
154.1001453494303917
 31
0.0
  0
ARC
  5
12737
  8
0
 10
3775.4336083757762026
 20
154.0580466124671091
 30
0.0
 40
0.0164980483040879
 50
228.7944373778869931
 51
311.9769328976598786
  0
ARC
  5
12738
  8
0
 10
3775.4417147312260568
 20
154.0490363002874119
 30
0.0
 40
0.0043778699118009
 50
311.9769328976382781
 51
50.6172861048208205
  0
ARC
  5
12739
  8
0
 10
3775.4340003015190632
 20
154.0396388207689995
 30
0.0
 40
0.0165362023226161
 50
50.6172861048409573
 51
136.4989669744716991
  0
ARC
  5
1273A
  8
0
 10
3775.4259408832599547
 20
154.0488145024123128
 30
0.0
 40
0.0045120828117922
 50
150.7120703864623863
 51
224.815114008186498
  0
ARC
  5
1273B
  8
0
 10
3775.4126251883731129
 20
154.0821217834046877
 30
0.0
 40
0.0327759399743014
 50
146.2413632573415043
 51
218.1775222818640998
  0
ARC
  5
1273C
  8
0
 10
3775.4355520188019
 20
154.0469831843819009
 30
0.0
 40
0.0732400160251474
 50
38.8265423703281414
 51
133.2429870798358138
  0
ARC
  5
1273D
  8
0
 10
3775.4650187092479428
 20
154.0795474586450098
 30
0.0
 40
0.0306528435114846
 50
292.7960846879789756
 51
25.828166192819161
  0
ARC
  5
1273E
  8
0
 10
3775.3538048360269386
 20
154.3291342663665944
 30
0.0
 40
0.0327407848759809
 50
182.4762321236329115
 51
233.9743497910093026
  0
ARC
  5
1273F
  8
0
 10
3775.3677941354681025
 20
154.3483707693189899
 30
0.0
 40
0.0565261489613922
 50
233.9743497910093026
 51
304.1580969886553021
  0
ARC
  5
12740
  8
0
 10
3775.3798314437108274
 20
154.3306305136412959
 30
0.0
 40
0.0350875514967077
 50
304.1580969886553021
 51
354.0259984478281012
  0
LINE
  5
12741
  8
0
 10
3775.3210946235089978
 20
154.3277197023685119
 30
0.0
 11
3775.3203856060131329
 21
154.3647027856407874
 31
0.0
  0
LINE
  5
12742
  8
0
 10
3775.4147284425639555
 20
154.3269787002373903
 30
0.0
 11
3775.4203189617837779
 21
154.3639362116824998
 31
0.0
  0
ARC
  5
12743
  8
0
 10
3775.3679979016469588
 20
154.3218374747191888
 30
0.0
 40
0.0164980483040879
 50
228.7944373778869931
 51
311.9769328976598786
  0
ARC
  5
12744
  8
0
 10
3775.3761042570968129
 20
154.3128271625394916
 30
0.0
 40
0.0043778699118009
 50
311.9769328976382781
 51
50.6172861048208205
  0
ARC
  5
12745
  8
0
 10
3775.3683898273889099
 20
154.3034296830211076
 30
0.0
 40
0.0165362023226161
 50
50.6172861048409573
 51
136.4989669744716991
  0
ARC
  5
12746
  8
0
 10
3775.3603304091320751
 20
154.3126053646645062
 30
0.0
 40
0.0045120828117922
 50
150.7120703864623863
 51
224.815114008186498
  0
ARC
  5
12747
  8
0
 10
3775.3470147142429596
 20
154.3459126456569095
 30
0.0
 40
0.0327759399743014
 50
146.2413632573415043
 51
218.1775222818640998
  0
ARC
  5
12748
  8
0
 10
3775.3699415446731109
 20
154.310774046634009
 30
0.0
 40
0.0732400160251474
 50
38.8265423703281414
 51
133.2429870798358138
  0
ARC
  5
12749
  8
0
 10
3775.3994082351191537
 20
154.3433383208970895
 30
0.0
 40
0.0306528435114846
 50
292.7960846879789756
 51
25.828166192819161
  0
ARC
  5
1274A
  8
0
 10
3775.0918482565489285
 20
153.7943132095894043
 30
0.0
 40
0.0327407848759809
 50
182.4762321236329115
 51
233.9743497910093026
  0
ARC
  5
1274B
  8
0
 10
3775.1058375559900924
 20
153.8135497125417999
 30
0.0
 40
0.0565261489613922
 50
233.9743497910093026
 51
304.1580969886553021
  0
ARC
  5
1274C
  8
0
 10
3775.1178748642328173
 20
153.7958094568641059
 30
0.0
 40
0.0350875514967077
 50
304.1580969886553021
 51
354.0259984478281012
  0
LINE
  5
1274D
  8
0
 10
3775.0591380440309877
 20
153.7928986455912934
 30
0.0
 11
3775.0584290265351228
 21
153.8298817288635973
 31
0.0
  0
LINE
  5
1274E
  8
0
 10
3775.1527718630859454
 20
153.7921576434602002
 30
0.0
 11
3775.1588575467408191
 21
153.8323885620060025
 31
0.0
  0
ARC
  5
1274F
  8
0
 10
3775.1060413221689487
 20
153.7870164179419987
 30
0.0
 40
0.0164980483040879
 50
228.7944373778869931
 51
311.9769328976598786
  0
ARC
  5
12750
  8
0
 10
3775.1141476776188028
 20
153.7780061057623016
 30
0.0
 40
0.0043778699118009
 50
311.9769328976382781
 51
50.6172861048208205
  0
ARC
  5
12751
  8
0
 10
3775.1064332479118093
 20
153.7686086262438891
 30
0.0
 40
0.0165362023226161
 50
50.6172861048409573
 51
136.4989669744716991
  0
ARC
  5
12752
  8
0
 10
3775.098373829654065
 20
153.7777843078872877
 30
0.0
 40
0.0045120828117922
 50
150.7120703864623863
 51
224.815114008186498
  0
ARC
  5
12753
  8
0
 10
3775.0857452170389479
 20
153.8095278444579037
 30
0.0
 40
0.0337722305572683
 50
129.6410102714754942
 51
219.5948316789254022
  0
ARC
  5
12754
  8
0
 10
3775.1099564487399221
 20
153.7803041070073959
 30
0.0
 40
0.0717223368944086
 50
52.3012594296326512
 51
129.6410102714754942
  0
ARC
  5
12755
  8
0
 10
3775.1300747664467963
 20
153.8063353509851083
 30
0.0
 40
0.0388229087782148
 50
285.4344335247708955
 51
52.3012594296326512
  0
ARC
  5
12756
  8
0
 10
3774.9863044127109788
 20
154.0040985597252927
 30
0.0
 40
0.0327407848759809
 50
182.4762321236329115
 51
233.9743497910093026
  0
ARC
  5
12757
  8
0
 10
3775.0002937121521427
 20
154.0233350626776883
 30
0.0
 40
0.0565261489613922
 50
233.9743497910093026
 51
304.1580969886553021
  0
ARC
  5
12758
  8
0
 10
3775.0123310203948677
 20
154.0055948069999943
 30
0.0
 40
0.0350875514967077
 50
304.1580969886553021
 51
354.0259984478281012
  0
LINE
  5
12759
  8
0
 10
3774.953594200193038
 20
154.0026839957272102
 30
0.0
 11
3774.9528851826971731
 21
154.0396670789995142
 31
0.0
  0
LINE
  5
1275A
  8
0
 10
3775.0472280192470862
 20
154.0019429935960886
 30
0.0
 11
3775.0533137029028694
 21
154.0421739121418909
 31
0.0
  0
ARC
  5
1275B
  8
0
 10
3775.000497478330999
 20
153.9968017680778871
 30
0.0
 40
0.0164980483040879
 50
228.7944373778869931
 51
311.9769328976598786
  0
ARC
  5
1275C
  8
0
 10
3775.0086038337808532
 20
153.98779145589819
 30
0.0
 40
0.0043778699118009
 50
311.9769328976382781
 51
50.6172861048208205
  0
ARC
  5
1275D
  8
0
 10
3775.0008894040729501
 20
153.978393976379806
 30
0.0
 40
0.0165362023226161
 50
50.6172861048409573
 51
136.4989669744716991
  0
ARC
  5
1275E
  8
0
 10
3774.9928299858161154
 20
153.9875696580232045
 30
0.0
 40
0.0045120828117922
 50
150.7120703864623863
 51
224.815114008186498
  0
ARC
  5
1275F
  8
0
 10
3774.9802013732019077
 20
154.0193131945937921
 30
0.0
 40
0.0337722305572683
 50
129.6410102714754942
 51
219.5948316789254022
  0
ARC
  5
12760
  8
0
 10
3775.0044126049010629
 20
153.9900894571433128
 30
0.0
 40
0.0717223368944086
 50
52.3012594296326512
 51
129.6410102714754942
  0
ARC
  5
12761
  8
0
 10
3775.0245309226079371
 20
154.0161207011209115
 30
0.0
 40
0.0388229087782148
 50
285.4344335247708955
 51
52.3012594296326512
  0
ARC
  5
12762
  8
0
 10
3774.8686123724219215
 20
154.2525364719382992
 30
0.0
 40
0.0327407848759809
 50
182.4762321236329115
 51
233.9743497910093026
  0
ARC
  5
12763
  8
0
 10
3774.8826016718621759
 20
154.2717729748906947
 30
0.0
 40
0.0565261489613922
 50
233.9743497910093026
 51
304.1580969886553021
  0
ARC
  5
12764
  8
0
 10
3774.8946389801058103
 20
154.2540327192130007
 30
0.0
 40
0.0350875514967077
 50
304.1580969886553021
 51
354.0259984478281012
  0
LINE
  5
12765
  8
0
 10
3774.8359021599039806
 20
154.2511219079401883
 30
0.0
 11
3774.8351931424081158
 21
154.288104991212407
 31
0.0
  0
LINE
  5
12766
  8
0
 10
3774.9295359789580289
 20
154.2503809058090951
 30
0.0
 11
3774.9356216626151763
 21
154.2906118243548121
 31
0.0
  0
ARC
  5
12767
  8
0
 10
3774.8828054380419417
 20
154.2452396802908083
 30
0.0
 40
0.0164980483040879
 50
228.7944373778869931
 51
311.9769328976598786
  0
ARC
  5
12768
  8
0
 10
3774.8909117934917958
 20
154.2362293681111112
 30
0.0
 40
0.0043778699118009
 50
311.9769328976382781
 51
50.6172861048208205
  0
ARC
  5
12769
  8
0
 10
3774.8831973637838928
 20
154.2268318885928124
 30
0.0
 40
0.0165362023226161
 50
50.6172861048409573
 51
136.4989669744716991
  0
ARC
  5
1276A
  8
0
 10
3774.875137945527058
 20
154.2360075702360973
 30
0.0
 40
0.0045120828117922
 50
150.7120703864623863
 51
224.815114008186498
  0
ARC
  5
1276B
  8
0
 10
3774.8625093329119409
 20
154.2677511068067133
 30
0.0
 40
0.0337722305572683
 50
129.6410102714754942
 51
219.5948316789254022
  0
ARC
  5
1276C
  8
0
 10
3774.886720564612915
 20
154.2385273693562056
 30
0.0
 40
0.0717223368944086
 50
52.3012594296326512
 51
129.6410102714754942
  0
ARC
  5
1276D
  8
0
 10
3774.9068388823197893
 20
154.2645586133338895
 30
0.0
 40
0.0388229087782148
 50
285.4344335247708955
 51
52.3012594296326512
  0
ARC
  5
1276E
  8
0
 10
3776.4068260100498264
 20
152.572353876104188
 30
0.0
 40
0.0327407848759809
 50
182.4762321236329115
 51
233.9743497910093026
  0
ARC
  5
1276F
  8
0
 10
3776.4192892224291427
 20
152.5870240131496871
 30
0.0
 40
0.0519557976831525
 50
232.3734932175810002
 51
306.5685445443539265
  0
ARC
  5
12770
  8
0
 10
3776.4282166224079447
 20
152.5752441381318931
 30
0.0
 40
0.0371763609439418
 50
306.3346957850072272
 51
354.3308164649993159
  0
LINE
  5
12771
  8
0
 10
3776.3741157975318856
 20
152.5709393121061055
 30
0.0
 11
3776.3707974214808019
 21
152.6039915144141048
 31
0.0
  0
LINE
  5
12772
  8
0
 10
3776.4652111480099848
 20
152.5715716881948083
 30
0.0
 11
3776.4619961655848783
 21
152.6013006419260023
 31
0.0
  0
ARC
  5
12773
  8
0
 10
3776.4210190756698466
 20
152.5650570844566971
 30
0.0
 40
0.0164980483040879
 50
228.7944373778869931
 51
311.9769328976598786
  0
ARC
  5
12774
  8
0
 10
3776.4291254311201556
 20
152.5560467722771136
 30
0.0
 40
0.0043778699118009
 50
311.9769328976382781
 51
50.6172861048208205
  0
ARC
  5
12775
  8
0
 10
3776.421411001413162
 20
152.5466492927587012
 30
0.0
 40
0.0165362023226161
 50
50.6172861048409573
 51
136.4989669744716991
  0
ARC
  5
12776
  8
0
 10
3776.413351583154963
 20
152.5558249744019861
 30
0.0
 40
0.0045120828117922
 50
150.7120703864623863
 51
224.815114008186498
  0
ARC
  5
12777
  8
0
 10
3776.3777121655471092
 20
152.5827466060740107
 30
0.0
 40
0.0312254270168202
 50
214.0047302494425878
 51
276.7649886979158964
  0
ARC
  5
12778
  8
0
 10
3776.370424386761897
 20
152.5755182760343018
 30
0.0
 40
0.0212280801033819
 50
131.1190116975785998
 51
208.8250705262435929
  0
ARC
  5
12779
  8
0
 10
3776.4041534991288245
 20
152.5512154095328867
 30
0.0
 40
0.0624335259496809
 50
106.7748346633827055
 51
139.8039168826720982
  0
ARC
  5
1277A
  8
0
 10
3776.4183675434360339
 20
152.5276687122961903
 30
0.0
 40
0.0893407389813162
 50
66.2409173791077848
 51
111.1485967758442968
  0
ARC
  5
1277B
  8
0
 10
3776.4413323387339005
 20
152.5895636942246938
 30
0.0
 40
0.0237644625752568
 50
342.7479653095153935
 51
56.7501145832507703
  0
ARC
  5
1277C
  8
0
 10
3776.2329903309000656
 20
152.7041884626985109
 30
0.0
 40
0.0327407848759809
 50
182.4762321236329115
 51
233.9743497910093026
  0
ARC
  5
1277D
  8
0
 10
3776.2454535432789271
 20
152.7188585997440953
 30
0.0
 40
0.0519557976831525
 50
232.3734932175810002
 51
306.5685445443539265
  0
ARC
  5
1277E
  8
0
 10
3776.2543809432590933
 20
152.7070787247263013
 30
0.0
 40
0.0371763609439418
 50
306.3346957850072272
 51
354.3308164649993159
  0
LINE
  5
1277F
  8
0
 10
3776.2002801183821248
 20
152.7027738987005137
 30
0.0
 11
3776.196961742331041
 21
152.735826101008513
 31
0.0
  0
LINE
  5
12780
  8
0
 10
3776.2913754688602239
 20
152.703406274789188
 30
0.0
 11
3776.288160486436027
 21
152.7331352285204105
 31
0.0
  0
ARC
  5
12781
  8
0
 10
3776.2471833965200858
 20
152.6968916710511053
 30
0.0
 40
0.0164980483040879
 50
228.7944373778869931
 51
311.9769328976598786
  0
ARC
  5
12782
  8
0
 10
3776.2552897519708495
 20
152.6878813588714081
 30
0.0
 40
0.0043778699118009
 50
311.9769328976382781
 51
50.6172861048208205
  0
ARC
  5
12783
  8
0
 10
3776.2475753222629464
 20
152.6784838793529957
 30
0.0
 40
0.0165362023226161
 50
50.6172861048409573
 51
136.4989669744716991
  0
ARC
  5
12784
  8
0
 10
3776.2395159040052022
 20
152.6876595609963942
 30
0.0
 40
0.0045120828117922
 50
150.7120703864623863
 51
224.815114008186498
  0
ARC
  5
12785
  8
0
 10
3776.2038764863968936
 20
152.7145811926683905
 30
0.0
 40
0.0312254270168202
 50
214.0047302494425878
 51
276.7649886979158964
  0
ARC
  5
12786
  8
0
 10
3776.1965887076130457
 20
152.70735286262871
 30
0.0
 40
0.0212280801033819
 50
131.1190116975785998
 51
208.8250705262435929
  0
ARC
  5
12787
  8
0
 10
3776.2303178199799731
 20
152.6830499961272949
 30
0.0
 40
0.0624335259496809
 50
106.7748346633827055
 51
139.8039168826720982
  0
ARC
  5
12788
  8
0
 10
3776.2445318642858183
 20
152.6595032988905984
 30
0.0
 40
0.0893407389813162
 50
66.2409173791077848
 51
111.1485967758442968
  0
ARC
  5
12789
  8
0
 10
3776.2674966595841397
 20
152.7213982808189883
 30
0.0
 40
0.0237644625752568
 50
342.7479653095153935
 51
56.7501145832507703
  0
ARC
  5
1278A
  8
0
 10
3776.0800326816320194
 20
152.8291976696810934
 30
0.0
 40
0.0327407848759809
 50
182.4762321236329115
 51
233.9743497910093026
  0
ARC
  5
1278B
  8
0
 10
3776.0924958940117904
 20
152.8438678067265926
 30
0.0
 40
0.0519557976831525
 50
232.3734932175810002
 51
306.5685445443539265
  0
ARC
  5
1278C
  8
0
 10
3776.1014232939910471
 20
152.8320879317087986
 30
0.0
 40
0.0371763609439418
 50
306.3346957850072272
 51
354.3308164649993159
  0
LINE
  5
1278D
  8
0
 10
3776.0473224691149881
 20
152.8277831056830962
 30
0.0
 11
3776.0440040930629948
 21
152.8608353079910955
 31
0.0
  0
LINE
  5
1278E
  8
0
 10
3776.1384178195930872
 20
152.8284154817717138
 30
0.0
 11
3776.1352028371670713
 21
152.8581444355029078
 31
0.0
  0
ARC
  5
1278F
  8
0
 10
3776.0942257472529491
 20
152.8219008780336878
 30
0.0
 40
0.0164980483040879
 50
228.7944373778869931
 51
311.9769328976598786
  0
ARC
  5
12790
  8
0
 10
3776.1023321027028032
 20
152.8128905658539907
 30
0.0
 40
0.0043778699118009
 50
311.9769328976382781
 51
50.6172861048208205
  0
ARC
  5
12791
  8
0
 10
3776.0946176729949002
 20
152.8034930863356067
 30
0.0
 40
0.0165362023226161
 50
50.6172861048409573
 51
136.4989669744716991
  0
ARC
  5
12792
  8
0
 10
3776.0865582547380654
 20
152.8126687679790052
 30
0.0
 40
0.0045120828117922
 50
150.7120703864623863
 51
224.815114008186498
  0
ARC
  5
12793
  8
0
 10
3776.0509188371288474
 20
152.8395903996510015
 30
0.0
 40
0.0312254270168202
 50
214.0047302494425878
 51
276.7649886979158964
  0
ARC
  5
12794
  8
0
 10
3776.0436310583449995
 20
152.8323620696112926
 30
0.0
 40
0.0212280801033819
 50
131.1190116975785998
 51
208.8250705262435929
  0
ARC
  5
12795
  8
0
 10
3776.0773601707119269
 20
152.8080592031099059
 30
0.0
 40
0.0624335259496809
 50
106.7748346633827055
 51
139.8039168826720982
  0
ARC
  5
12796
  8
0
 10
3776.0915742150182268
 20
152.7845125058732094
 30
0.0
 40
0.0893407389813162
 50
66.2409173791077848
 51
111.1485967758442968
  0
ARC
  5
12797
  8
0
 10
3776.1145390103160935
 20
152.8464074878015992
 30
0.0
 40
0.0237644625752568
 50
342.7479653095153935
 51
56.7501145832507703
  0
ARC
  5
12798
  8
0
 10
3776.7075774116460707
 20
152.8526350089854873
 30
0.0
 40
0.0327407848759809
 50
182.4762321236329115
 51
233.9743497910093026
  0
ARC
  5
12799
  8
0
 10
3776.7200406240258417
 20
152.8673051460309864
 30
0.0
 40
0.0519557976831525
 50
232.3734932175810002
 51
306.5685445443539265
  0
ARC
  5
1279A
  8
0
 10
3776.7289680240050984
 20
152.8555252710131924
 30
0.0
 40
0.0371763609439418
 50
306.3346957850072272
 51
354.3308164649993159
  0
LINE
  5
1279B
  8
0
 10
3776.6748671991290394
 20
152.8512204449874048
 30
0.0
 11
3776.6715488230770461
 21
152.8842726472954041
 31
0.0
  0
LINE
  5
1279C
  8
0
 10
3776.7659625496071385
 20
152.8518528210761076
 30
0.0
 11
3776.7627475671820321
 21
152.8815817748073016
 31
0.0
  0
ARC
  5
1279D
  8
0
 10
3776.7217704772670004
 20
152.8453382173379964
 30
0.0
 40
0.0164980483040879
 50
228.7944373778869931
 51
311.9769328976598786
  0
ARC
  5
1279E
  8
0
 10
3776.7298768327168546
 20
152.8363279051584129
 30
0.0
 40
0.0043778699118009
 50
311.9769328976382781
 51
50.6172861048208205
  0
ARC
  5
1279F
  8
0
 10
3776.722162403009861
 20
152.8269304256400005
 30
0.0
 40
0.0165362023226161
 50
50.6172861048409573
 51
136.4989669744716991
  0
ARC
  5
127A0
  8
0
 10
3776.7141029847512073
 20
152.8361061072833138
 30
0.0
 40
0.0045120828117922
 50
150.7120703864623863
 51
224.815114008186498
  0
ARC
  5
127A1
  8
0
 10
3776.6784635671428987
 20
152.86302773895531
 30
0.0
 40
0.0312254270168202
 50
214.0047302494425878
 51
276.7649886979158964
  0
ARC
  5
127A2
  8
0
 10
3776.6711757883590508
 20
152.8557994089156011
 30
0.0
 40
0.0212280801033819
 50
131.1190116975785998
 51
208.8250705262435929
  0
ARC
  5
127A3
  8
0
 10
3776.7049049007259782
 20
152.831496542414186
 30
0.0
 40
0.0624335259496809
 50
106.7748346633827055
 51
139.8039168826720982
  0
ARC
  5
127A4
  8
0
 10
3776.7191189450318234
 20
152.8079498451774896
 30
0.0
 40
0.0893407389813162
 50
66.2409173791077848
 51
111.1485967758442968
  0
ARC
  5
127A5
  8
0
 10
3776.7420837403301448
 20
152.8698448271059931
 30
0.0
 40
0.0237644625752568
 50
342.7479653095153935
 51
56.7501145832507703
  0
ARC
  5
127A6
  8
0
 10
3776.4785601960261374
 20
152.9659686396186942
 30
0.0
 40
0.0327407848759809
 50
182.4762321236329115
 51
233.9743497910093026
  0
ARC
  5
127A7
  8
0
 10
3776.4910234084040894
 20
152.980638776664307
 30
0.0
 40
0.0519557976831525
 50
232.3734932175810002
 51
306.5685445443539265
  0
ARC
  5
127A8
  8
0
 10
3776.4999508083828914
 20
152.9688589016463993
 30
0.0
 40
0.0371763609439418
 50
306.3346957850072272
 51
354.3308164649993159
  0
LINE
  5
127A9
  8
0
 10
3776.4458499835068324
 20
152.9645540756206117
 30
0.0
 11
3776.4425316074571128
 21
152.9976062779286963
 31
0.0
  0
LINE
  5
127AA
  8
0
 10
3776.536945333984022
 20
152.9651864517092861
 30
0.0
 11
3776.5337303515598251
 21
152.9949154054405085
 31
0.0
  0
ARC
  5
127AB
  8
0
 10
3776.4927532616461576
 20
152.9586718479712886
 30
0.0
 40
0.0164980483040879
 50
228.7944373778869931
 51
311.9769328976598786
  0
ARC
  5
127AC
  8
0
 10
3776.5008596170960118
 20
152.9496615357915914
 30
0.0
 40
0.0043778699118009
 50
311.9769328976382781
 51
50.6172861048208205
  0
ARC
  5
127AD
  8
0
 10
3776.4931451873881088
 20
152.9402640562732074
 30
0.0
 40
0.0165362023226161
 50
50.6172861048409573
 51
136.4989669744716991
  0
ARC
  5
127AE
  8
0
 10
3776.4850857691299097
 20
152.9494397379164923
 30
0.0
 40
0.0045120828117922
 50
150.7120703864623863
 51
224.815114008186498
  0
ARC
  5
127AF
  8
0
 10
3776.4494463515211464
 20
152.9763613695886022
 30
0.0
 40
0.0312254270168202
 50
214.0047302494425878
 51
276.7649886979158964
  0
ARC
  5
127B0
  8
0
 10
3776.442158572738208
 20
152.969133039548808
 30
0.0
 40
0.0212280801033819
 50
131.1190116975785998
 51
208.8250705262435929
  0
ARC
  5
127B1
  8
0
 10
3776.475887685104226
 20
152.9448301730473929
 30
0.0
 40
0.0624335259496809
 50
106.7748346633827055
 51
139.8039168826720982
  0
ARC
  5
127B2
  8
0
 10
3776.4901017294109806
 20
152.9212834758108102
 30
0.0
 40
0.0893407389813162
 50
66.2409173791077848
 51
111.1485967758442968
  0
ARC
  5
127B3
  8
0
 10
3776.5130665247088473
 20
152.9831784577392
 30
0.0
 40
0.0237644625752568
 50
342.7479653095153935
 51
56.7501145832507703
  0
ARC
  5
127B4
  8
0
 10
3775.8748487984507847
 20
152.9649064566185928
 30
0.0
 40
0.0327407848759809
 50
182.4762321236329115
 51
233.9743497910093026
  0
ARC
  5
127B5
  8
0
 10
3775.8873120108301009
 20
152.9795765936642056
 30
0.0
 40
0.0519557976831525
 50
232.3734932175810002
 51
306.5685445443539265
  0
ARC
  5
127B6
  8
0
 10
3775.8962394108089029
 20
152.9677967186462979
 30
0.0
 40
0.0371763609439418
 50
306.3346957850072272
 51
354.3308164649993159
  0
LINE
  5
127B7
  8
0
 10
3775.8421385859328439
 20
152.9634918926205955
 30
0.0
 11
3775.8386096252052084
 21
152.9986415929994052
 31
0.0
  0
LINE
  5
127B8
  8
0
 10
3775.933233936410943
 20
152.9641242687092131
 30
0.0
 11
3775.9294935720081412
 21
152.9987114314361065
 31
0.0
  0
ARC
  5
127B9
  8
0
 10
3775.8890418640708049
 20
152.9576096649711872
 30
0.0
 40
0.0164980483040879
 50
228.7944373778869931
 51
311.9769328976598786
  0
ARC
  5
127BA
  8
0
 10
3775.8971482195220233
 20
152.94859935279149
 30
0.0
 40
0.0043778699118009
 50
311.9769328976382781
 51
50.6172861048208205
  0
ARC
  5
127BB
  8
0
 10
3775.8894337898141202
 20
152.939201873273106
 30
0.0
 40
0.0165362023226161
 50
50.6172861048409573
 51
136.4989669744716991
  0
ARC
  5
127BC
  8
0
 10
3775.8813743715559212
 20
152.9483775549165046
 30
0.0
 40
0.0045120828117922
 50
150.7120703864623863
 51
224.815114008186498
  0
ARC
  5
127BD
  8
0
 10
3775.8651097539927832
 20
152.9804930204593063
 30
0.0
 40
0.0444352472690258
 50
223.1207456086582113
 51
260.9150109069635732
  0
ARC
  5
127BE
  8
0
 10
3775.8546378381961404
 20
152.9706864605776957
 30
0.0
 40
0.0300884832723017
 50
152.0581860749726957
 51
223.1207456086569891
  0
ARC
  5
127BF
  8
0
 10
3775.8754107614149689
 20
152.9596683465601927
 30
0.0
 40
0.0536025891574549
 50
91.5928600480444857
 51
152.0581860749726957
  0
ARC
  5
127C0
  8
0
 10
3775.8827897464220769
 20
152.933671223151606
 30
0.0
 40
0.0800716929881737
 50
47.0115857732818512
 51
96.3593003674122457
  0
ARC
  5
127C1
  8
0
 10
3775.9240762297649781
 20
152.9753417865958909
 30
0.0
 40
0.0215132176550405
 50
289.206329521793009
 51
51.7780260926580311
  0
ARC
  5
127C2
  8
0
 10
3776.2578856112090762
 20
153.0691119728386127
 30
0.0
 40
0.0327407848759809
 50
182.4762321236329115
 51
233.9743497910093026
  0
ARC
  5
127C3
  8
0
 10
3776.2703488235888472
 20
153.0837821098841118
 30
0.0
 40
0.0519557976831525
 50
232.3734932175810002
 51
306.5685445443539265
  0
ARC
  5
127C4
  8
0
 10
3776.2792762235671944
 20
153.0720022348662894
 30
0.0
 40
0.0371763609439418
 50
306.3346957850072272
 51
354.3308164649993159
  0
LINE
  5
127C5
  8
0
 10
3776.2251753986911353
 20
153.0676974088405018
 30
0.0
 11
3776.2216464379630452
 21
153.1028471092193115
 31
0.0
  0
LINE
  5
127C6
  8
0
 10
3776.3162707491687797
 20
153.0683297849292046
 30
0.0
 11
3776.3125303847659779
 21
153.1029169476560128
 31
0.0
  0
ARC
  5
127C7
  8
0
 10
3776.2720786768290964
 20
153.0618151811910934
 30
0.0
 40
0.0164980483040879
 50
228.7944373778869931
 51
311.9769328976598786
  0
ARC
  5
127C8
  8
0
 10
3776.28018503227986
 20
153.0528048690115099
 30
0.0
 40
0.0043778699118009
 50
311.9769328976382781
 51
50.6172861048208205
  0
ARC
  5
127C9
  8
0
 10
3776.272470602571957
 20
153.0434073894930975
 30
0.0
 40
0.0165362023226161
 50
50.6172861048409573
 51
136.4989669744716991
  0
ARC
  5
127CA
  8
0
 10
3776.2644111843142127
 20
153.0525830711364108
 30
0.0
 40
0.0045120828117922
 50
150.7120703864623863
 51
224.815114008186498
  0
ARC
  5
127CB
  8
0
 10
3776.2481465667510747
 20
153.0846985366792126
 30
0.0
 40
0.0444352472690258
 50
223.1207456086582113
 51
260.9150109069635732
  0
ARC
  5
127CC
  8
0
 10
3776.2376746509539771
 20
153.0748919767976872
 30
0.0
 40
0.0300884832723017
 50
152.0581860749726957
 51
223.1207456086569891
  0
ARC
  5
127CD
  8
0
 10
3776.2584475741741699
 20
153.063873862780099
 30
0.0
 40
0.0536025891574549
 50
91.5928600480444857
 51
152.0581860749726957
  0
ARC
  5
127CE
  8
0
 10
3776.2658265591808231
 20
153.0378767393715123
 30
0.0
 40
0.0800716929881737
 50
47.0115857732818512
 51
96.3593003674122457
  0
ARC
  5
127CF
  8
0
 10
3776.3071130425219053
 20
153.0795473028157971
 30
0.0
 40
0.0215132176550405
 50
289.206329521793009
 51
51.7780260926580311
  0
ARC
  5
127D0
  8
0
 10
3775.9854452563408813
 20
153.1563374429680096
 30
0.0
 40
0.0327407848759809
 50
182.4762321236329115
 51
233.9743497910093026
  0
ARC
  5
127D1
  8
0
 10
3775.9979084687188333
 20
153.1710075800135087
 30
0.0
 40
0.0519557976831525
 50
232.3734932175810002
 51
306.5685445443539265
  0
ARC
  5
127D2
  8
0
 10
3776.0068358686980901
 20
153.1592277049956863
 30
0.0
 40
0.0371763609439418
 50
306.3346957850072272
 51
354.3308164649993159
  0
LINE
  5
127D3
  8
0
 10
3775.952735043822031
 20
153.1549228789698986
 30
0.0
 11
3775.9492060830939408
 21
153.1900725793487084
 31
0.0
  0
LINE
  5
127D4
  8
0
 10
3776.0438303943001301
 20
153.1555552550586015
 30
0.0
 11
3776.0400900298968736
 21
153.1901424177854949
 31
0.0
  0
ARC
  5
127D5
  8
0
 10
3775.999638321959992
 20
153.149040651320604
 30
0.0
 40
0.0164980483040879
 50
228.7944373778869931
 51
311.9769328976598786
  0
ARC
  5
127D6
  8
0
 10
3776.0077446774112104
 20
153.1400303391409068
 30
0.0
 40
0.0043778699118009
 50
311.9769328976382781
 51
50.6172861048208205
  0
ARC
  5
127D7
  8
0
 10
3776.0000302477028526
 20
153.1306328596224944
 30
0.0
 40
0.0165362023226161
 50
50.6172861048409573
 51
136.4989669744716991
  0
ARC
  5
127D8
  8
0
 10
3775.9919708294451084
 20
153.1398085412658077
 30
0.0
 40
0.0045120828117922
 50
150.7120703864623863
 51
224.815114008186498
  0
ARC
  5
127D9
  8
0
 10
3775.9757062118828799
 20
153.1719240068086094
 30
0.0
 40
0.0444352472690258
 50
223.1207456086582113
 51
260.9150109069635732
  0
ARC
  5
127DA
  8
0
 10
3775.9652342960848728
 20
153.1621174469271125
 30
0.0
 40
0.0300884832723017
 50
152.0581860749726957
 51
223.1207456086569891
  0
ARC
  5
127DB
  8
0
 10
3775.986007219304156
 20
153.1510993329094958
 30
0.0
 40
0.0536025891574549
 50
91.5928600480444857
 51
152.0581860749726957
  0
ARC
  5
127DC
  8
0
 10
3775.9933862043108093
 20
153.1251022095009091
 30
0.0
 40
0.0800716929881737
 50
47.0115857732818512
 51
96.3593003674122457
  0
ARC
  5
127DD
  8
0
 10
3776.0346726876541652
 20
153.166772772945194
 30
0.0
 40
0.0215132176550405
 50
289.206329521793009
 51
51.7780260926580311
  0
ARC
  5
127DE
  8
0
 10
3775.9456677444982233
 20
153.3585594206062979
 30
0.0
 40
0.0327407848759809
 50
182.4762321236329115
 51
233.9743497910093026
  0
ARC
  5
127DF
  8
0
 10
3775.9581309568770848
 20
153.3732295576519107
 30
0.0
 40
0.0519557976831525
 50
232.3734932175810002
 51
306.5685445443539265
  0
ARC
  5
127E0
  8
0
 10
3775.9670583568558868
 20
153.3614496826340883
 30
0.0
 40
0.0371763609439418
 50
306.3346957850072272
 51
354.3308164649993159
  0
LINE
  5
127E1
  8
0
 10
3775.9129575319798278
 20
153.3571448566083006
 30
0.0
 11
3775.9094285712521923
 21
153.3922945569871104
 31
0.0
  0
LINE
  5
127E2
  8
0
 10
3776.0040528824570174
 20
153.3577772326970035
 30
0.0
 11
3776.0003125180551251
 21
153.3923643954238116
 31
0.0
  0
ARC
  5
127E3
  8
0
 10
3775.9598608101177888
 20
153.3512626289588923
 30
0.0
 40
0.0164980483040879
 50
228.7944373778869931
 51
311.9769328976598786
  0
ARC
  5
127E4
  8
0
 10
3775.9679671655690072
 20
153.3422523167793088
 30
0.0
 40
0.0043778699118009
 50
311.9769328976382781
 51
50.6172861048208205
  0
ARC
  5
127E5
  8
0
 10
3775.9602527358601947
 20
153.3328548372608111
 30
0.0
 40
0.0165362023226161
 50
50.6172861048409573
 51
136.4989669744716991
  0
ARC
  5
127E6
  8
0
 10
3775.9521933176019957
 20
153.3420305189042097
 30
0.0
 40
0.0045120828117922
 50
150.7120703864623863
 51
224.815114008186498
  0
ARC
  5
127E7
  8
0
 10
3775.9359287000402219
 20
153.3741459844470114
 30
0.0
 40
0.0444352472690258
 50
223.1207456086582113
 51
260.9150109069635732
  0
ARC
  5
127E8
  8
0
 10
3775.9254567842431243
 20
153.3643394245654861
 30
0.0
 40
0.0300884832723017
 50
152.0581860749726957
 51
223.1207456086569891
  0
ARC
  5
127E9
  8
0
 10
3775.9462297074610433
 20
153.3533213105478978
 30
0.0
 40
0.0536025891574549
 50
91.5928600480444857
 51
152.0581860749726957
  0
ARC
  5
127EA
  8
0
 10
3775.9536086924690608
 20
153.3273241871393111
 30
0.0
 40
0.0800716929881737
 50
47.0115857732818512
 51
96.3593003674122457
  0
ARC
  5
127EB
  8
0
 10
3775.9948951758110525
 20
153.368994750583596
 30
0.0
 40
0.0215132176550405
 50
289.206329521793009
 51
51.7780260926580311
  0
ARC
  5
127EC
  8
0
 10
3775.7644946281388911
 20
153.5206641991914864
 30
0.0
 40
0.0327407848759809
 50
182.4762321236329115
 51
233.9743497910093026
  0
ARC
  5
127ED
  8
0
 10
3775.7769578405182074
 20
153.535334336237014
 30
0.0
 40
0.0519557976831525
 50
232.3734932175810002
 51
306.5685445443539265
  0
ARC
  5
127EE
  8
0
 10
3775.7858852404970094
 20
153.5235544612191916
 30
0.0
 40
0.0371763609439418
 50
306.3346957850072272
 51
354.3308164649993159
  0
LINE
  5
127EF
  8
0
 10
3775.7317844156209503
 20
153.5192496351934039
 30
0.0
 11
3775.7282554548919506
 21
153.5543993355722137
 31
0.0
  0
LINE
  5
127F0
  8
0
 10
3775.82287976609814
 20
153.5198820112821068
 30
0.0
 11
3775.8191394016948834
 21
153.5544691740088865
 31
0.0
  0
ARC
  5
127F1
  8
0
 10
3775.7786876937589113
 20
153.5133674075441093
 30
0.0
 40
0.0164980483040879
 50
228.7944373778869931
 51
311.9769328976598786
  0
ARC
  5
127F2
  8
0
 10
3775.7867940492092202
 20
153.5043570953644121
 30
0.0
 40
0.0043778699118009
 50
311.9769328976382781
 51
50.6172861048208205
  0
ARC
  5
127F3
  8
0
 10
3775.7790796195022267
 20
153.4949596158459997
 30
0.0
 40
0.0165362023226161
 50
50.6172861048409573
 51
136.4989669744716991
  0
ARC
  5
127F4
  8
0
 10
3775.7710202012431182
 20
153.504135297489313
 30
0.0
 40
0.0045120828117922
 50
150.7120703864623863
 51
224.815114008186498
  0
ARC
  5
127F5
  8
0
 10
3775.7547555836808897
 20
153.5362507630320863
 30
0.0
 40
0.0444352472690258
 50
223.1207456086582113
 51
260.9150109069635732
  0
ARC
  5
127F6
  8
0
 10
3775.7442836678828826
 20
153.5264442031505894
 30
0.0
 40
0.0300884832723017
 50
152.0581860749726957
 51
223.1207456086569891
  0
ARC
  5
127F7
  8
0
 10
3775.7650565911021658
 20
153.5154260891330864
 30
0.0
 40
0.0536025891574549
 50
91.5928600480444857
 51
152.0581860749726957
  0
ARC
  5
127F8
  8
0
 10
3775.7724355761101833
 20
153.4894289657244997
 30
0.0
 40
0.0800716929881737
 50
47.0115857732818512
 51
96.3593003674122457
  0
ARC
  5
127F9
  8
0
 10
3775.813722059452175
 20
153.5310995291686993
 30
0.0
 40
0.0215132176550405
 50
289.206329521793009
 51
51.7780260926580311
  0
ARC
  5
127FA
  8
0
 10
3776.1312309089580594
 20
153.5886382796248029
 30
0.0
 40
0.0327407848759809
 50
182.4762321236329115
 51
233.9743497910093026
  0
ARC
  5
127FB
  8
0
 10
3776.1436941213369209
 20
153.6033084166703873
 30
0.0
 40
0.0519557976831525
 50
232.3734932175810002
 51
306.5685445443539265
  0
ARC
  5
127FC
  8
0
 10
3776.1526215213161777
 20
153.591528541652508
 30
0.0
 40
0.0371763609439418
 50
306.3346957850072272
 51
354.3308164649993159
  0
LINE
  5
127FD
  8
0
 10
3776.0985206964401186
 20
153.5872237156268056
 30
0.0
 11
3776.0949917357120285
 21
153.6223734160055869
 31
0.0
  0
LINE
  5
127FE
  8
0
 10
3776.1896160469182178
 20
153.5878560917153948
 30
0.0
 11
3776.1858756825149612
 21
153.6224432544422882
 31
0.0
  0
ARC
  5
127FF
  8
0
 10
3776.1454239745780797
 20
153.5813414879773973
 30
0.0
 40
0.0164980483040879
 50
228.7944373778869931
 51
311.9769328976598786
  0
ARC
  5
12800
  8
0
 10
3776.1535303300288433
 20
153.5723311757977001
 30
0.0
 40
0.0043778699118009
 50
311.9769328976382781
 51
50.6172861048208205
  0
ARC
  5
12801
  8
0
 10
3776.1458159003209403
 20
153.5629336962792877
 30
0.0
 40
0.0165362023226161
 50
50.6172861048409573
 51
136.4989669744716991
  0
ARC
  5
12802
  8
0
 10
3776.137756482063196
 20
153.5721093779226862
 30
0.0
 40
0.0045120828117922
 50
150.7120703864623863
 51
224.815114008186498
  0
ARC
  5
12803
  8
0
 10
3776.121491864500058
 20
153.604224843465488
 30
0.0
 40
0.0444352472690258
 50
223.1207456086582113
 51
260.9150109069635732
  0
ARC
  5
12804
  8
0
 10
3776.1110199487029604
 20
153.5944182835839058
 30
0.0
 40
0.0300884832723017
 50
152.0581860749726957
 51
223.1207456086569891
  0
ARC
  5
12805
  8
0
 10
3776.1317928719217889
 20
153.5834001695664028
 30
0.0
 40
0.0536025891574549
 50
91.5928600480444857
 51
152.0581860749726957
  0
ARC
  5
12806
  8
0
 10
3776.1391718569288969
 20
153.5574030461577877
 30
0.0
 40
0.0800716929881737
 50
47.0115857732818512
 51
96.3593003674122457
  0
ARC
  5
12807
  8
0
 10
3776.1804583402717981
 20
153.599073609602101
 30
0.0
 40
0.0215132176550405
 50
289.206329521793009
 51
51.7780260926580311
  0
ARC
  5
12808
  8
0
 10
3775.8396546578160269
 20
153.7689907219080112
 30
0.0
 40
0.0327407848759809
 50
182.4762321236329115
 51
233.9743497910093026
  0
ARC
  5
12809
  8
0
 10
3775.8521178701948884
 20
153.7836608589535956
 30
0.0
 40
0.0519557976831525
 50
232.3734932175810002
 51
306.5685445443539265
  0
ARC
  5
1280A
  8
0
 10
3775.8610452701741451
 20
153.7718809839358016
 30
0.0
 40
0.0371763609439418
 50
306.3346957850072272
 51
354.3308164649993159
  0
LINE
  5
1280B
  8
0
 10
3775.8069444452980861
 20
153.767576157910014
 30
0.0
 11
3775.8034154845690864
 21
153.8027258582887953
 31
0.0
  0
LINE
  5
1280C
  8
0
 10
3775.8980397957761852
 20
153.7682085339986884
 30
0.0
 11
3775.8942994313729287
 21
153.8027956967254966
 31
0.0
  0
ARC
  5
1280D
  8
0
 10
3775.8538477234360471
 20
153.7616939302606056
 30
0.0
 40
0.0164980483040879
 50
228.7944373778869931
 51
311.9769328976598786
  0
ARC
  5
1280E
  8
0
 10
3775.8619540788859013
 20
153.7526836180809084
 30
0.0
 40
0.0043778699118009
 50
311.9769328976382781
 51
50.6172861048208205
  0
ARC
  5
1280F
  8
0
 10
3775.8542396491779982
 20
153.7432861385626097
 30
0.0
 40
0.0165362023226161
 50
50.6172861048409573
 51
136.4989669744716991
  0
ARC
  5
12810
  8
0
 10
3775.8461802309211635
 20
153.7524618202058946
 30
0.0
 40
0.0045120828117922
 50
150.7120703864623863
 51
224.815114008186498
  0
ARC
  5
12811
  8
0
 10
3775.8299156133571159
 20
153.7845772857486963
 30
0.0
 40
0.0444352472690258
 50
223.1207456086582113
 51
260.9150109069635732
  0
ARC
  5
12812
  8
0
 10
3775.8194436975609278
 20
153.7747707258671994
 30
0.0
 40
0.0300884832723017
 50
152.0581860749726957
 51
223.1207456086569891
  0
ARC
  5
12813
  8
0
 10
3775.8402166207802111
 20
153.7637526118496112
 30
0.0
 40
0.0536025891574549
 50
91.5928600480444857
 51
152.0581860749726957
  0
ARC
  5
12814
  8
0
 10
3775.8475956057868643
 20
153.737755488440996
 30
0.0
 40
0.0800716929881737
 50
47.0115857732818512
 51
96.3593003674122457
  0
ARC
  5
12815
  8
0
 10
3775.888882089128856
 20
153.7794260518853093
 30
0.0
 40
0.0215132176550405
 50
289.206329521793009
 51
51.7780260926580311
  0
ARC
  5
12816
  8
0
 10
3775.8548194860609328
 20
154.0093858713804025
 30
0.0
 40
0.0327407848759809
 50
182.4762321236329115
 51
233.9743497910093026
  0
ARC
  5
12817
  8
0
 10
3775.8672826984397943
 20
154.0240560084259016
 30
0.0
 40
0.0519557976831525
 50
232.3734932175810002
 51
306.5685445443539265
  0
ARC
  5
12818
  8
0
 10
3775.8762100984190511
 20
154.0122761334081076
 30
0.0
 40
0.0371763609439418
 50
306.3346957850072272
 51
354.3308164649993159
  0
LINE
  5
12819
  8
0
 10
3775.8221092735420825
 20
154.0079713073822916
 30
0.0
 11
3775.8185803128139924
 21
154.0431210077611013
 31
0.0
  0
LINE
  5
1281A
  8
0
 10
3775.9132046240201817
 20
154.0086036834709944
 30
0.0
 11
3775.9094642596169251
 21
154.0431908461978878
 31
0.0
  0
ARC
  5
1281B
  8
0
 10
3775.8690125516800435
 20
154.0020890797329969
 30
0.0
 40
0.0164980483040879
 50
228.7944373778869931
 51
311.9769328976598786
  0
ARC
  5
1281C
  8
0
 10
3775.8771189071308072
 20
153.9930787675532997
 30
0.0
 40
0.0043778699118009
 50
311.9769328976382781
 51
50.6172861048208205
  0
ARC
  5
1281D
  8
0
 10
3775.8694044774229042
 20
153.9836812880348873
 30
0.0
 40
0.0165362023226161
 50
50.6172861048409573
 51
136.4989669744716991
  0
ARC
  5
1281E
  8
0
 10
3775.8613450591651599
 20
153.9928569696782006
 30
0.0
 40
0.0045120828117922
 50
150.7120703864623863
 51
224.815114008186498
  0
ARC
  5
1281F
  8
0
 10
3775.8450804416020219
 20
154.0249724352210023
 30
0.0
 40
0.0444352472690258
 50
223.1207456086582113
 51
260.9150109069635732
  0
ARC
  5
12820
  8
0
 10
3775.8346085258049243
 20
154.0151658753395054
 30
0.0
 40
0.0300884832723017
 50
152.0581860749726957
 51
223.1207456086569891
  0
ARC
  5
12821
  8
0
 10
3775.8553814490242075
 20
154.0041477613220025
 30
0.0
 40
0.0536025891574549
 50
91.5928600480444857
 51
152.0581860749726957
  0
ARC
  5
12822
  8
0
 10
3775.8627604340308608
 20
153.978150637913302
 30
0.0
 40
0.0800716929881737
 50
47.0115857732818512
 51
96.3593003674122457
  0
ARC
  5
12823
  8
0
 10
3775.9040469173742167
 20
154.0198212013575869
 30
0.0
 40
0.0215132176550405
 50
289.206329521793009
 51
51.7780260926580311
  0
ARC
  5
12824
  8
0
 10
3775.8500613388951024
 20
154.2865880332755921
 30
0.0
 40
0.0327407848759809
 50
182.4762321236329115
 51
233.9743497910093026
  0
ARC
  5
12825
  8
0
 10
3775.8625245512748734
 20
154.3012581703210913
 30
0.0
 40
0.0519557976831525
 50
232.3734932175810002
 51
306.5685445443539265
  0
ARC
  5
12826
  8
0
 10
3775.8714519512532206
 20
154.2894782953032973
 30
0.0
 40
0.0371763609439418
 50
306.3346957850072272
 51
354.3308164649993159
  0
LINE
  5
12827
  8
0
 10
3775.8173511263771616
 20
154.2851734692775096
 30
0.0
 11
3775.8138221656499809
 21
154.3203231696562909
 31
0.0
  0
LINE
  5
12828
  8
0
 10
3775.908446476854806
 20
154.2858058453662125
 30
0.0
 11
3775.9047061124520042
 21
154.3203930080931059
 31
0.0
  0
ARC
  5
12829
  8
0
 10
3775.8642544045160321
 20
154.2792912416281865
 30
0.0
 40
0.0164980483040879
 50
228.7944373778869931
 51
311.9769328976598786
  0
ARC
  5
1282A
  8
0
 10
3775.8723607599658862
 20
154.2702809294484894
 30
0.0
 40
0.0043778699118009
 50
311.9769328976382781
 51
50.6172861048208205
  0
ARC
  5
1282B
  8
0
 10
3775.8646463302579832
 20
154.2608834499301054
 30
0.0
 40
0.0165362023226161
 50
50.6172861048409573
 51
136.4989669744716991
  0
ARC
  5
1282C
  8
0
 10
3775.8565869120011484
 20
154.2700591315735039
 30
0.0
 40
0.0045120828117922
 50
150.7120703864623863
 51
224.815114008186498
  0
ARC
  5
1282D
  8
0
 10
3775.8403222944371009
 20
154.3021745971163057
 30
0.0
 40
0.0444352472690258
 50
223.1207456086582113
 51
260.9150109069635732
  0
ARC
  5
1282E
  8
0
 10
3775.8298503786400033
 20
154.2923680372346951
 30
0.0
 40
0.0300884832723017
 50
152.0581860749726957
 51
223.1207456086569891
  0
ARC
  5
1282F
  8
0
 10
3775.8506233018601961
 20
154.2813499232171921
 30
0.0
 40
0.0536025891574549
 50
91.5928600480444857
 51
152.0581860749726957
  0
ARC
  5
12830
  8
0
 10
3775.8580022868668493
 20
154.2553527998086054
 30
0.0
 40
0.0800716929881737
 50
47.0115857732818512
 51
96.3593003674122457
  0
ARC
  5
12831
  8
0
 10
3775.899288770208841
 20
154.297023363252805
 30
0.0
 40
0.0215132176550405
 50
289.206329521793009
 51
51.7780260926580311
  0
ARC
  5
12832
  8
0
 10
3776.2941080057289582
 20
154.1298832898530975
 30
0.0
 40
0.0327407848759809
 50
182.4762321236329115
 51
233.9743497910093026
  0
ARC
  5
12833
  8
0
 10
3776.3065712181069102
 20
154.1445534268985966
 30
0.0
 40
0.0519557976831525
 50
232.3734932175810002
 51
306.5685445443539265
  0
ARC
  5
12834
  8
0
 10
3776.3154986180870765
 20
154.1327735518808026
 30
0.0
 40
0.0371763609439418
 50
306.3346957850072272
 51
354.3308164649993159
  0
LINE
  5
12835
  8
0
 10
3776.2613977932110174
 20
154.1284687258549866
 30
0.0
 11
3776.2578688324820178
 21
154.1636184262337963
 31
0.0
  0
LINE
  5
12836
  8
0
 10
3776.3524931436882071
 20
154.1291011019436894
 30
0.0
 11
3776.3487527792849505
 21
154.1636882646706113
 31
0.0
  0
ARC
  5
12837
  8
0
 10
3776.3083010713480689
 20
154.1225864982056919
 30
0.0
 40
0.0164980483040879
 50
228.7944373778869931
 51
311.9769328976598786
  0
ARC
  5
12838
  8
0
 10
3776.3164074267979231
 20
154.1135761860259947
 30
0.0
 40
0.0043778699118009
 50
311.9769328976382781
 51
50.6172861048208205
  0
ARC
  5
12839
  8
0
 10
3776.3086929970909296
 20
154.1041787065076107
 30
0.0
 40
0.0165362023226161
 50
50.6172861048409573
 51
136.4989669744716991
  0
ARC
  5
1283A
  8
0
 10
3776.3006335788331853
 20
154.1133543881508956
 30
0.0
 40
0.0045120828117922
 50
150.7120703864623863
 51
224.815114008186498
  0
ARC
  5
1283B
  8
0
 10
3776.2843689612700473
 20
154.1454698536936974
 30
0.0
 40
0.0444352472690258
 50
223.1207456086582113
 51
260.9150109069635732
  0
ARC
  5
1283C
  8
0
 10
3776.2738970454729497
 20
154.1356632938122004
 30
0.0
 40
0.0300884832723017
 50
152.0581860749726957
 51
223.1207456086569891
  0
ARC
  5
1283D
  8
0
 10
3776.2946699686917782
 20
154.1246451797946975
 30
0.0
 40
0.0536025891574549
 50
91.5928600480444857
 51
152.0581860749726957
  0
ARC
  5
1283E
  8
0
 10
3776.3020489536988862
 20
154.0986480563861107
 30
0.0
 40
0.0800716929881737
 50
47.0115857732818512
 51
96.3593003674122457
  0
ARC
  5
1283F
  8
0
 10
3776.3433354370408779
 20
154.1403186198303104
 30
0.0
 40
0.0215132176550405
 50
289.206329521793009
 51
51.7780260926580311
  0
ARC
  5
12840
  8
0
 10
3776.6324949708719032
 20
153.8692962139224107
 30
0.0
 40
0.0327407848759809
 50
182.4762321236329115
 51
233.9743497910093026
  0
ARC
  5
12841
  8
0
 10
3776.6449581832512195
 20
153.8839663509679099
 30
0.0
 40
0.0519557976831525
 50
232.3734932175810002
 51
306.5685445443539265
  0
ARC
  5
12842
  8
0
 10
3776.6538855832291119
 20
153.8721864759500875
 30
0.0
 40
0.0371763609439418
 50
306.3346957850072272
 51
354.3308164649993159
  0
LINE
  5
12843
  8
0
 10
3776.5997847583530529
 20
153.8678816499242998
 30
0.0
 11
3776.5962557976249627
 21
153.9030313503031095
 31
0.0
  0
LINE
  5
12844
  8
0
 10
3776.690880108831152
 20
153.8685140260130026
 30
0.0
 11
3776.6871397444278955
 21
153.9031011887398108
 31
0.0
  0
ARC
  5
12845
  8
0
 10
3776.6466880364928329
 20
153.8619994222748915
 30
0.0
 40
0.0164980483040879
 50
228.7944373778869931
 51
311.9769328976598786
  0
ARC
  5
12846
  8
0
 10
3776.6547943919417776
 20
153.852989110095308
 30
0.0
 40
0.0043778699118009
 50
311.9769328976382781
 51
50.6172861048208205
  0
ARC
  5
12847
  8
0
 10
3776.647079962234784
 20
153.8435916305768956
 30
0.0
 40
0.0165362023226161
 50
50.6172861048409573
 51
136.4989669744716991
  0
ARC
  5
12848
  8
0
 10
3776.6390205439770398
 20
153.8527673122202089
 30
0.0
 40
0.0045120828117922
 50
150.7120703864623863
 51
224.815114008186498
  0
ARC
  5
12849
  8
0
 10
3776.6227559264139018
 20
153.8848827777630106
 30
0.0
 40
0.0444352472690258
 50
223.1207456086582113
 51
260.9150109069635732
  0
ARC
  5
1284A
  8
0
 10
3776.6122840106158947
 20
153.8750762178815137
 30
0.0
 40
0.0300884832723017
 50
152.0581860749726957
 51
223.1207456086569891
  0
ARC
  5
1284B
  8
0
 10
3776.6330569338360874
 20
153.864058103863897
 30
0.0
 40
0.0536025891574549
 50
91.5928600480444857
 51
152.0581860749726957
  0
ARC
  5
1284C
  8
0
 10
3776.6404359188431954
 20
153.8380609804553103
 30
0.0
 40
0.0800716929881737
 50
47.0115857732818512
 51
96.3593003674122457
  0
ARC
  5
1284D
  8
0
 10
3776.6817224021851871
 20
153.8797315438995952
 30
0.0
 40
0.0215132176550405
 50
289.206329521793009
 51
51.7780260926580311
  0
ARC
  5
1284E
  8
0
 10
3776.8256045370758329
 20
153.541616152328686
 30
0.0
 40
0.0327407848759809
 50
182.4762321236329115
 51
233.9743497910093026
  0
ARC
  5
1284F
  8
0
 10
3776.8380677494537849
 20
153.5562862893742135
 30
0.0
 40
0.0519557976831525
 50
232.3734932175810002
 51
306.5685445443539265
  0
ARC
  5
12850
  8
0
 10
3776.8469951494330417
 20
153.5445064143563911
 30
0.0
 40
0.0371763609439418
 50
306.3346957850072272
 51
354.3308164649993159
  0
LINE
  5
12851
  8
0
 10
3776.7928943245569826
 20
153.5402015883306035
 30
0.0
 11
3776.7893653638288924
 21
153.5753512887094132
 31
0.0
  0
LINE
  5
12852
  8
0
 10
3776.8839896750350817
 20
153.5408339644193063
 30
0.0
 11
3776.8802493106318252
 21
153.5754211271461998
 31
0.0
  0
ARC
  5
12853
  8
0
 10
3776.8397976026958531
 20
153.5343193606813088
 30
0.0
 40
0.0164980483040879
 50
228.7944373778869931
 51
311.9769328976598786
  0
ARC
  5
12854
  8
0
 10
3776.847903958146162
 20
153.5253090485016116
 30
0.0
 40
0.0043778699118009
 50
311.9769328976382781
 51
50.6172861048208205
  0
ARC
  5
12855
  8
0
 10
3776.8401895284391685
 20
153.5159115689831992
 30
0.0
 40
0.0165362023226161
 50
50.6172861048409573
 51
136.4989669744716991
  0
ARC
  5
12856
  8
0
 10
3776.83213011018006
 20
153.5250872506265978
 30
0.0
 40
0.0045120828117922
 50
150.7120703864623863
 51
224.815114008186498
  0
ARC
  5
12857
  8
0
 10
3776.8158654926178315
 20
153.5572027161693995
 30
0.0
 40
0.0444352472690258
 50
223.1207456086582113
 51
260.9150109069635732
  0
ARC
  5
12858
  8
0
 10
3776.8053935768198244
 20
153.5473961562877889
 30
0.0
 40
0.0300884832723017
 50
152.0581860749726957
 51
223.1207456086569891
  0
ARC
  5
12859
  8
0
 10
3776.8261665000400171
 20
153.536378042270286
 30
0.0
 40
0.0536025891574549
 50
91.5928600480444857
 51
152.0581860749726957
  0
ARC
  5
1285A
  8
0
 10
3776.8335454850471251
 20
153.5103809188616992
 30
0.0
 40
0.0800716929881737
 50
47.0115857732818512
 51
96.3593003674122457
  0
ARC
  5
1285B
  8
0
 10
3776.8748319683891168
 20
153.5520514823060125
 30
0.0
 40
0.0215132176550405
 50
289.206329521793009
 51
51.7780260926580311
  0
ARC
  5
1285C
  8
0
 10
3776.8532583965270533
 20
153.1921775594454971
 30
0.0
 40
0.0327407848759809
 50
182.4762321236329115
 51
233.9743497910093026
  0
ARC
  5
1285D
  8
0
 10
3776.8657216089050053
 20
153.2068476964909962
 30
0.0
 40
0.0519557976831525
 50
232.3734932175810002
 51
306.5685445443539265
  0
ARC
  5
1285E
  8
0
 10
3776.8746490088851715
 20
153.1950678214732022
 30
0.0
 40
0.0371763609439418
 50
306.3346957850072272
 51
354.3308164649993159
  0
LINE
  5
1285F
  8
0
 10
3776.8205481840091124
 20
153.1907629954473862
 30
0.0
 11
3776.8170192232801128
 21
153.2259126958261959
 31
0.0
  0
LINE
  5
12860
  8
0
 10
3776.9116435344858473
 20
153.191395371536089
 30
0.0
 11
3776.9079031700830456
 21
153.2259825342630108
 31
0.0
  0
ARC
  5
12861
  8
0
 10
3776.867451462146164
 20
153.1848807677980915
 30
0.0
 40
0.0164980483040879
 50
228.7944373778869931
 51
311.9769328976598786
  0
ARC
  5
12862
  8
0
 10
3776.8755578175960181
 20
153.1758704556183943
 30
0.0
 40
0.0043778699118009
 50
311.9769328976382781
 51
50.6172861048208205
  0
ARC
  5
12863
  8
0
 10
3776.8678433878890246
 20
153.1664729761000103
 30
0.0
 40
0.0165362023226161
 50
50.6172861048409573
 51
136.4989669744716991
  0
ARC
  5
12864
  8
0
 10
3776.8597839696308256
 20
153.1756486577432952
 30
0.0
 40
0.0045120828117922
 50
150.7120703864623863
 51
224.815114008186498
  0
ARC
  5
12865
  8
0
 10
3776.8435193520681423
 20
153.2077641232860969
 30
0.0
 40
0.0444352472690258
 50
223.1207456086582113
 51
260.9150109069635732
  0
ARC
  5
12866
  8
0
 10
3776.8330474362719542
 20
153.1979575634046
 30
0.0
 40
0.0300884832723017
 50
152.0581860749726957
 51
223.1207456086569891
  0
ARC
  5
12867
  8
0
 10
3776.8538203594907827
 20
153.1869394493870971
 30
0.0
 40
0.0536025891574549
 50
91.5928600480444857
 51
152.0581860749726957
  0
ARC
  5
12868
  8
0
 10
3776.8611993444978907
 20
153.1609423259783966
 30
0.0
 40
0.0800716929881737
 50
47.0115857732818512
 51
96.3593003674122457
  0
ARC
  5
12869
  8
0
 10
3776.9024858278389729
 20
153.2026128894227099
 30
0.0
 40
0.0215132176550405
 50
289.206329521793009
 51
51.7780260926580311
  0
ARC
  5
1286A
  8
0
 10
3776.5583416803870023
 20
153.2726601107378883
 30
0.0
 40
0.0327407848759809
 50
182.4762321236329115
 51
233.9743497910093026
  0
ARC
  5
1286B
  8
0
 10
3776.5708048927658638
 20
153.2873302477833874
 30
0.0
 40
0.0519557976831525
 50
232.3734932175810002
 51
306.5685445443539265
  0
ARC
  5
1286C
  8
0
 10
3776.579732292744211
 20
153.2755503727655935
 30
0.0
 40
0.0371763609439418
 50
306.3346957850072272
 51
354.3308164649993159
  0
LINE
  5
1286D
  8
0
 10
3776.525631467868152
 20
153.2712455467398058
 30
0.0
 11
3776.5221025071400618
 21
153.3063952471185871
 31
0.0
  0
LINE
  5
1286E
  8
0
 10
3776.6167268183457963
 20
153.2718779228285086
 30
0.0
 11
3776.6129864539429946
 21
153.3064650855554021
 31
0.0
  0
ARC
  5
1286F
  8
0
 10
3776.5725347460070225
 20
153.2653633190905111
 30
0.0
 40
0.0164980483040879
 50
228.7944373778869931
 51
311.9769328976598786
  0
ARC
  5
12870
  8
0
 10
3776.5806411014568766
 20
153.256353006910814
 30
0.0
 40
0.0043778699118009
 50
311.9769328976382781
 51
50.6172861048208205
  0
ARC
  5
12871
  8
0
 10
3776.5729266717489736
 20
153.2469555273924016
 30
0.0
 40
0.0165362023226161
 50
50.6172861048409573
 51
136.4989669744716991
  0
ARC
  5
12872
  8
0
 10
3776.5648672534907746
 20
153.2561312090358001
 30
0.0
 40
0.0045120828117922
 50
150.7120703864623863
 51
224.815114008186498
  0
ARC
  5
12873
  8
0
 10
3776.5486026359290008
 20
153.2882466745786019
 30
0.0
 40
0.0444352472690258
 50
223.1207456086582113
 51
260.9150109069635732
  0
ARC
  5
12874
  8
0
 10
3776.5381307201309937
 20
153.2784401146969913
 30
0.0
 40
0.0300884832723017
 50
152.0581860749726957
 51
223.1207456086569891
  0
ARC
  5
12875
  8
0
 10
3776.5589036433498222
 20
153.2674220006794883
 30
0.0
 40
0.0536025891574549
 50
91.5928600480444857
 51
152.0581860749726957
  0
ARC
  5
12876
  8
0
 10
3776.5662826283578397
 20
153.2414248772709016
 30
0.0
 40
0.0800716929881737
 50
47.0115857732818512
 51
96.3593003674122457
  0
ARC
  5
12877
  8
0
 10
3776.6075691116998314
 20
153.2830954407151012
 30
0.0
 40
0.0215132176550405
 50
289.206329521793009
 51
51.7780260926580311
  0
ARC
  5
12878
  8
0
 10
3776.2823475683189827
 20
153.3409473108569898
 30
0.0
 40
0.0327407848759809
 50
182.4762321236329115
 51
233.9743497910093026
  0
ARC
  5
12879
  8
0
 10
3776.2948107806969347
 20
153.3556174479024889
 30
0.0
 40
0.0519557976831525
 50
232.3734932175810002
 51
306.5685445443539265
  0
ARC
  5
1287A
  8
0
 10
3776.3037381806761914
 20
153.343837572884695
 30
0.0
 40
0.0371763609439418
 50
306.3346957850072272
 51
354.3308164649993159
  0
LINE
  5
1287B
  8
0
 10
3776.2496373558001324
 20
153.3395327468589073
 30
0.0
 11
3776.2461083950720422
 21
153.3746824472376886
 31
0.0
  0
LINE
  5
1287C
  8
0
 10
3776.3407327062768672
 20
153.3401651229476101
 30
0.0
 11
3776.336992341874975
 21
153.3747522856743899
 31
0.0
  0
ARC
  5
1287D
  8
0
 10
3776.2965406339380934
 20
153.333650519209499
 30
0.0
 40
0.0164980483040879
 50
228.7944373778869931
 51
311.9769328976598786
  0
ARC
  5
1287E
  8
0
 10
3776.304646989388857
 20
153.3246402070298871
 30
0.0
 40
0.0043778699118009
 50
311.9769328976382781
 51
50.6172861048208205
  0
ARC
  5
1287F
  8
0
 10
3776.296932559680954
 20
153.3152427275115031
 30
0.0
 40
0.0165362023226161
 50
50.6172861048409573
 51
136.4989669744716991
  0
ARC
  5
12880
  8
0
 10
3776.2888731414218455
 20
153.3244184091547879
 30
0.0
 40
0.0045120828117922
 50
150.7120703864623863
 51
224.815114008186498
  0
ARC
  5
12881
  8
0
 10
3776.2726085238609812
 20
153.3565338746975897
 30
0.0
 40
0.0444352472690258
 50
223.1207456086582113
 51
260.9150109069635732
  0
ARC
  5
12882
  8
0
 10
3776.2621366080629741
 20
153.3467273148160928
 30
0.0
 40
0.0300884832723017
 50
152.0581860749726957
 51
223.1207456086569891
  0
ARC
  5
12883
  8
0
 10
3776.2829095312818026
 20
153.3357092007985045
 30
0.0
 40
0.0536025891574549
 50
91.5928600480444857
 51
152.0581860749726957
  0
ARC
  5
12884
  8
0
 10
3776.2902885162889106
 20
153.3097120773898894
 30
0.0
 40
0.0800716929881737
 50
47.0115857732818512
 51
96.3593003674122457
  0
ARC
  5
12885
  8
0
 10
3776.3315749996309023
 20
153.3513826408342027
 30
0.0
 40
0.0215132176550405
 50
289.206329521793009
 51
51.7780260926580311
  0
ARC
  5
12886
  8
0
 10
3776.4708665917510189
 20
153.5774912359433984
 30
0.0
 40
0.0327407848759809
 50
182.4762321236329115
 51
233.9743497910093026
  0
ARC
  5
12887
  8
0
 10
3776.4833298041298804
 20
153.5921613729888975
 30
0.0
 40
0.0519557976831525
 50
232.3734932175810002
 51
306.5685445443539265
  0
ARC
  5
12888
  8
0
 10
3776.4922572041091371
 20
153.5803814979711035
 30
0.0
 40
0.0371763609439418
 50
306.3346957850072272
 51
354.3308164649993159
  0
LINE
  5
12889
  8
0
 10
3776.438156379233078
 20
153.5760766719452874
 30
0.0
 11
3776.4346274185049879
 21
153.6112263723240972
 31
0.0
  0
LINE
  5
1288A
  8
0
 10
3776.5292517297111772
 20
153.5767090480339903
 30
0.0
 11
3776.5255113653079206
 21
153.6112962107609121
 31
0.0
  0
ARC
  5
1288B
  8
0
 10
3776.4850596573710391
 20
153.5701944442959928
 30
0.0
 40
0.0164980483040879
 50
228.7944373778869931
 51
311.9769328976598786
  0
ARC
  5
1288C
  8
0
 10
3776.4931660128218027
 20
153.5611841321162956
 30
0.0
 40
0.0043778699118009
 50
311.9769328976382781
 51
50.6172861048208205
  0
ARC
  5
1288D
  8
0
 10
3776.4854515831129902
 20
153.5517866525979116
 30
0.0
 40
0.0165362023226161
 50
50.6172861048409573
 51
136.4989669744716991
  0
ARC
  5
1288E
  8
0
 10
3776.4773921648561554
 20
153.5609623342411965
 30
0.0
 40
0.0045120828117922
 50
150.7120703864623863
 51
224.815114008186498
  0
ARC
  5
1288F
  8
0
 10
3776.4611275472930174
 20
153.5930777997841119
 30
0.0
 40
0.0444352472690258
 50
223.1207456086582113
 51
260.9150109069635732
  0
ARC
  5
12890
  8
0
 10
3776.4506556314959198
 20
153.5832712399025013
 30
0.0
 40
0.0300884832723017
 50
152.0581860749726957
 51
223.1207456086569891
  0
ARC
  5
12891
  8
0
 10
3776.4714285547152031
 20
153.5722531258849983
 30
0.0
 40
0.0536025891574549
 50
91.5928600480444857
 51
152.0581860749726957
  0
ARC
  5
12892
  8
0
 10
3776.4788075397218563
 20
153.5462560024764116
 30
0.0
 40
0.0800716929881737
 50
47.0115857732818512
 51
96.3593003674122457
  0
ARC
  5
12893
  8
0
 10
3776.520094023063848
 20
153.5879265659206112
 30
0.0
 40
0.0215132176550405
 50
289.206329521793009
 51
51.7780260926580311
  0
ARC
  5
12894
  8
0
 10
3776.2239957678439168
 20
153.8364560979460123
 30
0.0
 40
0.0327407848759809
 50
182.4762321236329115
 51
233.9743497910093026
  0
ARC
  5
12895
  8
0
 10
3776.2364589802227783
 20
153.8511262349915114
 30
0.0
 40
0.0519557976831525
 50
232.3734932175810002
 51
306.5685445443539265
  0
ARC
  5
12896
  8
0
 10
3776.2453863802020351
 20
153.8393463599738027
 30
0.0
 40
0.0371763609439418
 50
306.3346957850072272
 51
354.3308164649993159
  0
LINE
  5
12897
  8
0
 10
3776.1912855553250665
 20
153.8350415339479866
 30
0.0
 11
3776.1877565945969764
 21
153.8701912343267963
 31
0.0
  0
LINE
  5
12898
  8
0
 10
3776.2823809058031657
 20
153.8356739100366894
 30
0.0
 11
3776.2786405413999091
 21
153.8702610727634976
 31
0.0
  0
ARC
  5
12899
  8
0
 10
3776.2381888334630275
 20
153.8291593062986067
 30
0.0
 40
0.0164980483040879
 50
228.7944373778869931
 51
311.9769328976598786
  0
ARC
  5
1289A
  8
0
 10
3776.2462951889137912
 20
153.8201489941189095
 30
0.0
 40
0.0043778699118009
 50
311.9769328976382781
 51
50.6172861048208205
  0
ARC
  5
1289B
  8
0
 10
3776.2385807592058882
 20
153.8107515146004971
 30
0.0
 40
0.0165362023226161
 50
50.6172861048409573
 51
136.4989669744716991
  0
ARC
  5
1289C
  8
0
 10
3776.2305213409481439
 20
153.8199271962438957
 30
0.0
 40
0.0045120828117922
 50
150.7120703864623863
 51
224.815114008186498
  0
ARC
  5
1289D
  8
0
 10
3776.2142567233850059
 20
153.8520426617866974
 30
0.0
 40
0.0444352472690258
 50
223.1207456086582113
 51
260.9150109069635732
  0
ARC
  5
1289E
  8
0
 10
3776.2037848075879083
 20
153.8422361019050868
 30
0.0
 40
0.0300884832723017
 50
152.0581860749726957
 51
223.1207456086569891
  0
ARC
  5
1289F
  8
0
 10
3776.2245577308071915
 20
153.8312179878876123
 30
0.0
 40
0.0536025891574549
 50
91.5928600480444857
 51
152.0581860749726957
  0
ARC
  5
128A0
  8
0
 10
3776.2319367158138448
 20
153.8052208644789971
 30
0.0
 40
0.0800716929881737
 50
47.0115857732818512
 51
96.3593003674122457
  0
ARC
  5
128A1
  8
0
 10
3776.2732231991572007
 20
153.8468914279233104
 30
0.0
 40
0.0215132176550405
 50
289.206329521793009
 51
51.7780260926580311
  0
ARC
  5
128A2
  8
0
 10
3775.4398188054269667
 20
154.7397999432870108
 30
0.0
 40
2.6776384729710832
 50
267.677264914681075
 51
270.0295097185282884
  0
ARC
  5
128A3
  8
0
 10
3775.4410485798289301
 20
154.7701186308262038
 30
0.0
 40
2.7079820910675392
 50
262.4148071425287867
 51
267.677264914681075
  0
ARC
  5
128A4
  8
0
 10
3775.4242042463670259
 20
154.64362687248871
 30
0.0
 40
2.5803737194884899
 50
255.0435455018555047
 51
262.4148071425287867
  0
ARC
  5
128A5
  8
0
 10
3775.3536875745958241
 20
154.3796527394507052
 30
0.0
 40
2.3071431503513531
 50
242.273541674938599
 51
255.0435455018555047
  0
ARC
  5
128A6
  8
0
 10
3775.0673753985170151
 20
153.8349197516033939
 30
0.0
 40
1.6917500319139911
 50
227.9897474840333018
 51
242.273541674938599
  0
ARC
  5
128A7
  8
0
 10
3774.9534804424561116
 20
153.7084720977537131
 30
0.0
 40
1.521570508527506
 50
215.9457473447930056
 51
227.9897474840333018
  0
ARC
  5
128A8
  8
0
 10
3774.6257370429398179
 20
153.47082640529581
 30
0.0
 40
1.116735713739899
 50
187.6493252775696874
 51
215.9457473447930056
  0
ARC
  5
128A9
  8
0
 10
3774.5546939077648858
 20
153.4547910143795093
 30
0.0
 40
1.0442101389074241
 50
170.4773115884183028
 51
187.2961706414384935
  0
ARC
  5
128AA
  8
0
 10
3775.4425769965127984
 20
154.7397999432870108
 30
0.0
 40
2.6776384729710832
 50
269.9704902814715979
 51
272.322735085318925
  0
ARC
  5
128AB
  8
0
 10
3775.4413472221121992
 20
154.7701186308262038
 30
0.0
 40
2.7079820910675392
 50
272.322735085318925
 51
277.5851928574712133
  0
ARC
  5
128AC
  8
0
 10
3775.4581915555718297
 20
154.64362687248871
 30
0.0
 40
2.5803737194884899
 50
277.5851928574712133
 51
284.9564544981444101
  0
ARC
  5
128AD
  8
0
 10
3775.528708227343941
 20
154.3796527394507052
 30
0.0
 40
2.3071431503513531
 50
284.9564544981444101
 51
297.726458325061401
  0
ARC
  5
128AE
  8
0
 10
3775.8150204034232047
 20
153.8349197516033939
 30
0.0
 40
1.6917500319139911
 50
297.726458325061401
 51
312.0102525159666129
  0
ARC
  5
128AF
  8
0
 10
3775.9289153594841082
 20
153.7084720977537131
 30
0.0
 40
1.521570508527506
 50
312.0102525159666129
 51
324.0542526552069944
  0
ARC
  5
128B0
  8
0
 10
3776.2566587589999472
 20
153.47082640529581
 30
0.0
 40
1.116735713739899
 50
324.0542526552069944
 51
352.3506747224303126
  0
ARC
  5
128B1
  8
0
 10
3776.3277018941748793
 20
153.4547910143795093
 30
0.0
 40
1.0442101389074241
 50
352.7038293585615065
 51
9.5226884115817203
  0
ARC
  5
128B3
  8
0
 10
3775.4407406053101113
 20
155.0415019221152875
 30
0.0
 40
0.577493269067371
 50
48.2490696228155187
 51
131.7731845992358899
  0
ENDSEC
  0
EOF
