  0
SECTION
  2
HEADER
  9
$ACADVER
  1
AC1009
  9
$INSBASE
 10
3779.6401785344160089
 20
159.4232944384023938
 30
0.0
  9
$EXTMIN
 10
3777.623474229591011
 20
151.4621714384024074
 30
0.0
  9
$EXTMAX
 10
3781.6568828392400974
 20
159.4232944384023938
 30
0.0
  9
$LIMMIN
 10
0.0
 20
0.0
  9
$LIMMAX
 10
11.6929133858000007
 20
8.2677165353999982
  9
$ORTHOMODE
 70
     0
  9
$REGENMODE
 70
     1
  9
$FILLMODE
 70
     1
  9
$QTEXTMODE
 70
     0
  9
$MIRRTEXT
 70
     0
  9
$DRAGMODE
 70
     2
  9
$LTSCALE
 40
0.6431102362
  9
$OSMODE
 70
  4095
  9
$ATTMODE
 70
     1
  9
$TEXTSIZE
 40
0.2
  9
$TRACEWID
 40
0.05
  9
$TEXTSTYLE
  7
STANDARD
  9
$CLAYER
  8
0
  9
$CELTYPE
  6
BYLAYER
  9
$CECOLOR
 62
   256
  9
$DIMSCALE
 40
1.0
  9
$DIMASZ
 40
0.1875
  9
$DIMEXO
 40
0.0625
  9
$DIMDLI
 40
0.4443307087
  9
$DIMRND
 40
0.0
  9
$DIMDLE
 40
0.0
  9
$DIMEXE
 40
0.125
  9
$DIMTP
 40
0.01
  9
$DIMTM
 40
0.01
  9
$DIMTXT
 40
2.0
  9
$DIMCEN
 40
0.1052362205
  9
$DIMTSZ
 40
0.0
  9
$DIMTOL
 70
     1
  9
$DIMLIM
 70
     0
  9
$DIMTIH
 70
     1
  9
$DIMTOH
 70
     1
  9
$DIMSE1
 70
     0
  9
$DIMSE2
 70
     0
  9
$DIMTAD
 70
     0
  9
$DIMZIN
 70
     0
  9
$DIMBLK
  1

  9
$DIMASO
 70
     1
  9
$DIMSHO
 70
     1
  9
$DIMPOST
  1
\X
  9
$DIMAPOST
  1

  9
$DIMALT
 70
     1
  9
$DIMALTD
 70
     2
  9
$DIMALTF
 40
25.3999999999999986
  9
$DIMLFAC
 40
1.0
  9
$DIMTOFL
 70
     0
  9
$DIMTVP
 40
0.0
  9
$DIMTIX
 70
     0
  9
$DIMSOXD
 70
     0
  9
$DIMSAH
 70
     0
  9
$DIMBLK1
  1

  9
$DIMBLK2
  1

  9
$DIMSTYLE
  2
STANDARD
  9
$DIMCLRD
 70
     0
  9
$DIMCLRE
 70
     0
  9
$DIMCLRT
 70
     0
  9
$DIMTFAC
 40
1.0
  9
$DIMGAP
 40
0.09
  9
$LUNITS
 70
     2
  9
$LUPREC
 70
     4
  9
$SKETCHINC
 40
0.1
  9
$FILLETRAD
 40
0.0
  9
$AUNITS
 70
     0
  9
$AUPREC
 70
     0
  9
$MENU
  1
.
  9
$ELEVATION
 40
0.0
  9
$PELEVATION
 40
0.0
  9
$THICKNESS
 40
0.0
  9
$LIMCHECK
 70
     0
  9
$BLIPMODE
 70
     0
  9
$CHAMFERA
 40
0.0
  9
$CHAMFERB
 40
0.0
  9
$SKPOLY
 70
     0
  9
$TDCREATE
 40
2458060.468368056230247
  9
$TDUPDATE
 40
2460013.4691666672006249
  9
$TDINDWG
 40
0.737796412
  9
$TDUSRTIMER
 40
0.737796412
  9
$USRTIMER
 70
     1
  9
$ANGBASE
 50
0.0
  9
$ANGDIR
 70
     0
  9
$PDMODE
 70
     0
  9
$PDSIZE
 40
0.3125
  9
$PLINEWID
 40
0.0
  9
$COORDS
 70
     1
  9
$SPLFRAME
 70
     0
  9
$SPLINETYPE
 70
     6
  9
$SPLINESEGS
 70
     8
  9
$ATTDIA
 70
     1
  9
$ATTREQ
 70
     1
  9
$HANDLING
 70
     1
  9
$HANDSEED
  5
121C5
  9
$SURFTAB1
 70
     6
  9
$SURFTAB2
 70
     6
  9
$SURFTYPE
 70
     6
  9
$SURFU
 70
     6
  9
$SURFV
 70
     6
  9
$UCSNAME
  2

  9
$UCSORG
 10
0.0
 20
0.0
 30
0.0
  9
$UCSXDIR
 10
1.0
 20
0.0
 30
0.0
  9
$UCSYDIR
 10
0.0
 20
1.0
 30
0.0
  9
$PUCSNAME
  2

  9
$PUCSORG
 10
0.0
 20
0.0
 30
0.0
  9
$PUCSXDIR
 10
1.0
 20
0.0
 30
0.0
  9
$PUCSYDIR
 10
0.0
 20
1.0
 30
0.0
  9
$USERI1
 70
     0
  9
$USERI2
 70
     0
  9
$USERI3
 70
     0
  9
$USERI4
 70
     0
  9
$USERI5
 70
     0
  9
$USERR1
 40
0.0
  9
$USERR2
 40
0.0
  9
$USERR3
 40
0.0
  9
$USERR4
 40
0.0
  9
$USERR5
 40
0.0
  9
$WORLDVIEW
 70
     1
  9
$SHADEDGE
 70
     3
  9
$SHADEDIF
 70
    70
  9
$TILEMODE
 70
     1
  9
$MAXACTVP
 70
    64
  9
$PLIMCHECK
 70
     0
  9
$PEXTMIN
 10
1.0000000000000000E+20
 20
1.0000000000000000E+20
 30
1.0000000000000000E+20
  9
$PEXTMAX
 10
-1.0000000000000000E+20
 20
-1.0000000000000000E+20
 30
-1.0000000000000000E+20
  9
$PLIMMIN
 10
0.0
 20
0.0
  9
$PLIMMAX
 10
12.0
 20
9.0
  9
$UNITMODE
 70
     0
  9
$VISRETAIN
 70
     1
  9
$PLINEGEN
 70
     0
  9
$PSLTSCALE
 70
     1
  0
ENDSEC
  0
SECTION
  2
TABLES
  0
TABLE
  2
VPORT
 70
     1
  0
VPORT
  2
*ACTIVE
 70
     0
 10
0.0
 20
0.0
 11
1.0
 21
1.0
 12
108.3663748234777984
 22
0.7192592598946704
 13
0.0
 23
0.0
 14
1.0
 24
1.0
 15
0.0
 25
0.0
 16
0.0
 26
0.0
 36
137.7247118064013875
 17
3671.2738037109379547
 27
154.7234736785077018
 37
0.0
 40
8.0128746121343308
 41
2.2592190889370931
 42
50.0
 43
0.0
 44
0.0
 50
0.0
 51
0.0
 71
     0
 72
   100
 73
     1
 74
     1
 75
     0
 76
     0
 77
     0
 78
     0
  0
ENDTAB
  0
TABLE
  2
LTYPE
 70
     2
  0
LTYPE
  2
CONTINUOUS
 70
     0
  3
Solid line
 72
    65
 73
     0
 40
0.0
  0
LTYPE
  2
PHANTOM2
 70
     0
  3
___ _ _ ___ _ _ ___ _ _ ___ _ _
 72
    65
 73
     6
 40
1.25
 49
0.625
 49
-0.125
 49
0.125
 49
-0.125
 49
0.125
 49
-0.125
  0
ENDTAB
  0
TABLE
  2
LAYER
 70
     2
  0
LAYER
  2
0
 70
     0
 62
   255
  6
CONTINUOUS
  0
LAYER
  2
DEFPOINTS
 70
     0
 62
     7
  6
CONTINUOUS
  0
ENDTAB
  0
TABLE
  2
STYLE
 70
     1
  0
STYLE
  2
STANDARD
 70
     0
 40
0.0
 41
0.8
 50
0.0
 71
     0
 42
0.2
  3
txt
  4

  0
ENDTAB
  0
TABLE
  2
VIEW
 70
     0
  0
ENDTAB
  0
TABLE
  2
UCS
 70
     0
  0
ENDTAB
  0
TABLE
  2
APPID
 70
    10
  0
APPID
  2
ACAD
 70
     0
  0
APPID
  2
ACAD_MLEADERVER
 70
     0
  0
APPID
  2
ACAD_EXEMPT_FROM_CAD_STANDARDS
 70
     0
  0
APPID
  2
ACAD_NAV_VCDISPLAY
 70
     0
  0
APPID
  2
ACAECLAYERSTANDARD
 70
     0
  0
APPID
  2
ACCMTRANSPARENCY
 70
     0
  0
APPID
  2
ACAD_DSTYLE_DIMJAG
 70
     0
  0
APPID
  2
ACAD_DSTYLE_DIMTALN
 70
     0
  0
APPID
  2
ACDBATTR
 70
     0
  0
APPID
  2
ACAD_PSEXT
 70
     0
  0
ENDTAB
  0
TABLE
  2
DIMSTYLE
 70
     1
  0
DIMSTYLE
  2
STANDARD
 70
     0
  3

  4

  5

  6

  7

 40
1.0
 41
0.1875
 42
0.0625
 43
0.38
 44
0.125
 45
0.0
 46
0.0
 47
0.01
 48
0.01
140
0.15625
141
0.09
142
0.0
143
25.3999999999999986
144
1.0
145
0.0
146
1.0
147
0.09
 71
     1
 72
     0
 73
     1
 74
     1
 75
     0
 76
     0
 77
     0
 78
     4
170
     0
171
     2
172
     0
173
     0
174
     0
175
     0
176
     0
177
     0
178
     0
  0
ENDTAB
  0
ENDSEC
  0
SECTION
  2
BLOCKS
  0
BLOCK
  8
0
  2
$MODEL_SPACE
 70
     0
 10
0.0
 20
0.0
 30
0.0
  3
$MODEL_SPACE
  1

  0
ENDBLK
  5
21
  8
0
  0
BLOCK
 67
     1
  8
0
  2
$PAPER_SPACE
 70
     0
 10
0.0
 20
0.0
 30
0.0
  3
$PAPER_SPACE
  1

  0
ENDBLK
  5
1D
 67
     1
  8
0
  0
ENDSEC
  0
SECTION
  2
ENTITIES
  0
ATTDEF
  5
AA11
  8
DEFPOINTS
 10
3779.6358909506921009
 20
159.4195361413655121
 30
0.0
 40
0.001
  1
K-45429ME
  3

  2
MODELNUMBER
 70
     0
1001
ACDBATTR
1070
     0
1070
     1
  0
ATTDEF
  5
AA12
  8
DEFPOINTS
 10
3779.6358909506921009
 20
159.4178694746989038
 30
0.0
 40
0.001
  1
GEOMETRIC
  3

  2
TRADENAME
 70
     0
1001
ACDBATTR
1070
     0
1070
     1
  0
ATTDEF
  5
AA13
  8
DEFPOINTS
 10
3779.6358909506921009
 20
159.4162028080322102
 30
0.0
 40
0.001
  1
SHOWERHEAD ARM KIT
  3

  2
PRODUCT
 70
     0
1001
ACDBATTR
1070
     0
1070
     1
  0
LINE
  5
11F93
  8
0
 10
3779.2287419221897835
 20
154.6924256726086071
 30
0.0
 11
3779.2287419221897835
 21
158.9784125486023925
 31
0.0
  0
LINE
  5
11F94
  8
0
 10
3780.0516151466408701
 20
154.6924256726086071
 30
0.0
 11
3780.0516151466408701
 21
158.9784125486023925
 31
0.0
  0
ARC
  5
11F95
  8
0
 10
3779.6837379690391572
 20
154.9341866359818027
 30
0.0
 40
3.4722884322255161
 50
262.921123383945087
 51
269.2812125844765205
  0
ARC
  5
11F96
  8
0
 10
3779.5985433049140738
 20
153.9874572829731108
 30
0.0
 40
2.5224811425431288
 50
238.0988702807995878
 51
262.1914028032555848
  0
ARC
  5
11F97
  8
0
 10
3779.0417720691521026
 20
153.0930061980319863
 30
0.0
 40
1.468898230606835
 50
209.4297946605609866
 51
238.0988702807995878
  0
ARC
  5
11F98
  8
0
 10
3778.6970235165999839
 20
152.8985141088390947
 30
0.0
 40
1.073071580107507
 50
193.0203983548913129
 51
209.4297946605609866
  0
ARC
  5
11F99
  8
0
 10
3779.5696589548788324
 20
153.0065995614311021
 30
0.0
 40
1.9497615392603289
 50
183.4710548141468962
 51
190.3365770982832998
  0
ARC
  5
11F9A
  8
0
 10
4220.6975356994589674
 20
147.8751088320786096
 30
0.0
 40
443.1024244644190162
 50
179.2677588801383024
 51
179.3517180579270018
  0
ARC
  5
11F9B
  8
0
 10
3779.6394444723769084
 20
154.9264833539874076
 30
0.0
 40
2.8173292817158329
 50
262.2595312140908277
 51
270.0149285557174039
  0
ARC
  5
11F9C
  8
0
 10
3779.6179014559511415
 20
154.7679909499483131
 30
0.0
 40
2.6573794655395648
 50
250.3845489966792002
 51
262.2595312140908277
  0
ARC
  5
11F9D
  8
0
 10
3779.4457831350650849
 20
154.2850387158592014
 30
0.0
 40
2.1446733345090432
 50
234.5437097979161081
 51
250.3845489966792002
  0
ARC
  5
11F9E
  8
0
 10
3779.0764056530429116
 20
153.7663540514386966
 30
0.0
 40
1.5079053191929641
 50
208.0173626251678911
 51
234.5437097979161081
  0
ARC
  5
11F9F
  8
0
 10
3778.5866704617578762
 20
153.5057668367979034
 30
0.0
 40
0.9531564985385976
 50
185.5690815371033011
 51
208.0173626251693975
  0
ARC
  5
11FA0
  8
0
 10
3779.0711640416839145
 20
153.5530079012808926
 30
0.0
 40
1.439947775332064
 50
180.5749890477893871
 51
185.5690815371033011
  0
ARC
  5
11FA1
  8
0
 10
3778.6903771849188161
 20
153.5240905775291935
 30
0.0
 40
1.05918721492289
 50
153.2053010181649029
 51
179.2173941808916879
  0
ARC
  5
11FA2
  8
0
 10
3779.0955701402472187
 20
153.2788005238141125
 30
0.0
 40
1.5318791217071019
 50
126.7958437552138946
 51
151.8477061512635089
  0
ARC
  5
11FA3
  8
0
 10
3779.4705794948649782
 20
152.7398259639379887
 30
0.0
 40
2.188210028484936
 50
105.2953104147437955
 51
126.2059339651210053
  0
ARC
  5
11FA4
  8
0
 10
3779.8473614314821134
 20
151.2154199232180076
 30
0.0
 40
3.7582121475436621
 50
99.474273415370476
 51
104.7054006246470976
  0
ARC
  5
11FA5
  8
0
 10
3779.6056402709032227
 20
152.4440691191911128
 30
0.0
 40
2.5055434065251032
 50
98.6516025659089451
 51
107.3174052274289068
  0
ARC
  5
11FA6
  8
0
 10
3779.5255768384458861
 20
152.7008484425803942
 30
0.0
 40
2.2365717088746009
 50
107.3174052274289068
 51
120.788017174671694
  0
ARC
  5
11FA7
  8
0
 10
3779.1877696307778933
 20
153.2677948590566928
 30
0.0
 40
1.5766156885917151
 50
120.788017174671694
 51
146.607047102829398
  0
ARC
  5
11FA8
  8
0
 10
3778.7444050974950187
 20
153.5780388817138089
 30
0.0
 40
1.0358009923921181
 50
147.437330599797491
 51
179.9836251168034948
  0
ARC
  5
11FA9
  8
0
 10
3778.7460067182928469
 20
153.5930726034821987
 30
0.0
 40
1.037507249960246
 50
180.8139086137720142
 51
217.2401112106645087
  0
ARC
  5
11FAA
  8
0
 10
3779.2545801113801645
 20
153.9798730989699891
 30
0.0
 40
1.6764606927353261
 50
217.2458470708629932
 51
245.8793654108563942
  0
ARC
  5
11FAB
  8
0
 10
3779.5890601439041347
 20
154.6506800268444124
 30
0.0
 40
2.4255857851453011
 50
245.1436752969777046
 51
261.9431638074058242
  0
ARC
  5
11FAC
  8
0
 10
3779.6394237211420659
 20
154.9278716138477137
 30
0.0
 40
2.7071225005785471
 50
261.7099991763537901
 51
270.0159754925887228
  0
ARC
  5
11FAD
  8
0
 10
3779.6374124582562217
 20
154.1972095328673902
 30
0.0
 40
1.2073507625501609
 50
254.8698529206193086
 51
270.1312664333519251
  0
ARC
  5
11FAE
  8
0
 10
3779.5839184734459195
 20
153.9993659642657917
 30
0.0
 40
1.002402759271604
 50
233.2368333788415953
 51
254.8698529206193086
  0
ARC
  5
11FAF
  8
0
 10
3779.3416678798689645
 20
153.6751085327202873
 30
0.0
 40
0.5976457556247891
 50
201.8788088293534884
 51
233.2368333788415953
  0
ARC
  5
11FB0
  8
0
 10
3779.1955739645459289
 20
153.6164419116011004
 30
0.0
 40
0.4402125808243003
 50
145.0702565643395019
 51
201.8788088293534884
  0
ARC
  5
11FB1
  8
0
 10
3779.6398650894930142
 20
154.2256246411996017
 30
0.0
 40
1.126177514017209
 50
258.600152006664473
 51
270.0159469277257926
  0
ARC
  5
11FB2
  8
0
 10
3779.6122546728552152
 20
154.0886903583819958
 30
0.0
 40
0.9864873822339282
 50
240.548885196692197
 51
258.600152006664473
  0
ARC
  5
11FB3
  8
0
 10
3779.4478304385220326
 20
153.7974920814438917
 30
0.0
 40
0.6520748146946386
 50
212.047286390876792
 51
240.548885196692197
  0
ARC
  5
11FB4
  8
0
 10
3779.2232498326188761
 20
153.6569006927097121
 30
0.0
 40
0.3871174839156473
 50
191.8286121412585032
 51
212.047286390876792
  0
ARC
  5
11FB5
  8
0
 10
3779.3324613427212171
 20
153.6797730896502117
 30
0.0
 40
0.4986983984147387
 50
180.5887777950214002
 51
191.8286121412585032
  0
ARC
  5
11FB6
  8
0
 10
3785.3886375310971744
 20
153.7420092196119867
 30
0.0
 40
6.5551943622973452
 50
177.8299420490236002
 51
180.5887777950214002
  0
ARC
  5
11FB7
  8
0
 10
3779.6399246780329122
 20
154.5616211691900901
 30
0.0
 40
1.1224007987954301
 50
259.5022755323499268
 51
270.0129587393576003
  0
ARC
  5
11FB8
  8
0
 10
3779.6163258328401753
 20
154.4342649667821945
 30
0.0
 40
0.9928766397120883
 50
240.8470535825167076
 51
259.5022755323499268
  0
ARC
  5
11FB9
  8
0
 10
3779.4492317351018755
 20
154.1347078780279958
 30
0.0
 40
0.6498680583007158
 50
212.8985652802172126
 51
240.8470535825167076
  0
ARC
  5
11FBA
  8
0
 10
3779.2474297039020712
 20
154.0041634572291116
 30
0.0
 40
0.409522670165242
 50
179.6251589906347021
 51
212.8985652802172126
  0
ARC
  5
11FBB
  8
0
 10
3779.2755399540042163
 20
154.0039795514520904
 30
0.0
 40
0.4376335218449534
 50
144.7664251861527021
 51
179.6251589906347021
  0
ARC
  5
11FBC
  8
0
 10
3779.4629172885770458
 20
153.8716348732608878
 30
0.0
 40
0.667035743623435
 50
114.3942691395274949
 51
144.7664251861527021
  0
ARC
  5
11FBD
  8
0
 10
3779.6398259603879524
 20
154.3712366440180972
 30
0.0
 40
0.7062172173257552
 50
258.4556689036365924
 51
270.0286045200675176
  0
ARC
  5
11FBE
  8
0
 10
3779.6215874099721077
 20
154.2819449901136863
 30
0.0
 40
0.6150819103461116
 50
238.8811900280834095
 51
258.4556689036365924
  0
ARC
  5
11FBF
  8
0
 10
3779.5076276230961412
 20
154.0931718396442136
 30
0.0
 40
0.3945776351878869
 50
213.1586298023744916
 51
238.8811900280834095
  0
ARC
  5
11FC0
  8
0
 10
3779.4035864836178007
 20
154.0251964661734121
 30
0.0
 40
0.2702988755296827
 50
180.1597913073788959
 51
213.1586298023744916
  0
ARC
  5
11FC1
  8
0
 10
3779.3910913084141612
 20
154.0251616184835086
 30
0.0
 40
0.2578036517322511
 50
142.198043873858893
 51
180.1597913073788959
  0
ARC
  5
11FC2
  8
0
 10
3779.6401694110800236
 20
154.3661965433987859
 30
0.0
 40
0.6952356924563271
 50
264.9656629698112056
 51
270.0007518725515752
  0
ARC
  5
11FC3
  8
0
 10
3779.6367739325619368
 20
154.3276521092633971
 30
0.0
 40
0.656541989128849
 50
248.073822756018501
 51
264.9656629698112056
  0
ARC
  5
11FC4
  8
0
 10
3779.5619503784309927
 20
154.141768118420913
 30
0.0
 40
0.4561637909530003
 50
218.9681915169585977
 51
248.073822756018501
  0
ARC
  5
11FC5
  8
0
 10
3779.3980472443090548
 20
154.0091925712694092
 30
0.0
 40
0.2453546045362273
 50
147.6892039070613123
 51
218.9681915169585977
  0
ARC
  5
11FC6
  8
0
 10
3779.639920162197086
 20
154.2519703276437042
 30
0.0
 40
0.4818105622177319
 50
257.3051994294598899
 51
270.0307250183219026
  0
ARC
  5
11FC7
  8
0
 10
3779.6254115165252188
 20
154.187563137585613
 30
0.0
 40
0.4157894524844638
 50
239.642906636002607
 51
257.305199429459492
  0
ARC
  5
11FC8
  8
0
 10
3779.5551024436008447
 20
154.0675183465779128
 30
0.0
 40
0.276670375490756
 50
203.455836619668986
 51
239.642906636002607
  0
ARC
  5
11FC9
  8
0
 10
3779.6397469567950793
 20
154.2592288610809135
 30
0.0
 40
0.4607590230007845
 50
253.4765343044090002
 51
270.0536670550046097
  0
ARC
  5
11FCA
  8
0
 10
3779.6107404437329933
 20
154.1614515836226929
 30
0.0
 40
0.3587699363927988
 50
219.406430450148008
 51
253.4765343044090002
  0
ARC
  5
11FCB
  8
0
 10
3779.639440854789882
 20
154.4526598839063922
 30
0.0
 40
0.6067190264582747
 50
253.0649187464350973
 51
270.069663118765277
  0
ARC
  5
11FCC
  8
0
 10
3779.6035930019120315
 20
154.3349299126481924
 30
0.0
 40
0.4836523181721012
 50
229.4175639560168065
 51
253.0649187464350973
  0
ARC
  5
11FCD
  8
0
 10
3779.4837740511311495
 20
154.1950479840043897
 30
0.0
 40
0.2994688907754926
 50
201.0269110350033088
 51
229.4175639560168065
  0
ARC
  5
11FCE
  8
0
 10
3779.4520599457550816
 20
154.179958358629392
 30
0.0
 40
0.2643479387135646
 50
191.0787469144241015
 51
205.4451846871006069
  0
ARC
  5
11FCF
  8
0
 10
3779.4689196211220406
 20
154.1832596013165073
 30
0.0
 40
0.281527777385183
 50
179.1526722219502972
 51
191.0787469144241015
  0
LINE
  5
11FD0
  8
0
 10
3779.1874226288650789
 20
154.1874228680177907
 30
0.0
 11
3779.1874226288650789
 21
154.7527360878023899
 31
0.0
  0
ARC
  5
11FD1
  8
0
 10
3779.6398443837060768
 20
155.0636991434394076
 30
0.0
 40
0.6311099150975878
 50
259.1346364857629965
 51
270.030336120228128
  0
ARC
  5
11FD2
  8
0
 10
3779.624582547944101
 20
154.984186719991186
 30
0.0
 40
0.5501460397368284
 50
237.4944353227569991
 51
259.1346364857629965
  0
ARC
  5
11FD3
  8
0
 10
3779.5079722447271706
 20
154.8011844331718976
 30
0.0
 40
0.3331488051981326
 50
209.0450714992007875
 51
237.4944353227560896
  0
ARC
  5
11FD4
  8
0
 10
3779.4767927143611814
 20
154.7671323163027068
 30
0.0
 40
0.2897279720271125
 50
182.8481300073034106
 51
206.1502429045347071
  0
ARC
  5
11FD5
  8
0
 10
3779.4657478280400937
 20
154.740766640622013
 30
0.0
 40
0.278582454869076
 50
148.2940740735855059
 51
177.537497527880106
  0
ARC
  5
11FD6
  8
0
 10
3779.6404985856079293
 20
155.0508111853386026
 30
0.0
 40
0.6018805489301544
 50
256.4304303990784888
 51
269.9695328525439777
  0
ARC
  5
11FD7
  8
0
 10
3779.613396712460144
 20
154.938524566299094
 30
0.0
 40
0.4863695263244761
 50
231.2836491592867105
 51
256.4304303990784888
  0
ARC
  5
11FD8
  8
0
 10
3779.479072485020879
 20
154.7709585446137055
 30
0.0
 40
0.2716106622448687
 50
197.1224461457570101
 51
231.2836491592877053
  0
ARC
  5
11FD9
  8
0
 10
3779.420943441613872
 20
154.7530507849934907
 30
0.0
 40
0.2107857204687724
 50
155.7599954605956896
 51
197.1224461457570101
  0
ARC
  5
11FDA
  8
0
 10
3779.4371071075311193
 20
154.7442806486895961
 30
0.0
 40
0.2147207232805645
 50
166.0249331169108018
 51
207.0773173787852954
  0
ARC
  5
11FDB
  8
0
 10
3779.5442010387509981
 20
154.8092303421217082
 30
0.0
 40
0.3397624439594811
 50
208.609110236819788
 51
240.2666048446291995
  0
LINE
  5
11FDC
  8
0
 10
3778.3803360146662271
 20
159.2442977492993066
 30
0.0
 11
3778.3803360146662271
 21
159.4232944384023938
 31
0.0
  0
LINE
  5
11FDD
  8
0
 10
3779.0151734037722235
 20
158.9784125486023925
 30
0.0
 11
3780.2651836650597943
 21
158.9784125486023925
 31
0.0
  0
LINE
  5
11FDE
  8
0
 10
3778.3803360146662271
 20
159.4232944384023938
 30
0.0
 11
3780.9000210541648812
 21
159.4232944384023938
 31
0.0
  0
ARC
  5
11FDF
  8
0
 10
3779.8367491341409732
 20
162.2199035854928013
 30
0.0
 40
3.346456695925542
 50
244.8457450956763068
 51
255.4385098836972077
  0
ARC
  5
11FE0
  8
0
 10
3779.0151734037722235
 20
159.0571125486029871
 30
0.0
 40
0.0787
 50
255.4385098837782095
 51
269.9999999999739089
  0
ARC
  5
11FE1
  8
0
 10
3778.4394360146661711
 20
159.2442977492993066
 30
0.0
 40
0.0591
 50
180.0
 51
244.8457450956749142
  0
ARC
  5
11FE2
  8
0
 10
3779.5976588467069632
 20
154.9189304948810957
 30
0.0
 40
3.4570205522082489
 50
270.7047282604423231
 51
277.0929357711333978
  0
ARC
  5
11FE3
  8
0
 10
3779.6818137639170345
 20
153.9874572829731108
 30
0.0
 40
2.5224811425431288
 50
277.8085971967444152
 51
301.9011297192004122
  0
ARC
  5
11FE4
  8
0
 10
3780.2385849996790057
 20
153.0930061980319863
 30
0.0
 40
1.468898230606835
 50
301.9011297192004122
 51
330.5702053394389281
  0
ARC
  5
11FE5
  8
0
 10
3780.583333552232034
 20
152.8985141088390947
 30
0.0
 40
1.073071580107507
 50
330.5702053394389281
 51
346.9796016451070955
  0
ARC
  5
11FE6
  8
0
 10
3779.7106981139540949
 20
153.0065995614311021
 30
0.0
 40
1.9497615392603289
 50
349.6634229017166149
 51
356.5289451858531038
  0
ARC
  5
11FE7
  8
0
 10
3338.5828213693721409
 20
147.8751088320786096
 30
0.0
 40
443.1024244644190162
 50
0.6482819420730392
 51
0.7322411198633607
  0
ARC
  5
11FE8
  8
0
 10
3779.6409125964542
 20
154.9264833539874076
 30
0.0
 40
2.8173292817158329
 50
269.9850714442824824
 51
277.7404687859091723
  0
ARC
  5
11FE9
  8
0
 10
3779.6624556128799668
 20
154.7679909499483131
 30
0.0
 40
2.6573794655395648
 50
277.7404687859091723
 51
289.6154510033206861
  0
ARC
  5
11FEA
  8
0
 10
3779.8345739337660234
 20
154.2850387158592014
 30
0.0
 40
2.1446733345090432
 50
289.6154510033206861
 51
305.4562902020829256
  0
ARC
  5
11FEB
  8
0
 10
3780.2039514157881968
 20
153.7663540514386966
 30
0.0
 40
1.5079053191929641
 50
305.4562902020829256
 51
331.9826373748321089
  0
ARC
  5
11FEC
  8
0
 10
3780.6936866070727774
 20
153.5057668367979034
 30
0.0
 40
0.9531564985385976
 50
331.9826373748305741
 51
354.4309184628966136
  0
ARC
  5
11FED
  8
0
 10
3780.2091930271481033
 20
153.5530079012808926
 30
0.0
 40
1.439947775332064
 50
354.4309184628966136
 51
359.4250109522105276
  0
ARC
  5
11FEE
  8
0
 10
3780.5899798839118375
 20
153.5240905775291935
 30
0.0
 40
1.05918721492289
 50
0.7826058191083347
 51
26.7946989818351184
  0
ARC
  5
11FEF
  8
0
 10
3780.1847869285838897
 20
153.2788005238141125
 30
0.0
 40
1.5318791217071019
 50
28.1522938487364591
 51
53.2041562447860201
  0
ARC
  5
11FF0
  8
0
 10
3779.8097775739661301
 20
152.7398259639379887
 30
0.0
 40
2.188210028484936
 50
53.7940660348789734
 51
74.7046895852561903
  0
ARC
  5
11FF1
  8
0
 10
3779.4329956373489949
 20
151.2154199232180076
 30
0.0
 40
3.7582121475436621
 50
75.2945993753529024
 51
80.5257265846295098
  0
ARC
  5
11FF2
  8
0
 10
3779.6747167979287951
 20
152.4440691191911128
 30
0.0
 40
2.5055434065251032
 50
72.6825947725711359
 51
81.3483974340910549
  0
ARC
  5
11FF3
  8
0
 10
3779.7547802303861317
 20
152.7008484425803942
 30
0.0
 40
2.2365717088746009
 50
59.2119828253282492
 51
72.6825947725711359
  0
ARC
  5
11FF4
  8
0
 10
3780.092587438053215
 20
153.2677948590566928
 30
0.0
 40
1.5766156885917151
 50
33.3929528971706091
 51
59.2119828253282492
  0
ARC
  5
11FF5
  8
0
 10
3780.5359519713360896
 20
153.5780388817138089
 30
0.0
 40
1.0358009923921181
 50
0.0163748831964554
 51
32.5626694002025232
  0
ARC
  5
11FF6
  8
0
 10
3780.5343503505391709
 20
153.5930726034821987
 30
0.0
 40
1.037507249960246
 50
322.7598887893353776
 51
359.1860913862279858
  0
ARC
  5
11FF7
  8
0
 10
3780.0257769574509439
 20
153.9798730989699891
 30
0.0
 40
1.6764606927353261
 50
294.1206345891436058
 51
322.7541529291370921
  0
ARC
  5
11FF8
  8
0
 10
3779.6912969249269736
 20
154.6506800268444124
 30
0.0
 40
2.4255857851453011
 50
278.0568361925941758
 51
294.8563247030222101
  0
ARC
  5
11FF9
  8
0
 10
3779.6409333476890424
 20
154.9278716138477137
 30
0.0
 40
2.7071225005785471
 50
269.9840245074112772
 51
278.2900008236462099
  0
ARC
  5
11FFA
  8
0
 10
3779.6429446105748866
 20
154.1972095328673902
 30
0.0
 40
1.2073507625501609
 50
269.8687335666480749
 51
285.1301470793806061
  0
ARC
  5
11FFB
  8
0
 10
3779.6964385953851888
 20
153.9993659642657917
 30
0.0
 40
1.002402759271604
 50
285.1301470793806061
 51
306.7631666211584047
  0
ARC
  5
11FFC
  8
0
 10
3779.9386891889630533
 20
153.6751085327202873
 30
0.0
 40
0.5976457556247891
 50
306.7631666211584047
 51
338.1211911706465116
  0
ARC
  5
11FFD
  8
0
 10
3780.0847831042851794
 20
153.6164419116011004
 30
0.0
 40
0.4402125808243003
 50
338.1211911706465116
 51
34.9297434356604768
  0
ARC
  5
11FFE
  8
0
 10
3779.6404919793390036
 20
154.2256246411996017
 30
0.0
 40
1.126177514017209
 50
269.9840530722742074
 51
281.399847993335527
  0
ARC
  5
11FFF
  8
0
 10
3779.6681023959749837
 20
154.0886903583819958
 30
0.0
 40
0.9864873822339282
 50
281.399847993335527
 51
299.451114803307803
  0
ARC
  5
12000
  8
0
 10
3779.8325266303099852
 20
153.7974920814438917
 30
0.0
 40
0.6520748146946386
 50
299.451114803307803
 51
327.9527136091231796
  0
ARC
  5
12001
  8
0
 10
3780.0571072362117775
 20
153.6569006927097121
 30
0.0
 40
0.3871174839156473
 50
327.9527136091231796
 51
348.1713878587414115
  0
ARC
  5
12002
  8
0
 10
3779.9478957261098913
 20
153.6797730896502117
 30
0.0
 40
0.4986983984147387
 50
348.1713878587414115
 51
359.4112222049785146
  0
ARC
  5
12003
  8
0
 10
3773.891719537733934
 20
153.7420092196119867
 30
0.0
 40
6.5551943622973452
 50
359.4112222049785146
 51
2.1700579509764348
  0
ARC
  5
12004
  8
0
 10
3779.6404323907968319
 20
154.5616211691900901
 30
0.0
 40
1.1224007987954301
 50
269.987041260642286
 51
280.4977244676500732
  0
ARC
  5
12005
  8
0
 10
3779.6640312359909331
 20
154.4342649667821945
 30
0.0
 40
0.9928766397120883
 50
280.4977244676500732
 51
299.1529464174832924
  0
ARC
  5
12006
  8
0
 10
3779.8311253337301423
 20
154.1347078780279958
 30
0.0
 40
0.6498680583007158
 50
299.1529464174832924
 51
327.1014347197827874
  0
ARC
  5
12007
  8
0
 10
3780.0329273649290371
 20
154.0041634572291116
 30
0.0
 40
0.409522670165242
 50
327.1014347197827874
 51
0.3748410093652585
  0
ARC
  5
12008
  8
0
 10
3780.0048171148259826
 20
154.0039795514520904
 30
0.0
 40
0.4376335218449534
 50
0.3748410093652585
 51
35.2335748138473122
  0
ARC
  5
12009
  8
0
 10
3779.8174397802540625
 20
153.8716348732608878
 30
0.0
 40
0.667035743623435
 50
35.2335748138473122
 51
65.6057308604724625
  0
ARC
  5
1200A
  8
0
 10
3779.640531108443156
 20
154.3712366440180972
 30
0.0
 40
0.7062172173257552
 50
269.9713954799324824
 51
281.5443310963634076
  0
ARC
  5
1200B
  8
0
 10
3779.6587696588590006
 20
154.2819449901136863
 30
0.0
 40
0.6150819103461116
 50
281.5443310963634076
 51
301.1188099719166189
  0
ARC
  5
1200C
  8
0
 10
3779.7727294457349672
 20
154.0931718396442136
 30
0.0
 40
0.3945776351878869
 50
301.1188099719166189
 51
326.8413701976255084
  0
ARC
  5
1200D
  8
0
 10
3779.8767705852119434
 20
154.0251964661734121
 30
0.0
 40
0.2702988755296827
 50
326.8413701976255084
 51
359.8402086926209904
  0
ARC
  5
1200E
  8
0
 10
3779.8892657604169472
 20
154.0251616184835086
 30
0.0
 40
0.2578036517322511
 50
359.8402086926209904
 51
37.8019561261410431
  0
ARC
  5
1200F
  8
0
 10
3779.6401876577510848
 20
154.3661965433987859
 30
0.0
 40
0.6952356924563271
 50
269.9992481275265845
 51
275.0343370301887944
  0
ARC
  5
12010
  8
0
 10
3779.643583136270081
 20
154.3276521092633971
 30
0.0
 40
0.656541989128849
 50
275.0343370301887944
 51
291.9261772439813853
  0
ARC
  5
12011
  8
0
 10
3779.7184066903992061
 20
154.141768118420913
 30
0.0
 40
0.4561637909530003
 50
291.9261772439813853
 51
321.0318084830400949
  0
ARC
  5
12012
  8
0
 10
3779.8823098245220535
 20
154.0091925712694092
 30
0.0
 40
0.2453546045362273
 50
321.0318084830400949
 51
32.3107960929387019
  0
ARC
  5
12013
  8
0
 10
3779.6404369066340223
 20
154.2519703276437042
 30
0.0
 40
0.4818105622177319
 50
269.9692749816780974
 51
282.6948005705401101
  0
ARC
  5
12014
  8
0
 10
3779.6549455523058896
 20
154.187563137585613
 30
0.0
 40
0.4157894524844638
 50
282.6948005705403943
 51
300.3570933639974214
  0
ARC
  5
12015
  8
0
 10
3779.7252546252298089
 20
154.0675183465779128
 30
0.0
 40
0.276670375490756
 50
300.3570933639974214
 51
336.5441633803309855
  0
ARC
  5
12016
  8
0
 10
3779.6406101120369385
 20
154.2592288610809135
 30
0.0
 40
0.4607590230007845
 50
269.946332944995504
 51
286.5234656955910282
  0
ARC
  5
12017
  8
0
 10
3779.669616625098115
 20
154.1614515836226929
 30
0.0
 40
0.3587699363927988
 50
286.5234656955910282
 51
320.5935695498520204
  0
ARC
  5
12018
  8
0
 10
3779.6409162140412263
 20
154.4526598839063922
 30
0.0
 40
0.6067190264582747
 50
269.930336881234723
 51
286.9350812535648743
  0
ARC
  5
12019
  8
0
 10
3779.6767640669190769
 20
154.3349299126481924
 30
0.0
 40
0.4836523181721012
 50
286.9350812535648743
 51
310.5824360439833072
  0
ARC
  5
1201A
  8
0
 10
3779.7965830177008684
 20
154.1950479840043897
 30
0.0
 40
0.2994688907754926
 50
310.5824360439833072
 51
334.5548153128993931
  0
ARC
  5
1201B
  8
0
 10
3779.8282971230760268
 20
154.179958358629392
 30
0.0
 40
0.2643479387135646
 50
334.5548153128993931
 51
348.9212530855759269
  0
ARC
  5
1201C
  8
0
 10
3779.8114374477081583
 20
154.1832596013165073
 30
0.0
 40
0.281527777385183
 50
348.9212530855759269
 51
0.8473277780497406
  0
LINE
  5
1201D
  8
0
 10
3780.0929344399660295
 20
154.1874228680177907
 30
0.0
 11
3780.0929344399660295
 21
154.7527360878023899
 31
0.0
  0
ARC
  5
1201E
  8
0
 10
3779.6405126851250316
 20
155.0636991434394076
 30
0.0
 40
0.6311099150975878
 50
269.969663879771872
 51
280.8653635142371172
  0
ARC
  5
1201F
  8
0
 10
3779.6557745208860979
 20
154.984186719991186
 30
0.0
 40
0.5501460397368284
 50
280.8653635142371172
 51
302.5055646772431146
  0
ARC
  5
12020
  8
0
 10
3779.7723848241039377
 20
154.8011844331718976
 30
0.0
 40
0.3331488051981326
 50
302.5055646772439104
 51
330.9549285007990989
  0
ARC
  5
12021
  8
0
 10
3779.8035643544699269
 20
154.7671323163027068
 30
0.0
 40
0.2897279720271125
 50
333.8497570954652929
 51
357.1518699926965041
  0
ARC
  5
12022
  8
0
 10
3779.8146092407919241
 20
154.740766640622013
 30
0.0
 40
0.278582454869076
 50
2.4625024721198598
 51
31.7059259264144693
  0
ARC
  5
12023
  8
0
 10
3779.6398584832231791
 20
155.0508111853386026
 30
0.0
 40
0.6018805489301544
 50
270.0304671474560223
 51
283.5695696009215112
  0
ARC
  5
12024
  8
0
 10
3779.6669603563700548
 20
154.938524566299094
 30
0.0
 40
0.4863695263244761
 50
283.5695696009215112
 51
308.7163508407123231
  0
ARC
  5
12025
  8
0
 10
3779.8012845838097746
 20
154.7709585446137055
 30
0.0
 40
0.2716106622448687
 50
308.7163508407123231
 51
342.8775538542428762
  0
ARC
  5
12026
  8
0
 10
3779.8594136272167816
 20
154.7530507849934907
 30
0.0
 40
0.2107857204687724
 50
342.8775538542428762
 51
24.2400045394042891
  0
ARC
  5
12027
  8
0
 10
3779.8432499613008986
 20
154.7442806486895961
 30
0.0
 40
0.2147207232805645
 50
332.9226826212146761
 51
13.9750668830891502
  0
ARC
  5
12028
  8
0
 10
3779.7361560300801102
 20
154.8092303421217082
 30
0.0
 40
0.3397624439594811
 50
299.733395155370772
 51
331.3908897631800983
  0
ARC
  5
12029
  8
0
 10
3779.4436079346901352
 20
162.2199035854928013
 30
0.0
 40
3.346456695925542
 50
284.5614901163027071
 51
295.1542549043236932
  0
ARC
  5
1202A
  8
0
 10
3780.2651836650597943
 20
159.0571125486029871
 30
0.0
 40
0.0787
 50
270.0000000000259774
 51
284.5614901162218189
  0
ARC
  5
1202B
  8
0
 10
3780.8409210543859444
 20
159.2442977490485987
 30
0.0
 40
0.0590999996792739
 50
295.1542548139372002
 51
0.0000002430224683
  0
LINE
  5
1202C
  8
0
 10
3778.4143151613479858
 20
159.1908023968973964
 30
0.0
 11
3780.8660419074831225
 21
159.1908023968973964
 31
0.0
  0
ARC
  5
1202D
  8
0
 10
3779.4203044966839116
 20
153.9284588282768027
 30
0.0
 40
0.2418696928722497
 50
147.2610902924377001
 51
187.8734178695580965
  0
ARC
  5
1202E
  8
0
 10
3779.4576610082849584
 20
153.871394057917513
 30
0.0
 40
0.2846123608265966
 50
143.8208165102832083
 51
168.8276414379608923
  0
ARC
  5
1202F
  8
0
 10
3779.4240047260600477
 20
153.9377511147795872
 30
0.0
 40
0.2659840046073877
 50
145.680129429935306
 51
176.1545050106464032
  0
ARC
  5
12030
  8
0
 10
3779.4061021994912153
 20
153.9761673652326976
 30
0.0
 40
0.2535973220790011
 50
146.2319638629346912
 51
175.9150266841261896
  0
ARC
  5
12031
  8
0
 10
3779.8600525721481063
 20
153.9284588282768027
 30
0.0
 40
0.2418696928722497
 50
352.1265821304418751
 51
32.7389097075622431
  0
ARC
  5
12032
  8
0
 10
3779.82269606054615
 20
153.871394057917513
 30
0.0
 40
0.2846123608265966
 50
11.1723585620390899
 51
36.1791834897167632
  0
ARC
  5
12033
  8
0
 10
3779.8563523427710606
 20
153.9377511147795872
 30
0.0
 40
0.2659840046073877
 50
3.8454949893535599
 51
34.3198705700647224
  0
ARC
  5
12034
  8
0
 10
3779.874254869339893
 20
153.9761673652326976
 30
0.0
 40
0.2535973220790011
 50
4.0849733158737571
 51
33.7680361370652804
  0
LINE
  5
12036
  8
0
 10
3780.9000210540648368
 20
159.2442977490485987
 30
0.0
 11
3780.9000210540648368
 21
159.4232944384023938
 31
0.0
  0
ENDSEC
  0
EOF
