  0
SECTION
  2
HEADER
  9
$ACADVER
  1
AC1009
  9
$INSBASE
 10
4093.5157494164432137
 20
122.9966292034921054
 30
0.0
  9
$EXTMIN
 10
4080.5583781430509589
 20
121.9500119390727946
 30
-0.0000000349181948
  9
$EXTMAX
 10
4106.5619623090096866
 20
124.0502641995318953
 30
0.0000000814935746
  9
$LIMMIN
 10
0.0
 20
0.0
  9
$LIMMAX
 10
11.6929133858000007
 20
8.2677165353999982
  9
$ORTHOMODE
 70
     0
  9
$REGENMODE
 70
     1
  9
$FILLMODE
 70
     1
  9
$QTEXTMODE
 70
     0
  9
$MIRRTEXT
 70
     0
  9
$DRAGMODE
 70
     2
  9
$LTSCALE
 40
0.6431102362
  9
$OSMODE
 70
  4095
  9
$ATTMODE
 70
     1
  9
$TEXTSIZE
 40
0.2
  9
$TRACEWID
 40
0.05
  9
$TEXTSTYLE
  7
STANDARD
  9
$CLAYER
  8
0
  9
$CELTYPE
  6
BYLAYER
  9
$CECOLOR
 62
   256
  9
$DIMSCALE
 40
1.0
  9
$DIMASZ
 40
0.1875
  9
$DIMEXO
 40
0.0625
  9
$DIMDLI
 40
0.4443307087
  9
$DIMRND
 40
0.0
  9
$DIMDLE
 40
0.0
  9
$DIMEXE
 40
0.125
  9
$DIMTP
 40
0.01
  9
$DIMTM
 40
0.01
  9
$DIMTXT
 40
2.0
  9
$DIMCEN
 40
0.1052362205
  9
$DIMTSZ
 40
0.0
  9
$DIMTOL
 70
     1
  9
$DIMLIM
 70
     0
  9
$DIMTIH
 70
     1
  9
$DIMTOH
 70
     1
  9
$DIMSE1
 70
     0
  9
$DIMSE2
 70
     0
  9
$DIMTAD
 70
     0
  9
$DIMZIN
 70
     0
  9
$DIMBLK
  1

  9
$DIMASO
 70
     1
  9
$DIMSHO
 70
     1
  9
$DIMPOST
  1
\X
  9
$DIMAPOST
  1

  9
$DIMALT
 70
     1
  9
$DIMALTD
 70
     2
  9
$DIMALTF
 40
25.3999999999999986
  9
$DIMLFAC
 40
1.0
  9
$DIMTOFL
 70
     0
  9
$DIMTVP
 40
0.0
  9
$DIMTIX
 70
     0
  9
$DIMSOXD
 70
     0
  9
$DIMSAH
 70
     0
  9
$DIMBLK1
  1

  9
$DIMBLK2
  1

  9
$DIMSTYLE
  2
STANDARD
  9
$DIMCLRD
 70
     0
  9
$DIMCLRE
 70
     0
  9
$DIMCLRT
 70
     0
  9
$DIMTFAC
 40
1.0
  9
$DIMGAP
 40
0.09
  9
$LUNITS
 70
     2
  9
$LUPREC
 70
     4
  9
$SKETCHINC
 40
0.1
  9
$FILLETRAD
 40
0.0
  9
$AUNITS
 70
     0
  9
$AUPREC
 70
     0
  9
$MENU
  1
.
  9
$ELEVATION
 40
0.0
  9
$PELEVATION
 40
0.0
  9
$THICKNESS
 40
0.0
  9
$LIMCHECK
 70
     0
  9
$BLIPMODE
 70
     0
  9
$CHAMFERA
 40
0.0
  9
$CHAMFERB
 40
0.0
  9
$SKPOLY
 70
     0
  9
$TDCREATE
 40
2458060.468368056230247
  9
$TDUPDATE
 40
2459369.6218402781523764
  9
$TDINDWG
 40
0.3550533565
  9
$TDUSRTIMER
 40
0.3550533565
  9
$USRTIMER
 70
     1
  9
$ANGBASE
 50
0.0
  9
$ANGDIR
 70
     0
  9
$PDMODE
 70
     0
  9
$PDSIZE
 40
0.3125
  9
$PLINEWID
 40
0.0
  9
$COORDS
 70
     1
  9
$SPLFRAME
 70
     0
  9
$SPLINETYPE
 70
     6
  9
$SPLINESEGS
 70
     8
  9
$ATTDIA
 70
     1
  9
$ATTREQ
 70
     1
  9
$HANDLING
 70
     1
  9
$HANDSEED
  5
7AFE
  9
$SURFTAB1
 70
     6
  9
$SURFTAB2
 70
     6
  9
$SURFTYPE
 70
     6
  9
$SURFU
 70
     6
  9
$SURFV
 70
     6
  9
$UCSNAME
  2

  9
$UCSORG
 10
0.0
 20
0.0
 30
0.0
  9
$UCSXDIR
 10
1.0
 20
0.0
 30
0.0
  9
$UCSYDIR
 10
0.0
 20
1.0
 30
0.0
  9
$PUCSNAME
  2

  9
$PUCSORG
 10
0.0
 20
0.0
 30
0.0
  9
$PUCSXDIR
 10
1.0
 20
0.0
 30
0.0
  9
$PUCSYDIR
 10
0.0
 20
1.0
 30
0.0
  9
$USERI1
 70
     0
  9
$USERI2
 70
     0
  9
$USERI3
 70
     0
  9
$USERI4
 70
     0
  9
$USERI5
 70
     0
  9
$USERR1
 40
0.0
  9
$USERR2
 40
0.0
  9
$USERR3
 40
0.0
  9
$USERR4
 40
0.0
  9
$USERR5
 40
0.0
  9
$WORLDVIEW
 70
     1
  9
$SHADEDGE
 70
     3
  9
$SHADEDIF
 70
    70
  9
$TILEMODE
 70
     1
  9
$MAXACTVP
 70
    64
  9
$PLIMCHECK
 70
     0
  9
$PEXTMIN
 10
1.0000000000000000E+20
 20
1.0000000000000000E+20
 30
1.0000000000000000E+20
  9
$PEXTMAX
 10
-1.0000000000000000E+20
 20
-1.0000000000000000E+20
 30
-1.0000000000000000E+20
  9
$PLIMMIN
 10
0.0
 20
0.0
  9
$PLIMMAX
 10
12.0
 20
9.0
  9
$UNITMODE
 70
     0
  9
$VISRETAIN
 70
     1
  9
$PLINEGEN
 70
     0
  9
$PSLTSCALE
 70
     1
  0
ENDSEC
  0
SECTION
  2
TABLES
  0
TABLE
  2
VPORT
 70
     1
  0
VPORT
  2
*ACTIVE
 70
     0
 10
0.0
 20
0.0
 11
1.0
 21
1.0
 12
64.7733049916560049
 22
-12.8742210615569892
 13
0.0
 23
0.0
 14
1.0
 24
1.0
 15
0.0
 25
0.0
 16
0.0
 26
0.0
 36
47.0568789906323275
 17
4028.786865234375
 27
135.8743591308592897
 37
0.0
 40
10.3307102862212403
 41
2.5251322751322749
 42
50.0
 43
0.0
 44
0.0
 50
0.0
 51
0.0
 71
     0
 72
   100
 73
     1
 74
     1
 75
     0
 76
     0
 77
     0
 78
     0
  0
ENDTAB
  0
TABLE
  2
LTYPE
 70
     3
  0
LTYPE
  2
CONTINUOUS
 70
     0
  3
Solid line
 72
    65
 73
     0
 40
0.0
  0
LTYPE
  2
PHANTOM2
 70
     0
  3
___ _ _ ___ _ _ ___ _ _ ___ _ _
 72
    65
 73
     6
 40
1.25
 49
0.625
 49
-0.125
 49
0.125
 49
-0.125
 49
0.125
 49
-0.125
  0
ENDTAB
  0
TABLE
  2
LAYER
 70
     2
  0
LAYER
  2
0
 70
     0
 62
   255
  6
CONTINUOUS
  0
LAYER
  2
DEFPOINTS
 70
     0
 62
     7
  6
CONTINUOUS
  0
ENDTAB
  0
TABLE
  2
STYLE
 70
     1
  0
STYLE
  2
STANDARD
 70
     0
 40
0.0
 41
0.8
 50
0.0
 71
     0
 42
0.2
  3
txt
  4

  0
ENDTAB
  0
TABLE
  2
VIEW
 70
     0
  0
ENDTAB
  0
TABLE
  2
UCS
 70
     0
  0
ENDTAB
  0
TABLE
  2
APPID
 70
     9
  0
APPID
  2
ACAD
 70
     0
  0
APPID
  2
ACAD_MLEADERVER
 70
     0
  0
APPID
  2
ACAD_EXEMPT_FROM_CAD_STANDARDS
 70
     0
  0
APPID
  2
ACAD_NAV_VCDISPLAY
 70
     0
  0
APPID
  2
ACAECLAYERSTANDARD
 70
     0
  0
APPID
  2
ACCMTRANSPARENCY
 70
     0
  0
APPID
  2
ACAD_DSTYLE_DIMJAG
 70
     0
  0
APPID
  2
ACAD_DSTYLE_DIMTALN
 70
     0
  0
APPID
  2
ACDBATTR
 70
     0
  0
ENDTAB
  0
TABLE
  2
DIMSTYLE
 70
     2
  0
DIMSTYLE
  2
STANDARD
 70
     0
  3

  4

  5

  6

  7

 40
1.0
 41
0.1875
 42
0.0625
 43
0.38
 44
0.125
 45
0.0
 46
0.0
 47
0.01
 48
0.01
140
0.15625
141
0.09
142
0.0
143
25.3999999999999986
144
1.0
145
0.0
146
1.0
147
0.09
 71
     1
 72
     0
 73
     1
 74
     1
 75
     0
 76
     0
 77
     0
 78
     4
170
     0
171
     2
172
     0
173
     0
174
     0
175
     0
176
     0
177
     0
178
     0
  0
ENDTAB
  0
ENDSEC
  0
SECTION
  2
BLOCKS
  0
BLOCK
  8
0
  2
$MODEL_SPACE
 70
     0
 10
0.0
 20
0.0
 30
0.0
  3
$MODEL_SPACE
  1

  0
ENDBLK
  5
21
  8
0
  0
BLOCK
 67
     1
  8
0
  2
$PAPER_SPACE
 70
     0
 10
0.0
 20
0.0
 30
0.0
  3
$PAPER_SPACE
  1

  0
ENDBLK
  5
1D
 67
     1
  8
0
  0
ENDSEC
  0
SECTION
  2
ENTITIES
  0
ATTDEF
  5
7608
  8
DEFPOINTS
 10
4093.5112795491832003
 20
123.0032414875449973
 30
0.0
 40
0.001
  1
K-45445T
  3

  2
MODELNUMBER
 70
     0
1001
ACDBATTR
1070
     0
1070
     1
  0
ATTDEF
  5
7609
  8
DEFPOINTS
 10
4093.5112795491832003
 20
123.0015748208783037
 30
0.0
 40
0.001
  1
MISTOS
  3

  2
TRADENAME
 70
     0
1001
ACDBATTR
1070
     0
1070
     1
  0
ATTDEF
  5
760A
  8
DEFPOINTS
 10
4093.5112795491832003
 20
122.9999081542116954
 30
0.0
 40
0.001
  1
TOWEL BAR
  3

  2
PRODUCT
 70
     0
1001
ACDBATTR
1070
     0
1070
     1
  0
LINE
  5
7A44
  8
0
 10
4103.6481258642434113
 20
123.3079276851421042
 30
0.0
 11
4103.6481258642434113
 21
122.6853307218421065
 31
0.0
  0
ARC
  5
7A45
  8
0
 10
4105.0134134883646766
 20
122.9396405108163037
 30
0.0
 40
1.4503918551457451
 50
2.2518413277601779
 51
48.1765860505966472
  0
ARC
  5
7A46
  8
0
 10
4105.9277313283237163
 20
123.9628956388740022
 30
0.0
 40
0.0781637669304746
 50
47.4497541914138878
 51
93.8367548889213339
  0
ARC
  5
7A47
  8
0
 10
4106.17700055134992
 20
120.2460181267028929
 30
0.0
 40
3.8033904158784191
 50
93.8367476121492103
 51
93.8367476121492103
  0
ARC
  5
7A48
  8
0
 10
4106.0373414196956219
 20
121.7256592078739033
 30
0.0
 40
2.3180714323947731
 50
92.8396714567629147
 51
107.222289106655694
  0
ARC
  5
7A49
  8
0
 10
4105.7263097024433591
 20
122.6962578438559035
 30
0.0
 40
1.298937424412024
 50
106.7939106354756973
 51
126.8255296601510054
  0
ARC
  5
7A4A
  8
0
 10
4105.5076496842793858
 20
122.9956999138774023
 30
0.0
 40
0.9281948681935611
 50
127.1002291129685062
 51
151.4020732374283114
  0
ARC
  5
7A4B
  8
0
 10
4103.7644063978723352
 20
126.5853172874705024
 30
0.0
 40
3.2794517480748868
 50
267.9680199212132834
 51
286.4430351483941877
  0
LINE
  5
7A4C
  8
0
 10
4103.6476391802443686
 20
123.2840307782420979
 30
0.0
 11
4103.6481258642434113
 21
123.2840307782420979
 31
0.0
  0
LINE
  5
7A4D
  8
0
 10
4103.6476391802443686
 20
122.7092276286420969
 30
0.0
 11
4103.6481258642434113
 21
122.7092276286420969
 31
0.0
  0
LINE
  5
7A4E
  8
0
 10
4103.6476391802443686
 20
123.3076528255421067
 30
0.0
 11
4103.6476391802443686
 21
122.685605581442104
 31
0.0
  0
LINE
  5
7A4F
  8
0
 10
4103.6476391802443686
 20
123.3076528255421067
 30
0.0
 11
4083.3838596526429683
 21
123.3076528255421067
 31
0.0
  0
LINE
  5
7A50
  8
0
 10
4083.3838596526429683
 20
123.3076528255421067
 30
0.0
 11
4083.3838596526429683
 21
122.685605581442104
 31
0.0
  0
LINE
  5
7A51
  8
0
 10
4083.3833729686430161
 20
123.3079276851421042
 30
0.0
 11
4083.3833729686430161
 21
122.6853307218421065
 31
0.0
  0
ARC
  5
7A52
  8
0
 10
4082.0180853445208413
 20
122.9396405108163037
 30
0.0
 40
1.4503918551457451
 50
131.8234140135392067
 51
177.7481586722398106
  0
ARC
  5
7A53
  8
0
 10
4081.1037675045640754
 20
123.9628956388740022
 30
0.0
 40
0.0781637669304746
 50
86.1632451110786661
 51
132.5502458085861122
  0
ARC
  5
7A54
  8
0
 10
4080.8544982815369622
 20
120.2460181267028929
 30
0.0
 40
3.8033904158784191
 50
86.1632523878507754
 51
86.1632523878507754
  0
ARC
  5
7A55
  8
0
 10
4080.994157413189896
 20
121.7256592078739033
 30
0.0
 40
2.3180714323947731
 50
72.7777108933442918
 51
87.1603285432370996
  0
ARC
  5
7A56
  8
0
 10
4081.3051891304439778
 20
122.6962578438559035
 30
0.0
 40
1.298937424412024
 50
53.1744703398490088
 51
73.2060893645243169
  0
ARC
  5
7A57
  8
0
 10
4081.5238491486079511
 20
122.9956999138774023
 30
0.0
 40
0.9281948681935611
 50
28.5979267625717313
 51
52.8997708870314369
  0
ARC
  5
7A58
  8
0
 10
4083.2670924350140922
 20
126.5853172874705024
 30
0.0
 40
3.2794517480748868
 50
253.5569648516056986
 51
272.0319800787867166
  0
LINE
  5
7A59
  8
0
 10
4083.3838596526429683
 20
123.2840307782420979
 30
0.0
 11
4083.3833729686430161
 21
123.2840307782420979
 31
0.0
  0
LINE
  5
7A5A
  8
0
 10
4083.3838596526429683
 20
123.3076528255421067
 30
0.0
 11
4083.3838596526429683
 21
122.685605581442104
 31
0.0
  0
LINE
  5
7A5B
  8
0
 10
4083.3838596526429683
 20
123.3076528255421067
 30
0.0
 11
4103.6476391802443686
 21
123.3076528255421067
 31
0.0
  0
ARC
  5
7A5C
  8
0
 10
4105.0134134883646766
 20
123.053617896167907
 30
0.0
 40
1.4503918551457451
 50
311.8234140135392067
 51
357.7481586722398106
  0
ARC
  5
7A5D
  8
0
 10
4105.9277313283237163
 20
122.0303627681101943
 30
0.0
 40
0.0781637669304746
 50
266.1632451110785951
 51
312.5502458085861122
  0
ARC
  5
7A5E
  8
0
 10
4106.17700055134992
 20
125.7472402802813036
 30
0.0
 40
3.8033904158784191
 50
266.1632523878507754
 51
266.1632523878507754
  0
ARC
  5
7A5F
  8
0
 10
4106.0373414196956219
 20
124.2675991991102933
 30
0.0
 40
2.3180714323947731
 50
252.777710893344306
 51
267.1603285432369717
  0
ARC
  5
7A60
  8
0
 10
4105.7263097024433591
 20
123.297000563128293
 30
0.0
 40
1.298937424412024
 50
233.1744703398489946
 51
253.2060893645243027
  0
ARC
  5
7A61
  8
0
 10
4105.5076496842793858
 20
122.9975584931067942
 30
0.0
 40
0.9281948681935611
 50
208.5979267625716886
 51
232.8997708870313943
  0
ARC
  5
7A62
  8
0
 10
4103.7644063978723352
 20
119.4079411195136942
 30
0.0
 40
3.2794517480748868
 50
73.5569648516057839
 51
92.031980078786674
  0
LINE
  5
7A63
  8
0
 10
4103.6476391802443686
 20
122.7092276287420987
 30
0.0
 11
4103.6481258642434113
 21
122.7092276287420987
 31
0.0
  0
LINE
  5
7A64
  8
0
 10
4103.6476391802443686
 20
122.685605581442104
 30
0.0
 11
4083.3838596526429683
 21
122.685605581442104
 31
0.0
  0
ARC
  5
7A65
  8
0
 10
4082.0180853445208413
 20
123.053617896167907
 30
0.0
 40
1.4503918551457451
 50
182.2518413277601042
 51
228.1765859864607933
  0
ARC
  5
7A66
  8
0
 10
4081.1037675045640754
 20
122.0303627681101943
 30
0.0
 40
0.0781637669304746
 50
227.4497541914138878
 51
273.8367548889212912
  0
ARC
  5
7A67
  8
0
 10
4080.8544982815369622
 20
125.7472402802813036
 30
0.0
 40
3.8033904158784191
 50
273.8367476121492246
 51
273.8367476121492246
  0
ARC
  5
7A68
  8
0
 10
4080.994157413189896
 20
124.2675991991102933
 30
0.0
 40
2.3180714323947731
 50
272.8396714567629147
 51
287.222289106655694
  0
ARC
  5
7A69
  8
0
 10
4081.3051891304439778
 20
123.297000563128293
 30
0.0
 40
1.298937424412024
 50
286.7939106354756973
 51
306.8255296601510054
  0
ARC
  5
7A6A
  8
0
 10
4081.5238491486079511
 20
122.9975584931067942
 30
0.0
 40
0.9281948681935611
 50
307.1002291129685773
 51
331.4020732374282829
  0
ARC
  5
7A6B
  8
0
 10
4083.2670924350140922
 20
119.4079411195136942
 30
0.0
 40
3.2794517480748868
 50
87.9680199212133402
 51
106.4430351483942019
  0
LINE
  5
7A6C
  8
0
 10
4083.3838596526429683
 20
122.7092276287420987
 30
0.0
 11
4083.3833729686430161
 21
122.7092276287420987
 31
0.0
  0
LINE
  5
7A6D
  8
0
 10
4083.3838596526429683
 20
122.685605581442104
 30
0.0
 11
4103.6476391802443686
 21
122.685605581442104
 31
0.0
  0
ARC
  5
7A6F
  8
0
 10
4103.5222243404195979
 20
127.3944300630352018
 30
0.0
 40
4.1240269327224661
 50
286.4881627809410247
 51
305.5929252946306178
  0
ARC
  5
7A70
  8
0
 10
4103.5222243404195979
 20
118.5988283439489948
 30
0.0
 40
4.1240269327224661
 50
54.4070747053693822
 51
73.5118372190589611
  0
ARC
  5
7A71
  8
0
 10
4083.5092744924668295
 20
127.3944300630352018
 30
0.0
 40
4.1240269327224661
 50
234.4070747053694106
 51
253.5118372190590037
  0
ARC
  5
7A72
  8
0
 10
4083.5092744924668295
 20
118.5988283439489948
 30
0.0
 40
4.1240269327224661
 50
106.4881627809409963
 51
125.592925294631101
  0
ENDSEC
  0
EOF
