  0
SECTION
  2
HEADER
  9
$ACADVER
  1
AC1009
  9
$INSBASE
 10
4157.3145222825423843
 20
133.2055593684164023
 30
0.0
  9
$EXTMIN
 10
4144.2877400465367828
 20
126.6681675439518955
 30
-0.0015258207003583
  9
$EXTMAX
 10
4170.5062084744558888
 20
133.2130169433453943
 30
0.0000000349246037
  9
$LIMMIN
 10
0.0
 20
0.0
  9
$LIMMAX
 10
11.6929133858000007
 20
8.2677165353999982
  9
$ORTHOMODE
 70
     0
  9
$REGENMODE
 70
     1
  9
$FILLMODE
 70
     1
  9
$QTEXTMODE
 70
     0
  9
$MIRRTEXT
 70
     0
  9
$DRAGMODE
 70
     2
  9
$LTSCALE
 40
0.6431102362
  9
$OSMODE
 70
  4095
  9
$ATTMODE
 70
     1
  9
$TEXTSIZE
 40
0.2
  9
$TRACEWID
 40
0.05
  9
$TEXTSTYLE
  7
STANDARD
  9
$CLAYER
  8
0
  9
$CELTYPE
  6
BYLAYER
  9
$CECOLOR
 62
   256
  9
$DIMSCALE
 40
1.0
  9
$DIMASZ
 40
0.1875
  9
$DIMEXO
 40
0.0625
  9
$DIMDLI
 40
0.4443307087
  9
$DIMRND
 40
0.0
  9
$DIMDLE
 40
0.0
  9
$DIMEXE
 40
0.125
  9
$DIMTP
 40
0.01
  9
$DIMTM
 40
0.01
  9
$DIMTXT
 40
2.0
  9
$DIMCEN
 40
0.1052362205
  9
$DIMTSZ
 40
0.0
  9
$DIMTOL
 70
     1
  9
$DIMLIM
 70
     0
  9
$DIMTIH
 70
     1
  9
$DIMTOH
 70
     1
  9
$DIMSE1
 70
     0
  9
$DIMSE2
 70
     0
  9
$DIMTAD
 70
     0
  9
$DIMZIN
 70
     0
  9
$DIMBLK
  1

  9
$DIMASO
 70
     1
  9
$DIMSHO
 70
     1
  9
$DIMPOST
  1
\X
  9
$DIMAPOST
  1

  9
$DIMALT
 70
     1
  9
$DIMALTD
 70
     2
  9
$DIMALTF
 40
25.3999999999999986
  9
$DIMLFAC
 40
1.0
  9
$DIMTOFL
 70
     0
  9
$DIMTVP
 40
0.0
  9
$DIMTIX
 70
     0
  9
$DIMSOXD
 70
     0
  9
$DIMSAH
 70
     0
  9
$DIMBLK1
  1

  9
$DIMBLK2
  1

  9
$DIMSTYLE
  2
STANDARD
  9
$DIMCLRD
 70
     0
  9
$DIMCLRE
 70
     0
  9
$DIMCLRT
 70
     0
  9
$DIMTFAC
 40
1.0
  9
$DIMGAP
 40
0.09
  9
$LUNITS
 70
     2
  9
$LUPREC
 70
     4
  9
$SKETCHINC
 40
0.1
  9
$FILLETRAD
 40
0.0
  9
$AUNITS
 70
     0
  9
$AUPREC
 70
     0
  9
$MENU
  1
.
  9
$ELEVATION
 40
0.0
  9
$PELEVATION
 40
0.0
  9
$THICKNESS
 40
0.0
  9
$LIMCHECK
 70
     0
  9
$BLIPMODE
 70
     0
  9
$CHAMFERA
 40
0.0
  9
$CHAMFERB
 40
0.0
  9
$SKPOLY
 70
     0
  9
$TDCREATE
 40
2458060.468368056230247
  9
$TDUPDATE
 40
2459369.6216898150742054
  9
$TDINDWG
 40
0.3476228009
  9
$TDUSRTIMER
 40
0.3476228009
  9
$USRTIMER
 70
     1
  9
$ANGBASE
 50
0.0
  9
$ANGDIR
 70
     0
  9
$PDMODE
 70
     0
  9
$PDSIZE
 40
0.3125
  9
$PLINEWID
 40
0.0
  9
$COORDS
 70
     1
  9
$SPLFRAME
 70
     0
  9
$SPLINETYPE
 70
     6
  9
$SPLINESEGS
 70
     8
  9
$ATTDIA
 70
     1
  9
$ATTREQ
 70
     1
  9
$HANDLING
 70
     1
  9
$HANDSEED
  5
7C80
  9
$SURFTAB1
 70
     6
  9
$SURFTAB2
 70
     6
  9
$SURFTYPE
 70
     6
  9
$SURFU
 70
     6
  9
$SURFV
 70
     6
  9
$UCSNAME
  2

  9
$UCSORG
 10
0.0
 20
0.0
 30
0.0
  9
$UCSXDIR
 10
1.0
 20
0.0
 30
0.0
  9
$UCSYDIR
 10
0.0
 20
1.0
 30
0.0
  9
$PUCSNAME
  2

  9
$PUCSORG
 10
0.0
 20
0.0
 30
0.0
  9
$PUCSXDIR
 10
1.0
 20
0.0
 30
0.0
  9
$PUCSYDIR
 10
0.0
 20
1.0
 30
0.0
  9
$USERI1
 70
     0
  9
$USERI2
 70
     0
  9
$USERI3
 70
     0
  9
$USERI4
 70
     0
  9
$USERI5
 70
     0
  9
$USERR1
 40
0.0
  9
$USERR2
 40
0.0
  9
$USERR3
 40
0.0
  9
$USERR4
 40
0.0
  9
$USERR5
 40
0.0
  9
$WORLDVIEW
 70
     1
  9
$SHADEDGE
 70
     3
  9
$SHADEDIF
 70
    70
  9
$TILEMODE
 70
     1
  9
$MAXACTVP
 70
    64
  9
$PLIMCHECK
 70
     0
  9
$PEXTMIN
 10
1.0000000000000000E+20
 20
1.0000000000000000E+20
 30
1.0000000000000000E+20
  9
$PEXTMAX
 10
-1.0000000000000000E+20
 20
-1.0000000000000000E+20
 30
-1.0000000000000000E+20
  9
$PLIMMIN
 10
0.0
 20
0.0
  9
$PLIMMAX
 10
12.0
 20
9.0
  9
$UNITMODE
 70
     0
  9
$VISRETAIN
 70
     1
  9
$PLINEGEN
 70
     0
  9
$PSLTSCALE
 70
     1
  0
ENDSEC
  0
SECTION
  2
TABLES
  0
TABLE
  2
VPORT
 70
     1
  0
VPORT
  2
*ACTIVE
 70
     0
 10
0.0
 20
0.0
 11
1.0
 21
1.0
 12
128.6101090261217905
 22
-5.9337668872107372
 13
0.0
 23
0.0
 14
1.0
 24
1.0
 15
0.0
 25
0.0
 16
0.0
 26
0.0
 36
47.0568789906323275
 17
4028.786865234375
 27
135.8743591308592897
 37
0.0
 40
10.4166039444294505
 41
2.5251322751322749
 42
50.0
 43
0.0
 44
0.0
 50
0.0
 51
0.0
 71
     0
 72
   100
 73
     1
 74
     1
 75
     0
 76
     0
 77
     0
 78
     0
  0
ENDTAB
  0
TABLE
  2
LTYPE
 70
     2
  0
LTYPE
  2
CONTINUOUS
 70
     0
  3
Solid line
 72
    65
 73
     0
 40
0.0
  0
LTYPE
  2
PHANTOM2
 70
     0
  3
___ _ _ ___ _ _ ___ _ _ ___ _ _
 72
    65
 73
     6
 40
1.25
 49
0.625
 49
-0.125
 49
0.125
 49
-0.125
 49
0.125
 49
-0.125
  0
ENDTAB
  0
TABLE
  2
LAYER
 70
     2
  0
LAYER
  2
0
 70
     0
 62
   255
  6
CONTINUOUS
  0
LAYER
  2
DEFPOINTS
 70
     0
 62
     7
  6
CONTINUOUS
  0
ENDTAB
  0
TABLE
  2
STYLE
 70
     1
  0
STYLE
  2
STANDARD
 70
     0
 40
0.0
 41
0.8
 50
0.0
 71
     0
 42
0.2
  3
txt
  4

  0
ENDTAB
  0
TABLE
  2
VIEW
 70
     0
  0
ENDTAB
  0
TABLE
  2
UCS
 70
     0
  0
ENDTAB
  0
TABLE
  2
APPID
 70
     9
  0
APPID
  2
ACAD
 70
     0
  0
APPID
  2
ACAD_MLEADERVER
 70
     0
  0
APPID
  2
ACAD_EXEMPT_FROM_CAD_STANDARDS
 70
     0
  0
APPID
  2
ACAD_NAV_VCDISPLAY
 70
     0
  0
APPID
  2
ACAECLAYERSTANDARD
 70
     0
  0
APPID
  2
ACCMTRANSPARENCY
 70
     0
  0
APPID
  2
ACAD_DSTYLE_DIMJAG
 70
     0
  0
APPID
  2
ACAD_DSTYLE_DIMTALN
 70
     0
  0
APPID
  2
ACDBATTR
 70
     0
  0
ENDTAB
  0
TABLE
  2
DIMSTYLE
 70
     1
  0
DIMSTYLE
  2
STANDARD
 70
     0
  3

  4

  5

  6

  7

 40
1.0
 41
0.1875
 42
0.0625
 43
0.38
 44
0.125
 45
0.0
 46
0.0
 47
0.01
 48
0.01
140
0.15625
141
0.09
142
0.0
143
25.3999999999999986
144
1.0
145
0.0
146
1.0
147
0.09
 71
     1
 72
     0
 73
     1
 74
     1
 75
     0
 76
     0
 77
     0
 78
     4
170
     0
171
     2
172
     0
173
     0
174
     0
175
     0
176
     0
177
     0
178
     0
  0
ENDTAB
  0
ENDSEC
  0
SECTION
  2
BLOCKS
  0
BLOCK
  8
0
  2
$MODEL_SPACE
 70
     0
 10
0.0
 20
0.0
 30
0.0
  3
$MODEL_SPACE
  1

  0
ENDBLK
  5
21
  8
0
  0
BLOCK
 67
     1
  8
0
  2
$PAPER_SPACE
 70
     0
 10
0.0
 20
0.0
 30
0.0
  3
$PAPER_SPACE
  1

  0
ENDBLK
  5
1D
 67
     1
  8
0
  0
ENDSEC
  0
SECTION
  2
ENTITIES
  0
ATTDEF
  5
7608
  8
DEFPOINTS
 10
4157.3097798622684422
 20
133.2001958055049897
 30
0.0
 40
0.001
  1
K-45445T
  3

  2
MODELNUMBER
 70
     0
1001
ACDBATTR
1070
     0
1070
     1
  0
ATTDEF
  5
7609
  8
DEFPOINTS
 10
4157.3097798622684422
 20
133.1985291388382961
 30
0.0
 40
0.001
  1
MISTOS
  3

  2
TRADENAME
 70
     0
1001
ACDBATTR
1070
     0
1070
     1
  0
ATTDEF
  5
760A
  8
DEFPOINTS
 10
4157.3097798622684422
 20
133.1968624721716878
 30
0.0
 40
0.001
  1
TOWEL BAR
  3

  2
PRODUCT
 70
     0
1001
ACDBATTR
1070
     0
1070
     1
  0
LINE
  5
7BA7
  8
0
 10
4167.9128711980647495
 20
130.671447948416386
 30
0.0
 11
4167.4468987303416725
 21
130.671447948416386
 31
0.0
  0
LINE
  5
7BA8
  8
0
 10
4170.261458179343208
 20
133.2055593684164023
 30
0.0
 11
4168.3833344172699071
 21
133.2055593684164023
 31
0.0
  0
ARC
  5
7BA9
  8
0
 10
4167.4374947437327137
 20
127.7574291321408992
 30
0.0
 40
1.0860218995802959
 50
270.496136843154602
 51
302.6510539209876924
  0
ARC
  5
7BAA
  8
0
 10
4166.8909069609053404
 20
128.6104290920586095
 30
0.0
 40
2.099119691482576
 50
302.6510539209876924
 51
327.1627209943872003
  0
ARC
  5
7BAB
  8
0
 10
4162.4529342201722102
 20
131.4745958567640969
 30
0.0
 40
7.3810751346430532
 50
327.1627209943872003
 51
341.6920871952074776
  0
ARC
  5
7BAC
  8
0
 10
4152.36390868235776
 20
134.8127678456185947
 30
0.0
 40
18.0080139473889389
 50
341.6920871952074776
 51
345.2440569595609077
  0
ARC
  5
7BAD
  8
0
 10
4155.7555565438733538
 20
133.9194452872374939
 30
0.0
 40
14.5006929740766495
 50
345.2440569595609077
 51
350.7415300328975718
  0
ARC
  5
7BAE
  8
0
 10
4139.5353212735572015
 20
136.5635398232022908
 30
0.0
 40
30.9350249696131883
 50
350.7415300328975718
 51
352.0813741432800725
  0
ARC
  5
7BAF
  8
0
 10
4159.7753243295173888
 20
133.7483006463531865
 30
0.0
 40
10.5001700563006306
 50
352.0813741432800725
 51
357.0371290987151838
  0
ARC
  5
7BB0
  8
0
 10
4167.4290795196830004
 20
127.6333261224483948
 30
0.0
 40
0.6520459444574697
 50
271.5659827308261924
 51
273.1020343198296132
  0
ARC
  5
7BB1
  8
0
 10
4167.4215443205948759
 20
127.7720533788887991
 30
0.0
 40
0.790977692684968
 50
273.1032682345963849
 51
282.4662153772035253
  0
ARC
  5
7BB2
  8
0
 10
4167.4170543753507445
 20
127.7617666616528993
 30
0.0
 40
0.7819306113571435
 50
282.9501730020601826
 51
301.8061692216480196
  0
ARC
  5
7BB3
  8
0
 10
4167.1702124616649598
 20
128.1400175532704964
 30
0.0
 40
1.233523184902807
 50
302.2901268464901818
 51
308.4016548689596107
  0
ARC
  5
7BB4
  8
0
 10
4166.9489496506148498
 20
128.4191651807639971
 30
0.0
 40
1.5897262582880689
 50
308.4016548689596107
 51
313.6962658684918779
  0
ARC
  5
7BB5
  8
0
 10
4166.9940252868263997
 20
128.3720431874922951
 30
0.0
 40
1.5245166437708351
 50
313.694886664392584
 51
318.5997686630124122
  0
ARC
  5
7BB6
  8
0
 10
4165.2350790459413474
 20
129.7609593208782996
 30
0.0
 40
3.764385324758817
 50
320.4475469724953882
 51
336.4524943577187059
  0
ARC
  5
7BB7
  8
0
 10
4159.8906831762160436
 20
132.2030505107777003
 30
0.0
 40
9.6399436162002026
 50
335.8367255100840794
 51
344.2341391670182134
  0
ARC
  5
7BB8
  8
0
 10
4153.4933132094192842
 20
134.0758313513159123
 30
0.0
 40
16.3056183820264806
 50
344.0088379695865228
 51
350.5350285700288282
  0
ARC
  5
7BB9
  8
0
 10
4153.1109203739652003
 20
134.1870818471936957
 30
0.0
 40
16.7011657088087091
 50
350.3742904984097208
 51
354.5756300823458105
  0
ARC
  5
7BBA
  8
0
 10
4157.2303052758898048
 20
133.7892761423381103
 30
0.0
 40
12.5626245122940592
 50
354.6057843370724072
 51
357.3368181545195057
  0
LINE
  5
7BBB
  8
0
 10
4168.3841711592840511
 20
131.1429391404128921
 30
0.0
 11
4168.3833344172699071
 21
133.2055593684164023
 31
0.0
  0
ARC
  5
7BBC
  8
0
 10
4167.9128711980647495
 20
131.1427479484163996
 30
0.0
 40
0.4713
 50
270.0
 51
0.0232431461469438
  0
LINE
  5
7BBD
  8
0
 10
4167.8914185704388728
 20
130.0494007044163141
 30
0.0
 11
4167.4468987303416725
 21
130.0494007044163993
 31
0.0
  0
LINE
  5
7BBE
  8
0
 10
4168.2858985656976074
 20
129.6588735296163861
 30
0.0
 11
4168.2859185704392075
 21
129.6259377238046113
 31
0.0
  0
ARC
  5
7BBF
  8
0
 10
4167.8914185704388728
 20
129.6549007044164057
 30
0.0
 40
0.3945
 50
0.5770087816305711
 51
90.0
  0
LINE
  5
7BC0
  8
0
 10
4167.4468987303416725
 20
127.2934951925164029
 30
0.0
 11
4167.4468987303416725
 21
127.2934957598130978
 31
0.0
  0
ARC
  5
7BC1
  8
0
 10
4167.4475802531405861
 20
127.6012412453166007
 30
0.0
 40
0.307746240138033
 50
269.8731149016768995
 51
270.0947029419550063
  0
ARC
  5
7BC2
  8
0
 10
4167.4474639928448596
 20
127.6089344704250976
 30
0.0
 40
0.3154403151456369
 50
270.6196313914471716
 51
273.5918224331871897
  0
ARC
  5
7BC3
  8
0
 10
4167.4464165115687138
 20
127.6242161928474985
 30
0.0
 40
0.3307576537823951
 50
273.6070755238201855
 51
281.5019115221523975
  0
ARC
  5
7BC4
  8
0
 10
4167.4447251093361047
 20
127.634585623970807
 30
0.0
 40
0.3412563597804057
 50
281.4330343659951836
 51
294.5782956264725954
  0
ARC
  5
7BC5
  8
0
 10
4167.2104141352201623
 20
127.9559994269724967
 30
0.0
 40
0.7353052432733614
 50
300.7767877135692061
 51
338.3270884170784143
  0
ARC
  5
7BC6
  8
0
 10
4163.1644015702731849
 20
129.5517166242196936
 30
0.0
 40
5.0846169759272382
 50
338.4545452722667278
 51
354.609774543289177
  0
ARC
  5
7BC7
  8
0
 10
4150.4211125632573385
 20
131.2691876221134919
 30
0.0
 40
17.9402219580066884
 50
352.9718473533118868
 51
354.7445781131402782
  0
LINE
  5
7BC8
  8
0
 10
4167.4468987303416725
 20
130.671447948416386
 30
0.0
 11
4167.4468987303416725
 21
130.0494007044163993
 31
0.0
  0
LINE
  5
7BC9
  8
0
 10
4167.4468987303416725
 20
127.2934957598162953
 30
0.0
 11
4167.4468987303416725
 21
126.6714479484164002
 31
0.0
  0
LINE
  5
7BCA
  8
0
 10
4167.4464120463417203
 20
130.0494007044163993
 30
0.0
 11
4167.4464120463417203
 21
130.671447948416386
 31
0.0
  0
ARC
  5
7BCB
  8
0
 10
4167.4475771729121334
 20
127.6025341161741977
 30
0.0
 40
0.3090391143222666
 50
270.0948778235829764
 51
270.6114816855853178
  0
LINE
  5
7BCC
  8
0
 10
4167.4464120463417203
 20
127.2698737125164001
 30
0.0
 11
4167.4468987303416725
 21
127.2698737125164001
 31
0.0
  0
LINE
  5
7BCD
  8
0
 10
4167.4464120463417203
 20
126.6950705629163991
 30
0.0
 11
4167.4468987303416725
 21
126.6950705629163991
 31
0.0
  0
LINE
  5
7BCE
  8
0
 10
4167.4464120463417203
 20
127.2934951925164029
 30
0.0
 11
4167.4464120463408108
 21
126.6714479484164002
 31
0.0
  0
LINE
  5
7BCF
  8
0
 10
4167.4464120463408108
 20
126.6714479484164002
 30
0.0
 11
4147.1826325187430484
 21
126.6714479484164002
 31
0.0
  0
LINE
  5
7BD0
  8
0
 10
4146.7161733670200192
 20
130.671447948416386
 30
0.0
 11
4147.1821458347430962
 21
130.671447948416386
 31
0.0
  0
LINE
  5
7BD1
  8
0
 10
4147.1826325187430484
 20
130.671447948416386
 30
0.0
 11
4167.4464120463417203
 21
130.671447948416386
 31
0.0
  0
LINE
  5
7BD2
  8
0
 10
4144.3675863857433797
 20
133.2055593684164023
 30
0.0
 11
4146.2457101478148616
 21
133.2055593684164023
 31
0.0
  0
ARC
  5
7BD3
  8
0
 10
4147.191549821352055
 20
127.7574291321408992
 30
0.0
 40
1.0860218995802959
 50
237.3489460790123076
 51
269.503863156845398
  0
ARC
  5
7BD4
  8
0
 10
4147.7381376041803378
 20
128.6104290920586095
 30
0.0
 40
2.099119691482576
 50
212.8372790056127997
 51
237.3489460790123076
  0
ARC
  5
7BD5
  8
0
 10
4152.1761103449125585
 20
131.4745958567640969
 30
0.0
 40
7.3810751346430532
 50
198.3079128047924939
 51
212.8372790056127997
  0
ARC
  5
7BD6
  8
0
 10
4162.2651358827270087
 20
134.8127678456185947
 30
0.0
 40
18.0080139473889389
 50
194.7559430404390923
 51
198.3079128047924939
  0
ARC
  5
7BD7
  8
0
 10
4158.8734880212123244
 20
133.9194452872374939
 30
0.0
 40
14.5006929740766495
 50
189.2584699671022861
 51
194.7559430404390923
  0
ARC
  5
7BD8
  8
0
 10
4175.0937232915275672
 20
136.5635398232022908
 30
0.0
 40
30.9350249696131883
 50
187.9186258567198138
 51
189.2584699671022861
  0
ARC
  5
7BD9
  8
0
 10
4154.8537202355682894
 20
133.7483006463531865
 30
0.0
 40
10.5001700563006306
 50
182.962870901283992
 51
187.9186258567198138
  0
ARC
  5
7BDA
  8
0
 10
4147.1999650454026778
 20
127.6333261224483948
 30
0.0
 40
0.6520459444574697
 50
266.8979656801703868
 51
268.4340172691736939
  0
ARC
  5
7BDB
  8
0
 10
4147.2075002444889833
 20
127.7720533788887991
 30
0.0
 40
0.790977692684968
 50
257.5337846227964747
 51
266.8967317654036151
  0
ARC
  5
7BDC
  8
0
 10
4147.2119901897340242
 20
127.7617666616528993
 30
0.0
 40
0.7819306113571435
 50
238.1938307783520088
 51
257.0498269979398174
  0
ARC
  5
7BDD
  8
0
 10
4147.4588321034207183
 20
128.1400175532704964
 30
0.0
 40
1.233523184902807
 50
231.598345131040503
 51
237.7098731535097897
  0
ARC
  5
7BDE
  8
0
 10
4147.6800949144708284
 20
128.4191651807639971
 30
0.0
 40
1.5897262582880689
 50
226.3037341315080937
 51
231.598345131040503
  0
ARC
  5
7BDF
  8
0
 10
4147.635019278260188
 20
128.3720431874922951
 30
0.0
 40
1.5245166437708351
 50
221.4002313369875878
 51
226.3051133356073876
  0
ARC
  5
7BE0
  8
0
 10
4149.3939655191452403
 20
129.7609593208782996
 30
0.0
 40
3.764385324758817
 50
203.5475056422812941
 51
219.5524530275039865
  0
ARC
  5
7BE1
  8
0
 10
4154.738361388868725
 20
132.2030505107777003
 30
0.0
 40
9.6399436162002026
 50
195.7658608329817866
 51
204.163274489915807
  0
ARC
  5
7BE2
  8
0
 10
4161.1357313556663939
 20
134.0758313513159123
 30
0.0
 40
16.3056183820264806
 50
189.4649714299712002
 51
195.9911620304133919
  0
ARC
  5
7BE3
  8
0
 10
4161.5181241911213874
 20
134.1870818471936957
 30
0.0
 40
16.7011657088087091
 50
185.4243699176541895
 51
189.6257095015901939
  0
ARC
  5
7BE4
  8
0
 10
4157.3987392891949639
 20
133.7892761423381103
 30
0.0
 40
12.5626245122940592
 50
182.6631818454804943
 51
185.3942156629275928
  0
LINE
  5
7BE5
  8
0
 10
4146.2448734058007176
 20
131.1429391404128921
 30
0.0
 11
4146.2457101478148616
 21
133.2055593684164023
 31
0.0
  0
ARC
  5
7BE6
  8
0
 10
4146.7161733670200192
 20
131.1427479484163996
 30
0.0
 40
0.4713
 50
179.9767568538530043
 51
270.0
  0
LINE
  5
7BE7
  8
0
 10
4146.7376259946458958
 20
130.0494007044163141
 30
0.0
 11
4147.1821458347430962
 21
130.0494007044163993
 31
0.0
  0
LINE
  5
7BE8
  8
0
 10
4147.1826325187430484
 20
130.0494007044163993
 30
0.0
 11
4167.4464120463417203
 21
130.0494007044163141
 31
0.0
  0
LINE
  5
7BE9
  8
0
 10
4146.3431459993871613
 20
129.6588735296163861
 30
0.0
 11
4146.3431259946455611
 21
129.6259377238046113
 31
0.0
  0
ARC
  5
7BEA
  8
0
 10
4146.7376259946458958
 20
129.6549007044164057
 30
0.0
 40
0.3945
 50
90.0
 51
179.4229912183693898
  0
LINE
  5
7BEB
  8
0
 10
4147.1821458347430962
 20
127.2934951925164029
 30
0.0
 11
4147.1821458347430962
 21
127.2934957598130978
 31
0.0
  0
ARC
  5
7BEC
  8
0
 10
4147.1814643119441826
 20
127.6012412453166007
 30
0.0
 40
0.307746240138033
 50
269.9052970580451074
 51
270.1268850983231005
  0
ARC
  5
7BED
  8
0
 10
4147.1815805722399091
 20
127.6089344704250976
 30
0.0
 40
0.3154403151456369
 50
266.4081775668126966
 51
269.3803686085528284
  0
ARC
  5
7BEE
  8
0
 10
4147.1826280535160549
 20
127.6242161928474985
 30
0.0
 40
0.3307576537823951
 50
258.4980884778476025
 51
266.3929244761797008
  0
ARC
  5
7BEF
  8
0
 10
4147.1843194557477545
 20
127.634585623970807
 30
0.0
 40
0.3412563597804057
 50
245.4217043735274046
 51
258.5669656340048164
  0
ARC
  5
7BF0
  8
0
 10
4147.4186304298646064
 20
127.9559994269724967
 30
0.0
 40
0.7353052432733614
 50
201.6729115829216141
 51
239.2232122864307087
  0
ARC
  5
7BF1
  8
0
 10
4151.4646429948115838
 20
129.5517166242196936
 30
0.0
 40
5.0846169759272382
 50
185.3902254567107946
 51
201.5454547277333859
  0
ARC
  5
7BF2
  8
0
 10
4164.2079320018283397
 20
131.2691876221134919
 30
0.0
 40
17.9402219580066884
 50
185.2554218868596081
 51
187.0281526466881132
  0
LINE
  5
7BF3
  8
0
 10
4147.1821458347430962
 20
130.671447948416386
 30
0.0
 11
4147.1821458347430962
 21
130.0494007044163993
 31
0.0
  0
LINE
  5
7BF4
  8
0
 10
4147.1821458347430962
 20
127.2934957598162953
 30
0.0
 11
4147.1821458347430962
 21
126.6714479484164002
 31
0.0
  0
LINE
  5
7BF5
  8
0
 10
4147.1826325187430484
 20
130.0494007044163993
 30
0.0
 11
4147.1826325187430484
 21
130.671447948416386
 31
0.0
  0
ARC
  5
7BF6
  8
0
 10
4147.1814673921717258
 20
127.6025341161741977
 30
0.0
 40
0.3090391143222666
 50
269.3885183144146822
 51
269.9051221764170236
  0
LINE
  5
7BF7
  8
0
 10
4147.1826325187430484
 20
127.2698737125164001
 30
0.0
 11
4147.1821458347430962
 21
127.2698737125164001
 31
0.0
  0
LINE
  5
7BF8
  8
0
 10
4147.1826325187430484
 20
126.6950705629163991
 30
0.0
 11
4147.1821458347430962
 21
126.6950705629163991
 31
0.0
  0
LINE
  5
7BF9
  8
0
 10
4147.1826325187430484
 20
127.2934951925164029
 30
0.0
 11
4147.1826325187439579
 21
126.6714479484164002
 31
0.0
  0
LINE
  5
7BFA
  8
0
 10
4147.1826325187430484
 20
127.2934951925164029
 30
0.0
 11
4167.4464120463417203
 21
127.2934951925164029
 31
0.0
  0
ENDSEC
  0
EOF
