  0
SECTION
  2
HEADER
  9
$ACADVER
  1
AC1009
  9
$INSBASE
 10
124.6055165130127023
 20
-7.6304991987511421
 30
0.0
  9
$EXTMIN
 10
116.2029777605958003
 20
-7.631128515975532
 30
-0.0000000349181948
  9
$EXTMAX
 10
133.0069290761861112
 20
-3.4985924423446799
 30
0.0000000814935746
  9
$LIMMIN
 10
0.0
 20
0.0
  9
$LIMMAX
 10
11.6929133858000007
 20
8.2677165353999982
  9
$ORTHOMODE
 70
     0
  9
$REGENMODE
 70
     1
  9
$FILLMODE
 70
     1
  9
$QTEXTMODE
 70
     0
  9
$MIRRTEXT
 70
     0
  9
$DRAGMODE
 70
     2
  9
$LTSCALE
 40
0.6431102362
  9
$OSMODE
 70
  4095
  9
$ATTMODE
 70
     1
  9
$TEXTSIZE
 40
0.2
  9
$TRACEWID
 40
0.05
  9
$TEXTSTYLE
  7
STANDARD
  9
$CLAYER
  8
0
  9
$CELTYPE
  6
BYLAYER
  9
$CECOLOR
 62
   256
  9
$DIMSCALE
 40
1.0
  9
$DIMASZ
 40
0.1875
  9
$DIMEXO
 40
0.0625
  9
$DIMDLI
 40
0.4443307087
  9
$DIMRND
 40
0.0
  9
$DIMDLE
 40
0.0
  9
$DIMEXE
 40
0.125
  9
$DIMTP
 40
0.01
  9
$DIMTM
 40
0.01
  9
$DIMTXT
 40
1.0
  9
$DIMCEN
 40
0.1052362205
  9
$DIMTSZ
 40
0.0
  9
$DIMTOL
 70
     1
  9
$DIMLIM
 70
     0
  9
$DIMTIH
 70
     1
  9
$DIMTOH
 70
     1
  9
$DIMSE1
 70
     0
  9
$DIMSE2
 70
     0
  9
$DIMTAD
 70
     0
  9
$DIMZIN
 70
     0
  9
$DIMBLK
  1

  9
$DIMASO
 70
     1
  9
$DIMSHO
 70
     1
  9
$DIMPOST
  1
\X
  9
$DIMAPOST
  1

  9
$DIMALT
 70
     1
  9
$DIMALTD
 70
     2
  9
$DIMALTF
 40
25.3999999999999986
  9
$DIMLFAC
 40
1.0
  9
$DIMTOFL
 70
     0
  9
$DIMTVP
 40
0.0
  9
$DIMTIX
 70
     0
  9
$DIMSOXD
 70
     0
  9
$DIMSAH
 70
     0
  9
$DIMBLK1
  1

  9
$DIMBLK2
  1

  9
$DIMSTYLE
  2
STANDARD
  9
$DIMCLRD
 70
     0
  9
$DIMCLRE
 70
     0
  9
$DIMCLRT
 70
     0
  9
$DIMTFAC
 40
1.0
  9
$DIMGAP
 40
0.09
  9
$LUNITS
 70
     2
  9
$LUPREC
 70
     4
  9
$SKETCHINC
 40
0.1
  9
$FILLETRAD
 40
0.0
  9
$AUNITS
 70
     0
  9
$AUPREC
 70
     0
  9
$MENU
  1
.
  9
$ELEVATION
 40
0.0
  9
$PELEVATION
 40
0.0
  9
$THICKNESS
 40
0.0
  9
$LIMCHECK
 70
     0
  9
$BLIPMODE
 70
     0
  9
$CHAMFERA
 40
0.0
  9
$CHAMFERB
 40
0.0
  9
$SKPOLY
 70
     0
  9
$TDCREATE
 40
2458172.4620254631154239
  9
$TDUPDATE
 40
2459066.7940046298317611
  9
$TDINDWG
 40
0.0715452894
  9
$TDUSRTIMER
 40
0.0715452894
  9
$USRTIMER
 70
     1
  9
$ANGBASE
 50
0.0
  9
$ANGDIR
 70
     0
  9
$PDMODE
 70
     0
  9
$PDSIZE
 40
0.3125
  9
$PLINEWID
 40
0.0
  9
$COORDS
 70
     1
  9
$SPLFRAME
 70
     0
  9
$SPLINETYPE
 70
     6
  9
$SPLINESEGS
 70
     8
  9
$ATTDIA
 70
     1
  9
$ATTREQ
 70
     1
  9
$HANDLING
 70
     1
  9
$HANDSEED
  5
27F3
  9
$SURFTAB1
 70
     6
  9
$SURFTAB2
 70
     6
  9
$SURFTYPE
 70
     6
  9
$SURFU
 70
     6
  9
$SURFV
 70
     6
  9
$UCSNAME
  2

  9
$UCSORG
 10
0.0
 20
0.0
 30
0.0
  9
$UCSXDIR
 10
1.0
 20
0.0
 30
0.0
  9
$UCSYDIR
 10
0.0
 20
1.0
 30
0.0
  9
$PUCSNAME
  2

  9
$PUCSORG
 10
0.0
 20
0.0
 30
0.0
  9
$PUCSXDIR
 10
1.0
 20
0.0
 30
0.0
  9
$PUCSYDIR
 10
0.0
 20
1.0
 30
0.0
  9
$USERI1
 70
     0
  9
$USERI2
 70
     0
  9
$USERI3
 70
     0
  9
$USERI4
 70
     0
  9
$USERI5
 70
     0
  9
$USERR1
 40
0.0
  9
$USERR2
 40
0.0
  9
$USERR3
 40
0.0
  9
$USERR4
 40
0.0
  9
$USERR5
 40
0.0
  9
$WORLDVIEW
 70
     1
  9
$SHADEDGE
 70
     3
  9
$SHADEDIF
 70
    70
  9
$TILEMODE
 70
     1
  9
$MAXACTVP
 70
    64
  9
$PLIMCHECK
 70
     0
  9
$PEXTMIN
 10
1.0000000000000000E+20
 20
1.0000000000000000E+20
 30
1.0000000000000000E+20
  9
$PEXTMAX
 10
-1.0000000000000000E+20
 20
-1.0000000000000000E+20
 30
-1.0000000000000000E+20
  9
$PLIMMIN
 10
0.0
 20
0.0
  9
$PLIMMAX
 10
12.0
 20
9.0
  9
$UNITMODE
 70
     0
  9
$VISRETAIN
 70
     1
  9
$PLINEGEN
 70
     0
  9
$PSLTSCALE
 70
     1
  0
ENDSEC
  0
SECTION
  2
TABLES
  0
TABLE
  2
VPORT
 70
     1
  0
VPORT
  2
*ACTIVE
 70
     0
 10
0.0
 20
0.0
 11
1.0
 21
1.0
 12
-0.0062051816816364
 22
-10.8771346495379309
 13
0.0
 23
0.0
 14
1.0
 24
1.0
 15
0.0
 25
0.0
 16
0.0
 26
0.0
 36
30.6214257250603907
 17
124.6111586000725993
 27
5.3122741703778242
 37
0.0
 40
6.3643727233979144
 41
2.6486111111111108
 42
50.0
 43
0.0
 44
0.0
 50
0.0
 51
0.0
 71
     0
 72
   100
 73
     1
 74
     1
 75
     0
 76
     0
 77
     0
 78
     0
  0
ENDTAB
  0
TABLE
  2
LTYPE
 70
     2
  0
LTYPE
  2
CONTINUOUS
 70
     0
  3
Solid line
 72
    65
 73
     0
 40
0.0
  0
LTYPE
  2
PHANTOM2
 70
     0
  3
___ _ _ ___ _ _ ___ _ _ ___ _ _
 72
    65
 73
     6
 40
1.25
 49
0.625
 49
-0.125
 49
0.125
 49
-0.125
 49
0.125
 49
-0.125
  0
ENDTAB
  0
TABLE
  2
LAYER
 70
     2
  0
LAYER
  2
0
 70
     0
 62
   255
  6
CONTINUOUS
  0
LAYER
  2
DEFPOINTS
 70
     0
 62
     7
  6
CONTINUOUS
  0
ENDTAB
  0
TABLE
  2
STYLE
 70
     1
  0
STYLE
  2
STANDARD
 70
     0
 40
0.0
 41
0.8
 50
0.0
 71
     0
 42
0.2
  3
txt
  4

  0
ENDTAB
  0
TABLE
  2
VIEW
 70
     0
  0
ENDTAB
  0
TABLE
  2
UCS
 70
     0
  0
ENDTAB
  0
TABLE
  2
APPID
 70
     9
  0
APPID
  2
ACAD
 70
     0
  0
APPID
  2
ACAD_MLEADERVER
 70
     0
  0
APPID
  2
ACAD_EXEMPT_FROM_CAD_STANDARDS
 70
     0
  0
APPID
  2
ACAD_DSTYLE_DIMJAG
 70
     0
  0
APPID
  2
ACAD_DSTYLE_DIMTALN
 70
     0
  0
APPID
  2
ACAD_NAV_VCDISPLAY
 70
     0
  0
APPID
  2
ACAECLAYERSTANDARD
 70
     0
  0
APPID
  2
ACCMTRANSPARENCY
 70
     0
  0
APPID
  2
ACDBATTR
 70
     0
  0
ENDTAB
  0
TABLE
  2
DIMSTYLE
 70
     1
  0
DIMSTYLE
  2
STANDARD
 70
     0
  3

  4

  5

  6

  7

 40
1.0
 41
0.1875
 42
0.0625
 43
0.38
 44
0.125
 45
0.0
 46
0.0
 47
0.01
 48
0.01
140
0.15625
141
0.09
142
0.0
143
25.3999999999999986
144
1.0
145
0.0
146
1.0
147
0.09
 71
     1
 72
     0
 73
     1
 74
     1
 75
     0
 76
     0
 77
     0
 78
     4
170
     0
171
     2
172
     0
173
     0
174
     0
175
     0
176
     0
177
     0
178
     0
  0
ENDTAB
  0
ENDSEC
  0
SECTION
  2
BLOCKS
  0
BLOCK
  8
0
  2
$MODEL_SPACE
 70
     0
 10
0.0
 20
0.0
 30
0.0
  3
$MODEL_SPACE
  1

  0
ENDBLK
  5
21
  8
0
  0
BLOCK
 67
     1
  8
0
  2
$PAPER_SPACE
 70
     0
 10
0.0
 20
0.0
 30
0.0
  3
$PAPER_SPACE
  1

  0
ENDBLK
  5
1D
 67
     1
  8
0
  0
ENDSEC
  0
SECTION
  2
ENTITIES
  0
ATTDEF
  5
1FF6
  8
DEFPOINTS
 10
124.6056633686508945
 20
-7.6270001865336914
 30
0.0
 40
0.001
  1
K-454T-4V
  3

  2
MODELNUMBER
 70
     0
1001
ACDBATTR
1070
     0
1070
     1
  0
ATTDEF
  5
1FF7
  8
DEFPOINTS
 10
124.6056633686508945
 20
-7.6286668532003556
 30
0.0
 40
0.001
  1
MEMOIRS
  3

  2
TRADENAME
 70
     0
1001
ACDBATTR
1070
     0
1070
     1
  0
ATTDEF
  5
1FF8
  8
DEFPOINTS
 10
124.6056633686508945
 20
-7.6303335198670208
 30
0.0
 40
0.001
  1
BATHROOM SINK FAUCET
  3

  2
PRODUCT
 70
     0
1001
ACDBATTR
1070
     0
1070
     1
  0
LINE
  5
2254
  8
0
 10
116.2180688598504048
 20
-4.4505063601511408
 30
0.0
 11
116.304682013185797
 21
-4.3648919659161223
 31
0.0
  0
ARC
  5
2255
  8
0
 10
116.3212881799847054
 20
-4.381691856683525
 30
0.0
 40
0.0236220470228373
 50
79.9320572732952428
 51
134.6677416560187908
  0
ARC
  5
2256
  8
0
 10
118.1009282405728982
 20
7.6326965449589297
 30
0.0
 40
12.1218661503080796
 50
261.5774876233509758
 51
271.6504131802303732
  0
LINE
  5
2257
  8
0
 10
118.450052055950394
 20
-4.4841409767511422
 30
0.0
 11
118.9253156911101001
 21
-4.4841409709511417
 31
0.0
  0
ARC
  5
2258
  8
0
 10
118.9253150678082989
 20
-4.5038275157149998
 30
0.0
 40
0.0196865447737324
 50
0.0043811174597568
 51
89.9981852411060146
  0
LINE
  5
2259
  8
0
 10
118.9450016125243934
 20
-4.5038260103848398
 30
0.0
 11
118.9450016117243933
 21
-4.9711449692846266
 31
0.0
  0
ARC
  5
225A
  8
0
 10
116.2319073354360057
 20
-4.4645062659081871
 30
0.0
 40
0.0196850391856677
 50
134.6677549703479997
 51
180.0000001250257924
  0
LINE
  5
225B
  8
0
 10
116.2122222962504026
 20
-4.4645062659511421
 30
0.0
 11
116.2122222962504026
 21
-4.9780647449511424
 31
0.0
  0
ARC
  5
225C
  8
0
 10
116.2319073356504049
 20
-4.9780647449511424
 30
0.0
 40
0.019685039400001
 50
179.9999999999992895
 51
225.3322510137986967
  0
LINE
  5
225D
  8
0
 10
116.2180688631504069
 20
-4.9920646541511422
 30
0.0
 11
116.3047663730503984
 21
-5.0777624322511423
 31
0.0
  0
ARC
  5
225E
  8
0
 10
116.3213725397091025
 20
-5.0609625416330593
 30
0.0
 40
0.0236220468180831
 50
225.3322583312157974
 51
270.0000008278569794
  0
ARC
  5
225F
  8
0
 10
117.9556355416947042
 20
-16.414725691401749
 30
0.0
 40
11.4473976506153701
 50
88.5264081558743072
 51
98.2077516031149145
  0
ARC
  5
2260
  8
0
 10
118.2500079748253938
 20
-5.0711066293868603
 30
0.0
 40
0.0999927515482785
 50
0.0085883063367402
 51
89.9936579718230263
  0
LINE
  5
2261
  8
0
 10
118.3500007252503963
 20
-5.2670566791511417
 30
0.0
 11
118.3500034449027964
 21
-5.0710762019926641
 31
0.0
  0
LINE
  5
2262
  8
0
 10
118.3260018594504004
 20
-5.2670566791511417
 30
0.0
 11
119.0740047888230038
 21
-5.2670566791511408
 31
0.0
  0
LINE
  5
2263
  8
0
 10
119.0740047888230038
 20
-5.2670566791511408
 30
0.0
 11
119.0740047888230038
 21
-5.2906566791511409
 31
0.0
  0
LINE
  5
2264
  8
0
 10
119.0740047888230038
 20
-5.2906566791511409
 30
0.0
 11
118.3260018594504004
 21
-5.2906566791511418
 31
0.0
  0
LINE
  5
2265
  8
0
 10
118.3260018594504004
 20
-5.2906566791511418
 30
0.0
 11
118.3260018594504004
 21
-5.2670566791511417
 31
0.0
  0
ARC
  5
2266
  8
0
 10
118.3663981633503965
 20
-5.320656679151142
 30
0.0
 40
0.0300000000000003
 50
89.9999999999992042
 51
158.5650400140985994
  0
ARC
  5
2267
  8
0
 10
112.3420831767127055
 20
-5.1015899319506541
 30
0.0
 40
6.0000000012952128
 50
336.7541197650451181
 51
358.0123602386091761
  0
LINE
  5
2268
  8
0
 10
117.8550007252504059
 20
-7.4696566791511421
 30
0.0
 11
117.8550007252504059
 21
-7.5206566791511422
 31
0.0
  0
LINE
  5
2269
  8
0
 10
117.8016115416504022
 20
-7.5206566791511422
 30
0.0
 11
119.5983899088503932
 21
-7.5206566791511422
 31
0.0
  0
ARC
  5
226A
  8
0
 10
119.5983899088503932
 20
-7.5344362068005744
 30
0.0
 40
0.0137795276494326
 50
22.2858567424198313
 51
90.00000000000081
  0
ARC
  5
226B
  8
0
 10
119.4370004370465068
 20
-7.6005799211403442
 30
0.0
 40
0.188197280632873
 50
0.0006033464288439
 51
22.2857448752642888
  0
LINE
  5
226C
  8
0
 10
119.6251977176688968
 20
-7.6005779393511421
 30
0.0
 11
119.6251977176688968
 21
-7.6304991987508064
 31
0.0
  0
LINE
  5
226D
  8
0
 10
119.6251977176688968
 20
-7.6304991987508064
 30
0.0
 11
117.7748038748504058
 21
-7.6304991987511421
 31
0.0
  0
LINE
  5
226E
  8
0
 10
117.7748038748504058
 20
-7.6304991987511421
 30
0.0
 11
117.7748038748504058
 21
-7.6005779392511421
 31
0.0
  0
ARC
  5
226F
  8
0
 10
117.962992852562806
 20
-7.6005779392511421
 30
0.0
 40
0.1881889777124357
 50
157.7141057441820919
 51
180.0
  0
ARC
  5
2270
  8
0
 10
117.801612320993101
 20
-7.5344373683763752
 30
0.0
 40
0.0137806892472707
 50
90.0032402625683687
 51
157.7141061173394974
  0
LINE
  5
2271
  8
0
 10
118.3105698410503948
 20
-4.9711169108511424
 30
0.0
 11
118.2496846343495065
 21
-4.971105280778934
 31
0.0
  0
ARC
  5
2272
  8
0
 10
118.3106196956121039
 20
-5.1267882398869062
 30
0.0
 40
0.1555619280601778
 50
63.487307908959842
 51
90.0182553223323936
  0
ARC
  5
2273
  8
0
 10
118.2159812848738056
 20
-5.2650318426463381
 30
0.0
 40
0.3223332207517708
 50
36.9795911544788183
 51
59.4000657859774677
  0
ARC
  5
2274
  8
0
 10
118.5842090856126987
 20
-4.9716742637719102
 30
0.0
 40
0.1488446071679014
 50
221.9315748870540972
 51
262.0899355562848996
  0
ARC
  5
2275
  8
0
 10
118.7485759207337992
 20
-3.7886727490580352
 30
0.0
 40
1.3432101459804651
 50
262.0899355562848996
 51
268.0173810835943868
  0
ARC
  5
2276
  8
0
 10
118.720920934556105
 20
-4.5875562376105261
 30
0.0
 40
0.5438481337843113
 50
268.0173810835943868
 51
283.0474543298794856
  0
ARC
  5
2277
  8
0
 10
119.0860614871346996
 20
-4.9800134861280174
 30
0.0
 40
0.141338384884459
 50
176.4025157936486039
 51
249.7871577879867004
  0
ARC
  5
2278
  8
0
 10
119.0304848184486985
 20
-5.1309619888658524
 30
0.0
 40
0.0195162593787016
 50
359.6555969582132093
 51
69.7871111876374925
  0
LINE
  5
2279
  8
0
 10
119.0500007252503991
 20
-5.2670566791511417
 30
0.0
 11
119.0500007252503991
 21
-5.1310792997511419
 31
0.0
  0
ARC
  5
227A
  8
0
 10
118.8223394872129006
 20
-4.9819312368687418
 30
0.0
 40
0.1371068241316873
 50
278.9624614294992284
 51
341.4082494790155806
  0
ARC
  5
227B
  8
0
 10
117.8527206262500044
 20
-4.4501905882675468
 30
0.0
 40
1.188741365194
 50
293.4614556629534263
 51
313.2763388473107966
  0
ARC
  5
227C
  8
0
 10
118.7000007252803044
 20
-5.4005078531517654
 30
0.0
 40
0.0908145596623054
 50
69.113648865342995
 51
110.8863512289676976
  0
ARC
  5
227D
  8
0
 10
119.5472808324277025
 20
-4.4501905765909386
 30
0.0
 40
1.1887413793164709
 50
226.723661247000706
 51
246.5385441997557905
  0
LINE
  5
227E
  8
0
 10
118.3382631061825947
 20
-5.3156606421511423
 30
0.0
 11
118.6676239319706951
 21
-5.3156607701044347
 31
0.0
  0
LINE
  5
227F
  8
0
 10
118.7323775184413961
 20
-5.3156607700451604
 30
0.0
 11
119.0617383488503975
 21
-5.3156607700511422
 31
0.0
  0
ARC
  5
2280
  8
0
 10
119.0329355221766008
 20
-5.3211642017693457
 30
0.0
 40
0.0308078957501595
 50
21.8597135319288505
 51
81.9926161855488971
  0
ARC
  5
2281
  8
0
 10
125.0579182697574936
 20
-5.1015899329982419
 30
0.0
 40
5.9999999972308231
 50
181.9876397527280005
 51
203.2458802421174937
  0
LINE
  5
2282
  8
0
 10
119.5450007252504037
 20
-7.4696566791511456
 30
0.0
 11
119.5450007252504037
 21
-7.5206566791511422
 31
0.0
  0
LINE
  5
2283
  8
0
 10
117.8550007252504059
 20
-7.4696566791511421
 30
0.0
 11
119.5450007252504037
 21
-7.4696566791511421
 31
0.0
  0
LINE
  5
2284
  8
0
 10
116.3252014934813019
 20
-4.3583962114921198
 30
0.0
 11
116.3252019738606009
 21
-5.0840328903328773
 31
0.0
  0
LINE
  5
2285
  8
0
 10
125.5555125362504043
 20
-7.6304991987511421
 30
0.0
 11
125.5555125362504043
 21
-7.5704999359898384
 31
0.0
  0
ARC
  5
2286
  8
0
 10
132.9377489915983972
 20
-4.68615345558851
 30
0.0
 40
7.9257094131485992
 50
185.6978188333195021
 51
201.3413059272839973
  0
LINE
  5
2287
  8
0
 10
124.350944678486897
 20
-3.4994682244511419
 30
0.0
 11
124.8558462225503973
 21
-3.4994682244511419
 31
0.0
  0
ARC
  5
2288
  8
0
 10
124.8558458453253053
 20
-3.5294689809017941
 30
0.0
 40
0.0300007564530242
 50
37.0007200636957165
 51
89.9992795713650366
  0
LINE
  5
2289
  8
0
 10
124.8798052878504024
 20
-3.511413773851142
 30
0.0
 11
124.9464317532703035
 21
-3.5998300893390041
 31
0.0
  0
ARC
  5
228A
  8
0
 10
124.9223613609692052
 20
-3.6178934120611408
 30
0.0
 40
0.0300943086528034
 50
342.6604200410682211
 51
36.8859335925795477
  0
ARC
  5
228B
  8
0
 10
127.8322393041062952
 20
-4.4692326616602287
 30
0.0
 40
3.0017979537363719
 50
163.7026775122494939
 51
178.1277450728109955
  0
ARC
  5
228C
  8
0
 10
124.6037716912338027
 20
-6.0052858623969518
 30
0.0
 40
1.6499922557667199
 50
78.3143740540212576
 51
89.9325914919461695
  0
ARC
  5
228D
  8
0
 10
124.9258534293133067
 20
-4.4480446898347248
 30
0.0
 40
0.0597920433634891
 50
6.8320130447354268
 51
78.3143740540204618
  0
ARC
  5
228E
  8
0
 10
131.5498778372698894
 20
-4.2463114855186479
 30
0.0
 40
6.5675412290919901
 50
181.6981334144429923
 51
189.2955101985932913
  0
ARC
  5
228F
  8
0
 10
124.6057093613733997
 20
-8.9941544621028164
 30
0.0
 40
3.863670363065002
 50
84.8521117201182165
 51
90.0029187753820139
  0
ARC
  5
2290
  8
0
 10
124.9508584223997048
 20
-5.2174406670784741
 30
0.0
 40
0.0713884432401101
 50
50.143964911921401
 51
88.7754875352145376
  0
ARC
  5
2291
  8
0
 10
124.7798961299066036
 20
-5.3607513421247868
 30
0.0
 40
0.2936182277949698
 50
337.517206854951894
 51
42.4325586432357724
  0
LINE
  5
2292
  8
0
 10
124.9863022956988061
 20
-4.4745085624359833
 30
0.0
 11
124.9957628026898959
 21
-5.1619328294051741
 31
0.0
  0
LINE
  5
2293
  8
0
 10
124.9523840039503995
 20
-5.1460685266511419
 30
0.0
 11
124.9379638070502949
 21
-4.3894919170511173
 31
0.0
  0
ARC
  5
2294
  8
0
 10
124.7977080919685022
 20
-5.5275080297422718
 30
0.0
 40
0.0588498029992149
 50
2.330176240134231
 51
57.5910964154168497
  0
ARC
  5
2295
  8
0
 10
124.8005068357780942
 20
-5.5225910176901927
 30
0.0
 40
0.0560592595890768
 50
314.172226393999324
 51
357.4191534739322265
  0
ARC
  5
2296
  8
0
 10
124.6892012349897954
 20
-5.3908785041625169
 30
0.0
 40
0.2284021560583934
 50
280.8231058343852737
 51
311.1741937346056943
  0
ARC
  5
2297
  8
0
 10
124.6044870036267014
 20
-5.0506572001033891
 30
0.0
 40
0.5788014712786055
 50
270.1015179206477228
 51
282.7360959411947761
  0
ARC
  5
2298
  8
0
 10
124.6035345680833046
 20
-5.9760082241719719
 30
0.0
 40
0.5552388861339069
 50
89.7958906147995464
 51
102.1139444413503981
  0
ARC
  5
2299
  8
0
 10
124.4217957644811037
 20
-5.5321832042920871
 30
0.0
 40
0.0674948223671542
 50
126.4726334787279001
 51
175.1892743318431087
  0
ARC
  5
229A
  8
0
 10
124.4146155326811964
 20
-5.52116751516518
 30
0.0
 40
0.0603150320554403
 50
185.0939106280642932
 51
225.3742044423759978
  0
ARC
  5
229B
  8
0
 10
124.5216594586478038
 20
-5.3913427362270996
 30
0.0
 40
0.2284021560583933
 50
229.1433207447742006
 51
259.4944086449939959
  0
ARC
  5
229C
  8
0
 10
124.6044870036267014
 20
-5.0506572001034451
 30
0.0
 40
0.5788014712785495
 50
257.581418538183982
 51
270.1015179206477228
  0
ARC
  5
229D
  8
0
 10
124.5970245086019048
 20
-6.0248247517666744
 30
0.0
 40
0.6508610221994172
 50
73.0705029445386316
 51
89.2527714360120967
  0
ARC
  5
229E
  8
0
 10
124.7002602316514981
 20
-5.6736027572581218
 30
0.0
 40
0.284819610136029
 50
57.4509342909038097
 51
72.3639690166575491
  0
ARC
  5
229F
  8
0
 10
124.7887450193769041
 20
-5.5321622669560444
 30
0.0
 40
0.1179979375692744
 50
29.3190689409739917
 51
56.7187098018199407
  0
ARC
  5
22A0
  8
0
 10
124.8440257734905003
 20
-5.4970715620692969
 30
0.0
 40
0.0527333750017948
 50
331.6215444026989871
 51
25.4847807074735506
  0
ARC
  5
22A1
  8
0
 10
124.7763415215135012
 20
-5.4506514845092271
 30
0.0
 40
0.1346265685510488
 50
289.0711320863100013
 51
327.9283629417137718
  0
ARC
  5
22A2
  8
0
 10
124.6140005638988981
 20
-6.0248247517666673
 30
0.0
 40
0.6508610221994094
 50
90.7472285639870933
 51
106.9294970554620932
  0
ARC
  5
22A3
  8
0
 10
124.5107648408493048
 20
-5.6736027572581218
 30
0.0
 40
0.284819610136029
 50
107.6360309833423941
 51
122.549065709096098
  0
ARC
  5
22A4
  8
0
 10
124.4222800531238988
 20
-5.5321622669560444
 30
0.0
 40
0.1179979375692744
 50
123.2812901981800024
 51
150.680931059025994
  0
ARC
  5
22A5
  8
0
 10
124.3669992990102031
 20
-5.4970715620692969
 30
0.0
 40
0.0527333750017948
 50
154.5152192925264103
 51
208.3784555973008992
  0
ARC
  5
22A6
  8
0
 10
124.4346835509873017
 20
-5.4506514845092271
 30
0.0
 40
0.1346265685510488
 50
212.0716370582860861
 51
250.1891009145749933
  0
LINE
  5
22A7
  8
0
 10
123.6555125362503986
 20
-7.6304991987511421
 30
0.0
 11
123.6554515361070941
 21
-7.5714737166384172
 31
0.0
  0
ARC
  5
22A8
  8
0
 10
116.2702625062324984
 20
-4.6946955370262593
 30
0.0
 40
7.9257094131485983
 50
338.7174222045455281
 51
354.3609092985099096
  0
ARC
  5
22A9
  8
0
 10
124.3518165265648037
 20
-3.5307364906212082
 30
0.0
 40
0.0312804186089795
 50
91.5971552621373633
 51
142.506716380390003
  0
LINE
  5
22AA
  8
0
 10
124.3269978699501053
 20
-3.5116970874741789
 30
0.0
 11
124.2604620661722947
 21
-3.600181648581974
 31
0.0
  0
ARC
  5
22AB
  8
0
 10
124.2845509607180929
 20
-3.6182202896851638
 30
0.0
 40
0.0300943086528034
 50
143.1727945392503898
 51
197.3983080907613044
  0
ARC
  5
22AC
  8
0
 10
121.3755471681253937
 20
-4.4725417142934756
 30
0.0
 40
3.001797953736371
 50
1.9309830590185091
 51
16.3560506195799604
  0
ARC
  5
22AD
  8
0
 10
124.605587538170596
 20
-6.0052849317759831
 30
0.0
 40
1.6499922557667199
 50
90.1261366398835406
 51
101.7443540778087936
  0
ARC
  5
22AE
  8
0
 10
124.2819097985081953
 20
-4.4483747107374247
 30
0.0
 40
0.0597920433634891
 50
101.7443540778087936
 51
173.2267150870939929
  0
ARC
  5
22AF
  8
0
 10
117.6576820938794015
 20
-4.2534312313479541
 30
0.0
 40
6.5675412290919892
 50
350.7632179332363762
 51
358.3605947173865047
  0
ARC
  5
22B0
  8
0
 10
124.6067134566272046
 20
-8.9941539475043228
 30
0.0
 40
3.8636703630650011
 50
90.0558093564472841
 51
95.2066164117114653
  0
ARC
  5
22B1
  8
0
 10
124.2576934487294977
 20
-5.2177959139034868
 30
0.0
 40
0.0713884432401101
 50
91.2832405966153004
 51
129.9147632199083091
  0
ARC
  5
22B2
  8
0
 10
124.4288025447249026
 20
-5.3609312774737381
 30
0.0
 40
0.2936182277949697
 50
137.6261694885938027
 51
202.5415212768776883
  0
LINE
  5
22B3
  8
0
 10
124.2214880893224063
 20
-4.474900529469604
 30
0.0
 11
124.2127320557244019
 21
-5.1623451883240499
 31
0.0
  0
LINE
  5
22B4
  8
0
 10
124.2560947116016052
 20
-5.1464253746884694
 30
0.0
 11
124.2697394105944966
 21
-4.3898343818383667
 31
0.0
  0
ARC
  5
22B5
  8
0
 10
124.2287109671090946
 20
-5.3686506158671028
 30
0.0
 40
0.1266725364441495
 50
235.8577968303773105
 51
272.4148797951477832
  0
ARC
  5
22B6
  8
0
 10
124.9793000567462968
 20
-5.3752824902232827
 30
0.0
 40
0.1213441570530334
 50
268.4932859375019802
 51
306.3353645555441744
  0
LINE
  5
22B7
  8
0
 10
124.5212510385504032
 20
-5.6425092464643711
 30
0.0
 11
124.6897740339503997
 21
-5.6425092464643711
 31
0.0
  0
ARC
  5
22B8
  8
0
 10
124.6366496326619995
 20
-5.0271673152128988
 30
0.0
 40
0.617630872246734
 50
274.934289746429215
 51
290.6315999245442185
  0
ARC
  5
22B9
  8
0
 10
124.7605928898564969
 20
-5.3563616219119874
 30
0.0
 40
0.2658769489323078
 50
290.6315999245442185
 51
319.2489264893810059
  0
ARC
  5
22BA
  8
0
 10
124.8978279817518029
 20
-5.4831206799532319
 30
0.0
 40
0.0794308731002851
 50
323.9016907925740725
 51
350.2409000227128217
  0
ARC
  5
22BB
  8
0
 10
124.5622142125951939
 20
-5.0898564357268086
 30
0.0
 40
0.5541688468592697
 50
244.3521886500209916
 51
265.7609317339890822
  0
ARC
  5
22BC
  8
0
 10
124.410041889566898
 20
-5.4067856078589482
 30
0.0
 40
0.2026001963169
 50
224.5100136989987902
 51
244.3521886500209916
  0
ARC
  5
22BD
  8
0
 10
124.331258538219501
 20
-5.4741271469235571
 30
0.0
 40
0.0994702915936637
 50
192.2371126005965891
 51
228.6647591606738104
  0
ARC
  5
22BE
  8
0
 10
124.9039320072699013
 20
-5.3145155540655571
 30
0.0
 40
0.0778614152176632
 50
34.1744181257352366
 51
60.1261567225013493
  0
ARC
  5
22BF
  8
0
 10
124.9152969975501009
 20
-5.3236955917493693
 30
0.0
 40
0.0749308209139809
 50
336.3000479526364757
 51
44.9262933922351522
  0
LINE
  5
22C0
  8
0
 10
124.445122386950402
 20
-5.237827038251142
 30
0.0
 11
124.765902685550401
 21
-5.237827038251142
 31
0.0
  0
ARC
  5
22C1
  8
0
 10
124.6997431170157995
 20
-5.6698211082641663
 30
0.0
 40
0.4370308513538788
 50
55.7807160395261334
 51
81.292848145789435
  0
ARC
  5
22C2
  8
0
 10
124.8729374125395992
 20
-5.408795320390376
 30
0.0
 40
0.1238447428044726
 50
26.3565077810992712
 51
54.1251315990204489
  0
ARC
  5
22C3
  8
0
 10
124.9207544816126045
 20
-5.3833692973945784
 30
0.0
 40
0.0697276179566265
 50
352.8046562312414949
 51
25.0791959915813614
  0
ARC
  5
22C4
  8
0
 10
-34.9564140533678227
 20
15.7165894358280394
 30
0.0
 40
161.3332291313955977
 50
352.4444884488132175
 51
352.4819174145329725
  0
LINE
  5
22C5
  8
0
 10
124.765902685550401
 20
-5.237827038251142
 30
0.0
 11
124.7296533853519946
 21
-5.341179152351379
 31
0.0
  0
LINE
  5
22C6
  8
0
 10
124.5212510385504032
 20
-5.3515143637511411
 30
0.0
 11
124.6897740339503997
 21
-5.3515143637511411
 31
0.0
  0
LINE
  5
22C7
  8
0
 10
124.6897740339503997
 20
-5.3515143637511411
 30
0.0
 11
124.729653385350403
 21
-5.3411791523511418
 31
0.0
  0
ARC
  5
22C8
  8
0
 10
124.7031326987582958
 20
-5.7319047514234249
 30
0.0
 40
0.391624616933344
 50
52.1258349402558991
 51
86.1169774329825373
  0
ARC
  5
22C9
  8
0
 10
124.8912204508646937
 20
-5.4899331877627278
 30
0.0
 40
0.0851491571941294
 50
355.5196784065445854
 51
52.0691055524190531
  0
ARC
  5
22CA
  8
0
 10
124.5538861936014996
 20
-5.7192756126404918
 30
0.0
 40
0.5519029399057019
 50
94.067510472860107
 51
121.1605492598588967
  0
ARC
  5
22CB
  8
0
 10
124.3672173023715004
 20
-5.3793675918377977
 30
0.0
 40
0.1652376550555855
 50
126.7676885166553973
 51
138.914185362918488
  0
ARC
  5
22CC
  8
0
 10
124.2954166936081037
 20
-5.32348619248231
 30
0.0
 40
0.0745674129258596
 50
135.0176118487580084
 51
202.8359788652431064
  0
ARC
  5
22CD
  8
0
 10
124.5043342647885964
 20
-5.6592256063147408
 30
0.0
 40
0.4255382469804367
 50
97.9984228523632055
 51
124.1821653585235055
  0
ARC
  5
22CE
  8
0
 10
124.3374624818765994
 20
-5.4078134680218799
 30
0.0
 40
0.1238447428044726
 50
125.6647523692032991
 51
153.433376187124594
  0
ARC
  5
22CF
  8
0
 10
124.2897389768604057
 20
-5.3822122608417544
 30
0.0
 40
0.0697276179566265
 50
154.7106879766425891
 51
186.9852277369822957
  0
ARC
  5
22D0
  8
0
 10
152.5108045411380999
 20
-1.7844941320008989
 30
0.0
 40
28.5191928169825601
 50
187.2643898220802043
 51
187.4761197490163909
  0
LINE
  5
22D1
  8
0
 10
124.445122386950402
 20
-5.237827038251142
 30
0.0
 11
124.4813716871488936
 21
-5.3411791523474816
 31
0.0
  0
ARC
  5
22D2
  8
0
 10
124.5290037484200951
 20
-5.7950936727319791
 30
0.0
 40
0.4564068416199744
 50
95.990476864235788
 51
125.0663793381701936
  0
ARC
  5
22D3
  8
0
 10
124.3186115383557961
 20
-5.4886713051823817
 30
0.0
 40
0.0848156781867273
 50
127.6640490279681046
 51
184.4219357140420072
  0
ARC
  5
22D4
  8
0
 10
124.6222390681906944
 20
-4.8797362295247098
 30
0.0
 40
0.4824657397834646
 50
253.0238352563310968
 51
257.9177008449636901
  0
LINE
  5
22D5
  8
0
 10
124.2655125362503981
 20
-5.307023691743324
 30
0.0
 11
124.2652344286818931
 21
-5.249356145717579
 31
0.0
  0
LINE
  5
22D6
  8
0
 10
124.9455125362504049
 20
-5.3084440785511431
 30
0.0
 11
124.9455125362504049
 21
-5.24868653622846
 31
0.0
  0
LINE
  5
22D7
  8
0
 10
124.8565092332504065
 20
-5.525115312251593
 30
0.0
 11
124.8565125362504062
 21
-5.4355647673641458
 31
0.0
  0
LINE
  5
22D8
  8
0
 10
124.3545387143964973
 20
-5.5265227926208871
 30
0.0
 11
124.3545387143964973
 21
-5.4355464075020929
 31
0.0
  0
LINE
  5
22D9
  8
0
 10
123.6555165130126994
 20
-7.6304991987511421
 30
0.0
 11
125.5555165130127051
 21
-7.630499198751143
 31
0.0
  0
LINE
  5
22DA
  8
0
 10
124.2544566520654001
 20
-3.6182202896851638
 30
0.0
 11
124.9524594514395943
 21
-3.6182202896851652
 31
0.0
  0
ARC
  5
22DB
  8
0
 10
124.6094993005736029
 20
-5.9489820326013527
 30
0.0
 40
0.5282242166577649
 50
74.645541507841088
 51
90.4324431390436558
  0
ARC
  5
22DC
  8
0
 10
124.5308557939728047
 20
-5.6825807599999392
 30
0.0
 40
0.2532708766566201
 50
99.968233018658097
 51
126.0874831302019032
  0
ARC
  5
22DD
  8
0
 10
124.6943226755359007
 20
-5.6572828611038188
 30
0.0
 40
0.2245227910832924
 50
53.0622032801812509
 51
75.8084574414646255
  0
ARC
  5
22DE
  8
0
 10
124.6051705369102933
 20
-6.0728361418261612
 30
0.0
 40
0.9085848766974031
 50
89.9784333640716341
 51
95.7121304398880284
  0
ARC
  5
22DF
  8
0
 10
124.7258309225143051
 20
-5.559020122613207
 30
0.0
 40
0.3799932496239226
 50
55.1970759063004195
 51
78.1536043740706248
  0
ARC
  5
22E0
  8
0
 10
124.4770882761470006
 20
-6.7448860736170486
 30
0.0
 40
1.5916660428614651
 50
78.1536043740706248
 51
81.6960365932670953
  0
ARC
  5
22E1
  8
0
 10
124.6077641055811966
 20
-6.0465758826361453
 30
0.0
 40
0.8822631749682974
 50
83.5441202884831142
 51
87.071005461291449
  0
ARC
  5
22E2
  8
0
 10
124.605583363002097
 20
-6.0849091050157709
 30
0.0
 40
0.9206577782456035
 50
87.0573682379628195
 51
90.004407798479221
  0
LINE
  5
22E5
  8
0
 10
132.9929641661751134
 20
-4.4505063601511408
 30
0.0
 11
132.9063510128395933
 21
-4.3648919659161223
 31
0.0
  0
ARC
  5
22E6
  8
0
 10
132.8897448460407134
 20
-4.381691856683525
 30
0.0
 40
0.0236220470228373
 50
45.3322583439811666
 51
100.0679427267047004
  0
ARC
  5
22E7
  8
0
 10
131.1101047854525916
 20
7.6326965449589297
 30
0.0
 40
12.1218661503080796
 50
268.3495868197696268
 51
278.4225123766490242
  0
LINE
  5
22E8
  8
0
 10
130.76098097007511
 20
-4.4841409767511422
 30
0.0
 11
130.2857173349152902
 21
-4.4841409709511417
 31
0.0
  0
ARC
  5
22E9
  8
0
 10
130.2857179582171909
 20
-4.5038275157149998
 30
0.0
 40
0.0196865447737324
 50
90.0018147588939854
 51
179.9956188825402137
  0
LINE
  5
22EA
  8
0
 10
130.2660314135009969
 20
-4.5038260103848398
 30
0.0
 11
130.2660314143010112
 21
-4.9711449692846266
 31
0.0
  0
ARC
  5
22EB
  8
0
 10
132.9791256905893988
 20
-4.4645062659081871
 30
0.0
 40
0.0196850391856677
 50
359.9999998749740939
 51
45.3322450296519577
  0
LINE
  5
22EC
  8
0
 10
132.9988107297751014
 20
-4.4645062659511421
 30
0.0
 11
132.9988107297751014
 21
-4.9780647449511424
 31
0.0
  0
ARC
  5
22ED
  8
0
 10
132.9791256903750991
 20
-4.9780647449511424
 30
0.0
 40
0.019685039400001
 50
314.6677489862012749
 51
0.0000000000007124
  0
LINE
  5
22EE
  8
0
 10
132.9929641628750971
 20
-4.9920646541511422
 30
0.0
 11
132.9062666529750913
 21
-5.0777624322511423
 31
0.0
  0
ARC
  5
22EF
  8
0
 10
132.8896604863163873
 20
-5.0609625416330593
 30
0.0
 40
0.0236220468180831
 50
269.9999991721430206
 51
314.6677416687841173
  0
ARC
  5
22F0
  8
0
 10
131.255397484330814
 20
-16.414725691401749
 30
0.0
 40
11.4473976506153701
 50
81.7922483968850855
 51
91.473591844125707
  0
ARC
  5
22F1
  8
0
 10
130.9610250512000107
 20
-5.0711066293868603
 30
0.0
 40
0.0999927515482785
 50
90.0063420281769737
 51
179.9914116936631956
  0
LINE
  5
22F2
  8
0
 10
130.8610323007750935
 20
-5.2670566791511417
 30
0.0
 11
130.8610295811226081
 21
-5.0710762019926641
 31
0.0
  0
LINE
  5
22F3
  8
0
 10
130.8850311665750894
 20
-5.2670566791511417
 30
0.0
 11
130.137028237202486
 21
-5.2670566791511408
 31
0.0
  0
LINE
  5
22F4
  8
0
 10
130.137028237202486
 20
-5.2670566791511408
 30
0.0
 11
130.137028237202486
 21
-5.2906566791511409
 31
0.0
  0
LINE
  5
22F5
  8
0
 10
130.137028237202486
 20
-5.2906566791511409
 30
0.0
 11
130.8850311665750894
 21
-5.2906566791511418
 31
0.0
  0
LINE
  5
22F6
  8
0
 10
130.8850311665750894
 20
-5.2906566791511418
 30
0.0
 11
130.8850311665750894
 21
-5.2670566791511417
 31
0.0
  0
ARC
  5
22F7
  8
0
 10
130.8446348626750932
 20
-5.320656679151142
 30
0.0
 40
0.0300000000000003
 50
21.4349599859013686
 51
90.00000000000081
  0
ARC
  5
22F8
  8
0
 10
136.8689498493127132
 20
-5.1015899319506541
 30
0.0
 40
6.0000000012952128
 50
181.9876397613907102
 51
203.2458802349549103
  0
LINE
  5
22F9
  8
0
 10
131.3560323007750981
 20
-7.4696566791511421
 30
0.0
 11
131.3560323007750981
 21
-7.5206566791511422
 31
0.0
  0
LINE
  5
22FA
  8
0
 10
131.4094214843750876
 20
-7.5206566791511422
 30
0.0
 11
129.6126431171751108
 21
-7.5206566791511422
 31
0.0
  0
ARC
  5
22FB
  8
0
 10
129.6126431171751108
 20
-7.5344362068005744
 30
0.0
 40
0.0137795276494326
 50
89.9999999999992042
 51
157.71414325758019
  0
ARC
  5
22FC
  8
0
 10
129.7740325889789972
 20
-7.6005799211403442
 30
0.0
 40
0.188197280632873
 50
157.7142551247358142
 51
179.9993966535710967
  0
LINE
  5
22FD
  8
0
 10
129.5858353083565078
 20
-7.6005779393511421
 30
0.0
 11
129.5858353083565078
 21
-7.6304991987508064
 31
0.0
  0
LINE
  5
22FE
  8
0
 10
129.5858353083565078
 20
-7.6304991987508064
 30
0.0
 11
131.4362291511750982
 21
-7.6304991987511421
 31
0.0
  0
LINE
  5
22FF
  8
0
 10
131.4362291511750982
 20
-7.6304991987511421
 30
0.0
 11
131.4362291511750982
 21
-7.6005779392511421
 31
0.0
  0
ARC
  5
2300
  8
0
 10
131.2480401734626128
 20
-7.6005779392511421
 30
0.0
 40
0.1881889777124357
 50
0.0
 51
22.2858942558179187
  0
ARC
  5
2301
  8
0
 10
131.4094207050322893
 20
-7.5344373683763752
 30
0.0
 40
0.0137806892472707
 50
22.2858938826604493
 51
89.9967597374316455
  0
LINE
  5
2302
  8
0
 10
130.9004631849751092
 20
-4.9711169108511424
 30
0.0
 11
130.961348391675898
 21
-4.971105280778934
 31
0.0
  0
ARC
  5
2303
  8
0
 10
130.9004133304133859
 20
-5.1267882398869062
 30
0.0
 40
0.1555619280601778
 50
89.9817446776676064
 51
116.5126920910401935
  0
ARC
  5
2304
  8
0
 10
130.9950517411515989
 20
-5.2650318426463381
 30
0.0
 40
0.3223332207517708
 50
120.5999342140224968
 51
143.0204088455211888
  0
ARC
  5
2305
  8
0
 10
130.6268239404126916
 20
-4.9716742637719102
 30
0.0
 40
0.1488446071679014
 50
277.9100644437152141
 51
318.0684251129458175
  0
ARC
  5
2306
  8
0
 10
130.4624571052916906
 20
-3.7886727490580352
 30
0.0
 40
1.3432101459804651
 50
271.9826189164056132
 51
277.9100644437152141
  0
ARC
  5
2307
  8
0
 10
130.4901120914693138
 20
-4.5875562376105261
 30
0.0
 40
0.5438481337843113
 50
256.9525456701204007
 51
271.9826189164056132
  0
ARC
  5
2308
  8
0
 10
130.1249715388908044
 20
-4.9800134861280174
 30
0.0
 40
0.141338384884459
 50
290.2128422120134132
 51
3.597484206351401
  0
ARC
  5
2309
  8
0
 10
130.1805482075768055
 20
-5.1309619888658524
 30
0.0
 40
0.0195162593787016
 50
110.2128888123624932
 51
180.3444030417867054
  0
LINE
  5
230A
  8
0
 10
130.1610323007749912
 20
-5.2670566791511417
 30
0.0
 11
130.1610323007749912
 21
-5.1310792997511419
 31
0.0
  0
ARC
  5
230B
  8
0
 10
130.3886935388125892
 20
-4.9819312368687418
 30
0.0
 40
0.1371068241316873
 50
198.5917505209843057
 51
261.0375385705007716
  0
ARC
  5
230C
  8
0
 10
131.3583123997755138
 20
-4.4501905882675468
 30
0.0
 40
1.188741365194
 50
226.7236611526892034
 51
246.5385443370466021
  0
ARC
  5
230D
  8
0
 10
130.5110323007450859
 20
-5.4005078531517654
 30
0.0
 40
0.0908145596623054
 50
69.113648771032274
 51
110.886351134657005
  0
ARC
  5
230E
  8
0
 10
129.6637521935977873
 20
-4.4501905765909386
 30
0.0
 40
1.1887413793164709
 50
293.4614558002442095
 51
313.2763387529993224
  0
LINE
  5
230F
  8
0
 10
130.8727699198429093
 20
-5.3156606421511423
 30
0.0
 11
130.5434090940547947
 21
-5.3156607701044347
 31
0.0
  0
LINE
  5
2310
  8
0
 10
130.4786555075839942
 20
-5.3156607700451604
 30
0.0
 11
130.1492946771751065
 21
-5.3156607700511422
 31
0.0
  0
ARC
  5
2311
  8
0
 10
130.1780975038487895
 20
-5.3211642017693457
 30
0.0
 40
0.0308078957501595
 50
98.0073838144511171
 51
158.1402864680711104
  0
ARC
  5
2312
  8
0
 10
124.1531147562678967
 20
-5.1015899329982419
 30
0.0
 40
5.9999999972308231
 50
336.7541197578825063
 51
358.0123602472719995
  0
LINE
  5
2313
  8
0
 10
129.6660323007751003
 20
-7.4696566791511456
 30
0.0
 11
129.6660323007751003
 21
-7.5206566791511422
 31
0.0
  0
LINE
  5
2314
  8
0
 10
131.3560323007750981
 20
-7.4696566791511421
 30
0.0
 11
129.6660323007751003
 21
-7.4696566791511421
 31
0.0
  0
LINE
  5
2315
  8
0
 10
132.8858315325441879
 20
-4.3583962114921198
 30
0.0
 11
132.8858310521648889
 21
-5.0840328903328773
 31
0.0
  0
ENDSEC
  0
EOF
