  0
SECTION
  2
HEADER
  9
$ACADVER
  1
AC1009
  9
$INSBASE
 10
124.6055566649985025
 20
4.4443608374861379
 30
0.0
  9
$EXTMIN
 10
116.2029887658865022
 20
-0.5862167672788418
 30
-0.0000000349181948
  9
$EXTMAX
 10
133.0069416729367049
 20
5.4194838288590041
 30
0.0000000814935746
  9
$LIMMIN
 10
0.0
 20
0.0
  9
$LIMMAX
 10
11.6929133858000007
 20
8.2677165353999982
  9
$ORTHOMODE
 70
     0
  9
$REGENMODE
 70
     1
  9
$FILLMODE
 70
     1
  9
$QTEXTMODE
 70
     0
  9
$MIRRTEXT
 70
     0
  9
$DRAGMODE
 70
     2
  9
$LTSCALE
 40
0.6431102362
  9
$OSMODE
 70
  4095
  9
$ATTMODE
 70
     1
  9
$TEXTSIZE
 40
0.2
  9
$TRACEWID
 40
0.05
  9
$TEXTSTYLE
  7
STANDARD
  9
$CLAYER
  8
0
  9
$CELTYPE
  6
BYLAYER
  9
$CECOLOR
 62
   256
  9
$DIMSCALE
 40
1.0
  9
$DIMASZ
 40
0.1875
  9
$DIMEXO
 40
0.0625
  9
$DIMDLI
 40
0.4443307087
  9
$DIMRND
 40
0.0
  9
$DIMDLE
 40
0.0
  9
$DIMEXE
 40
0.125
  9
$DIMTP
 40
0.01
  9
$DIMTM
 40
0.01
  9
$DIMTXT
 40
1.0
  9
$DIMCEN
 40
0.1052362205
  9
$DIMTSZ
 40
0.0
  9
$DIMTOL
 70
     1
  9
$DIMLIM
 70
     0
  9
$DIMTIH
 70
     1
  9
$DIMTOH
 70
     1
  9
$DIMSE1
 70
     0
  9
$DIMSE2
 70
     0
  9
$DIMTAD
 70
     0
  9
$DIMZIN
 70
     0
  9
$DIMBLK
  1

  9
$DIMASO
 70
     1
  9
$DIMSHO
 70
     1
  9
$DIMPOST
  1
\X
  9
$DIMAPOST
  1

  9
$DIMALT
 70
     1
  9
$DIMALTD
 70
     2
  9
$DIMALTF
 40
25.3999999999999986
  9
$DIMLFAC
 40
1.0
  9
$DIMTOFL
 70
     0
  9
$DIMTVP
 40
0.0
  9
$DIMTIX
 70
     0
  9
$DIMSOXD
 70
     0
  9
$DIMSAH
 70
     0
  9
$DIMBLK1
  1

  9
$DIMBLK2
  1

  9
$DIMSTYLE
  2
STANDARD
  9
$DIMCLRD
 70
     0
  9
$DIMCLRE
 70
     0
  9
$DIMCLRT
 70
     0
  9
$DIMTFAC
 40
1.0
  9
$DIMGAP
 40
0.09
  9
$LUNITS
 70
     2
  9
$LUPREC
 70
     4
  9
$SKETCHINC
 40
0.1
  9
$FILLETRAD
 40
0.0
  9
$AUNITS
 70
     0
  9
$AUPREC
 70
     0
  9
$MENU
  1
.
  9
$ELEVATION
 40
0.0
  9
$PELEVATION
 40
0.0
  9
$THICKNESS
 40
0.0
  9
$LIMCHECK
 70
     0
  9
$BLIPMODE
 70
     0
  9
$CHAMFERA
 40
0.0
  9
$CHAMFERB
 40
0.0
  9
$SKPOLY
 70
     0
  9
$TDCREATE
 40
2458172.4620254631154239
  9
$TDUPDATE
 40
2459066.7938425932079554
  9
$TDINDWG
 40
0.0702142708
  9
$TDUSRTIMER
 40
0.0702142708
  9
$USRTIMER
 70
     1
  9
$ANGBASE
 50
0.0
  9
$ANGDIR
 70
     0
  9
$PDMODE
 70
     0
  9
$PDSIZE
 40
0.3125
  9
$PLINEWID
 40
0.0
  9
$COORDS
 70
     1
  9
$SPLFRAME
 70
     0
  9
$SPLINETYPE
 70
     6
  9
$SPLINESEGS
 70
     8
  9
$ATTDIA
 70
     1
  9
$ATTREQ
 70
     1
  9
$HANDLING
 70
     1
  9
$HANDSEED
  5
2886
  9
$SURFTAB1
 70
     6
  9
$SURFTAB2
 70
     6
  9
$SURFTYPE
 70
     6
  9
$SURFU
 70
     6
  9
$SURFV
 70
     6
  9
$UCSNAME
  2

  9
$UCSORG
 10
0.0
 20
0.0
 30
0.0
  9
$UCSXDIR
 10
1.0
 20
0.0
 30
0.0
  9
$UCSYDIR
 10
0.0
 20
1.0
 30
0.0
  9
$PUCSNAME
  2

  9
$PUCSORG
 10
0.0
 20
0.0
 30
0.0
  9
$PUCSXDIR
 10
1.0
 20
0.0
 30
0.0
  9
$PUCSYDIR
 10
0.0
 20
1.0
 30
0.0
  9
$USERI1
 70
     0
  9
$USERI2
 70
     0
  9
$USERI3
 70
     0
  9
$USERI4
 70
     0
  9
$USERI5
 70
     0
  9
$USERR1
 40
0.0
  9
$USERR2
 40
0.0
  9
$USERR3
 40
0.0
  9
$USERR4
 40
0.0
  9
$USERR5
 40
0.0
  9
$WORLDVIEW
 70
     1
  9
$SHADEDGE
 70
     3
  9
$SHADEDIF
 70
    70
  9
$TILEMODE
 70
     1
  9
$MAXACTVP
 70
    64
  9
$PLIMCHECK
 70
     0
  9
$PEXTMIN
 10
1.0000000000000000E+20
 20
1.0000000000000000E+20
 30
1.0000000000000000E+20
  9
$PEXTMAX
 10
-1.0000000000000000E+20
 20
-1.0000000000000000E+20
 30
-1.0000000000000000E+20
  9
$PLIMMIN
 10
0.0
 20
0.0
  9
$PLIMMAX
 10
12.0
 20
9.0
  9
$UNITMODE
 70
     0
  9
$VISRETAIN
 70
     1
  9
$PLINEGEN
 70
     0
  9
$PSLTSCALE
 70
     1
  0
ENDSEC
  0
SECTION
  2
TABLES
  0
TABLE
  2
VPORT
 70
     1
  0
VPORT
  2
*ACTIVE
 70
     0
 10
0.0
 20
0.0
 11
1.0
 21
1.0
 12
-0.0061933806610028
 22
-2.8956406395877421
 13
0.0
 23
0.0
 14
1.0
 24
1.0
 15
0.0
 25
0.0
 16
0.0
 26
0.0
 36
30.6214257250603907
 17
124.6111586000725993
 27
5.3122741703778242
 37
0.0
 40
6.364373326151588
 41
2.6486111111111108
 42
50.0
 43
0.0
 44
0.0
 50
0.0
 51
0.0
 71
     0
 72
   100
 73
     1
 74
     1
 75
     0
 76
     0
 77
     0
 78
     0
  0
ENDTAB
  0
TABLE
  2
LTYPE
 70
     2
  0
LTYPE
  2
CONTINUOUS
 70
     0
  3
Solid line
 72
    65
 73
     0
 40
0.0
  0
LTYPE
  2
PHANTOM2
 70
     0
  3
___ _ _ ___ _ _ ___ _ _ ___ _ _
 72
    65
 73
     6
 40
1.25
 49
0.625
 49
-0.125
 49
0.125
 49
-0.125
 49
0.125
 49
-0.125
  0
ENDTAB
  0
TABLE
  2
LAYER
 70
     2
  0
LAYER
  2
0
 70
     0
 62
   255
  6
CONTINUOUS
  0
LAYER
  2
DEFPOINTS
 70
     0
 62
     7
  6
CONTINUOUS
  0
ENDTAB
  0
TABLE
  2
STYLE
 70
     1
  0
STYLE
  2
STANDARD
 70
     0
 40
0.0
 41
0.8
 50
0.0
 71
     0
 42
0.2
  3
txt
  4

  0
ENDTAB
  0
TABLE
  2
VIEW
 70
     0
  0
ENDTAB
  0
TABLE
  2
UCS
 70
     0
  0
ENDTAB
  0
TABLE
  2
APPID
 70
     9
  0
APPID
  2
ACAD
 70
     0
  0
APPID
  2
ACAD_MLEADERVER
 70
     0
  0
APPID
  2
ACAD_EXEMPT_FROM_CAD_STANDARDS
 70
     0
  0
APPID
  2
ACAD_DSTYLE_DIMJAG
 70
     0
  0
APPID
  2
ACAD_DSTYLE_DIMTALN
 70
     0
  0
APPID
  2
ACAD_NAV_VCDISPLAY
 70
     0
  0
APPID
  2
ACAECLAYERSTANDARD
 70
     0
  0
APPID
  2
ACCMTRANSPARENCY
 70
     0
  0
APPID
  2
ACDBATTR
 70
     0
  0
ENDTAB
  0
TABLE
  2
DIMSTYLE
 70
     1
  0
DIMSTYLE
  2
STANDARD
 70
     0
  3

  4

  5

  6

  7

 40
1.0
 41
0.1875
 42
0.0625
 43
0.38
 44
0.125
 45
0.0
 46
0.0
 47
0.01
 48
0.01
140
0.15625
141
0.09
142
0.0
143
25.3999999999999986
144
1.0
145
0.0
146
1.0
147
0.09
 71
     1
 72
     0
 73
     1
 74
     1
 75
     0
 76
     0
 77
     0
 78
     4
170
     0
171
     2
172
     0
173
     0
174
     0
175
     0
176
     0
177
     0
178
     0
  0
ENDTAB
  0
ENDSEC
  0
SECTION
  2
BLOCKS
  0
BLOCK
  8
0
  2
$MODEL_SPACE
 70
     0
 10
0.0
 20
0.0
 30
0.0
  3
$MODEL_SPACE
  1

  0
ENDBLK
  5
21
  8
0
  0
BLOCK
 67
     1
  8
0
  2
$PAPER_SPACE
 70
     0
 10
0.0
 20
0.0
 30
0.0
  3
$PAPER_SPACE
  1

  0
ENDBLK
  5
1D
 67
     1
  8
0
  0
ENDSEC
  0
SECTION
  2
ENTITIES
  0
ATTDEF
  5
157D
  8
DEFPOINTS
 10
124.6056633686508945
 20
4.4478576947097821
 30
0.0
 40
0.001
  1
K-454T-4V
  3

  2
MODELNUMBER
 70
     0
1001
ACDBATTR
1070
     0
1070
     1
  0
ATTDEF
  5
157E
  8
DEFPOINTS
 10
124.6056633686508945
 20
4.4461910280431169
 30
0.0
 40
0.001
  1
MEMOIRS
  3

  2
TRADENAME
 70
     0
1001
ACDBATTR
1070
     0
1070
     1
  0
ATTDEF
  5
157F
  8
DEFPOINTS
 10
124.6056633686508945
 20
4.4445243613764518
 30
0.0
 40
0.001
  1
BATHROOM SINK FAUCET
  3

  2
PRODUCT
 70
     0
1001
ACDBATTR
1070
     0
1070
     1
  0
LINE
  5
2398
  8
0
 10
119.6114582000360969
 20
5.3695576877861386
 30
0.0
 11
117.7886235543360982
 21
5.3695576877861386
 31
0.0
  0
ARC
  5
2399
  8
0
 10
119.611456878899304
 20
5.3557766969092926
 30
0.0
 40
0.013780990940176
 50
0.0060841283188123
 51
89.9945072482065456
  0
LINE
  5
239A
  8
0
 10
119.6252378697618042
 20
5.3557781602861381
 30
0.0
 11
119.6252378695618006
 21
3.5329411442861369
 31
0.0
  0
ARC
  5
239B
  8
0
 10
119.6114604694818979
 20
3.5329413868812969
 30
0.0
 40
0.0137774000820586
 50
269.990562538367783
 51
359.9989911246887004
  0
LINE
  5
239C
  8
0
 10
119.611458200140504
 20
3.5191639869861371
 30
0.0
 11
117.788623554226703
 21
3.5191639869861371
 31
0.0
  0
ARC
  5
239D
  8
0
 10
117.7886235543360982
 20
3.5329435145861399
 30
0.0
 40
0.0137795276000024
 50
180.0000004315066064
 51
269.9999999999877787
  0
LINE
  5
239E
  8
0
 10
117.7748440267361048
 20
3.5329435144823629
 30
0.0
 11
117.7748443710435993
 21
4.1944030589254266
 31
0.0
  0
LINE
  5
239F
  8
0
 10
117.7748440268361065
 20
4.6933852660586624
 30
0.0
 11
117.7748440268361065
 21
5.3557781602861381
 31
0.0
  0
ARC
  5
23A0
  8
0
 10
117.7886235544361
 20
5.3557781602861381
 30
0.0
 40
0.0137795276000006
 50
90.0000008503734534
 51
180.0
  0
LINE
  5
23A1
  8
0
 10
117.8016516936361029
 20
5.3555002373861402
 30
0.0
 11
119.598430060836094
 21
5.3555002373861402
 31
0.0
  0
ARC
  5
23A2
  8
0
 10
119.5959632668234036
 20
5.3402832269540212
 30
0.0
 40
0.0154156569497605
 50
9.2079844515061797
 51
80.7920159978491341
  0
LINE
  5
23A3
  8
0
 10
119.6111802772361017
 20
5.3427500210861387
 30
0.0
 11
119.6111802913279973
 21
3.5459693990861161
 31
0.0
  0
ARC
  5
23A4
  8
0
 10
119.5959587054236977
 20
3.548443427890303
 30
0.0
 40
0.0154213324964337
 50
279.2224247432794755
 51
350.7682027690698874
  0
LINE
  5
23A5
  8
0
 10
119.5984302442360985
 20
3.5332214374861399
 30
0.0
 11
117.8016516936361029
 21
3.5332214362861381
 31
0.0
  0
ARC
  5
23A6
  8
0
 10
117.8041191792699038
 20
3.5484395895368008
 30
0.0
 40
0.0154168957223445
 50
189.2201535136782979
 51
260.7901583919385757
  0
LINE
  5
23A7
  8
0
 10
117.7889014703556967
 20
3.5459693650298858
 30
0.0
 11
117.788901476136104
 21
4.1946627186861392
 31
0.0
  0
ARC
  5
23A8
  8
0
 10
117.8041226919343956
 20
5.3402790213552453
 30
0.0
 40
0.0154204815115977
 50
99.2209035162529034
 51
170.7790910912844993
  0
LINE
  5
23A9
  8
0
 10
117.788901476136104
 20
5.3427500210861387
 30
0.0
 11
117.788901476136104
 21
4.693237761562
 31
0.0
  0
LINE
  5
23AA
  8
0
 10
117.7886235542316058
 20
5.3695576878861386
 30
0.0
 11
117.8016516936361029
 21
5.3555002373861402
 31
0.0
  0
LINE
  5
23AB
  8
0
 10
117.788901476136104
 20
5.3427500210861387
 30
0.0
 11
117.7748440267361048
 21
5.3557781602861381
 31
0.0
  0
LINE
  5
23AC
  8
0
 10
119.611460577536306
 20
5.369557687370472
 30
0.0
 11
119.598430060836094
 21
5.3555002373861402
 31
0.0
  0
LINE
  5
23AD
  8
0
 10
119.6111802772361017
 20
5.3427500210861316
 30
0.0
 11
119.6252378697618042
 21
5.3557781602861381
 31
0.0
  0
LINE
  5
23AE
  8
0
 10
119.6114582000360969
 20
3.5191639869861371
 30
0.0
 11
119.5984302442360985
 21
3.5332214374861399
 31
0.0
  0
LINE
  5
23AF
  8
0
 10
119.6111802913279973
 20
3.5459714572919458
 30
0.0
 11
119.6252378695618006
 21
3.5329411442861369
 31
0.0
  0
LINE
  5
23B0
  8
0
 10
116.2122624482361033
 20
4.701140076986138
 30
0.0
 11
116.2122624482361033
 21
4.1875815958861384
 31
0.0
  0
ARC
  5
23B1
  8
0
 10
116.2315291978113976
 20
4.187406913944093
 30
0.0
 40
0.0192675414356833
 50
179.4805421759267006
 51
225.8517182916037029
  0
LINE
  5
23B2
  8
0
 10
116.2181090142361057
 20
4.1735816896861389
 30
0.0
 11
116.3049060291251067
 21
4.0877855541804626
 31
0.0
  0
ARC
  5
23B3
  8
0
 10
116.3215121891393977
 20
4.1045854282984191
 30
0.0
 40
0.0236220304122788
 50
225.3322416581320056
 51
270.0000167282096868
  0
ARC
  5
23B4
  8
0
 10
117.8663440162816016
 20
-6.344246750830453
 30
0.0
 40
10.5390470156341092
 50
90.4974462448386703
 51
98.4288848332660251
  0
ARC
  5
23B5
  8
0
 10
117.3252705738482007
 20
28.9134465866051791
 30
0.0
 40
24.7231314667549888
 50
271.0419432914267759
 51
271.1040800764378105
  0
ARC
  5
23B6
  8
0
 10
118.3055476826711043
 20
-21.9513323126418314
 30
0.0
 40
26.1510926126289291
 50
89.683308320205029
 51
91.1040800764378247
  0
LINE
  5
23B7
  8
0
 10
118.4500922084361036
 20
4.1993608275861396
 30
0.0
 11
118.9253485835974971
 21
4.1993608318860751
 31
0.0
  0
ARC
  5
23B8
  8
0
 10
118.9253562838161002
 20
4.2190444413076369
 30
0.0
 40
0.0196837167978554
 50
269.9987184237872953
 51
0.0041591870209627
  0
LINE
  5
23B9
  8
0
 10
118.945040000562102
 20
4.2190458701712581
 30
0.0
 11
118.9450417641102007
 21
4.6696758020184168
 31
0.0
  0
ARC
  5
23BA
  8
0
 10
118.9253583058548003
 20
4.6696773848210809
 30
0.0
 40
0.0196834583190711
 50
359.995392683994794
 51
90.0071674633127117
  0
LINE
  5
23BB
  8
0
 10
118.9253558435360958
 20
4.6893608429861402
 30
0.0
 11
118.450092210409494
 21
4.6893164495848882
 31
0.0
  0
LINE
  5
23BC
  8
0
 10
118.450092210409494
 20
4.6893164495848882
 30
0.0
 11
117.8550408772361067
 21
4.692789424786139
 31
0.0
  0
ARC
  5
23BD
  8
0
 10
117.8951569626819946
 20
15.4895047922303899
 30
0.0
 40
10.7967898944972696
 50
261.6392252322578997
 51
269.7871137905161731
  0
ARC
  5
23BE
  8
0
 10
116.3217547828688936
 20
4.7833802831960703
 30
0.0
 40
0.0243328570488349
 50
81.7607380080660278
 51
133.8226303863065993
  0
ARC
  5
23BF
  8
0
 10
119.1696451591006962
 20
1.8159747057445721
 30
0.0
 40
4.1372363881475236
 50
133.8226303863065993
 51
135.5128529373266986
  0
ARC
  5
23C0
  8
0
 10
116.2319474871365941
 20
4.701140077086257
 30
0.0
 40
0.0196850389004473
 50
134.6677411181329092
 51
180.0000002914088952
  0
LINE
  5
23C1
  8
0
 10
117.8550408772361067
 20
5.2893608374861394
 30
0.0
 11
119.5450408772361044
 21
5.2893608374861394
 31
0.0
  0
LINE
  5
23C2
  8
0
 10
119.5450408772361044
 20
5.2893608374861394
 30
0.0
 11
119.5450408772361044
 21
3.5993608374861412
 31
0.0
  0
LINE
  5
23C3
  8
0
 10
119.5450408772361044
 20
3.5993608374861412
 30
0.0
 11
117.8550408772361067
 21
3.599360837486139
 31
0.0
  0
LINE
  5
23C4
  8
0
 10
117.8550408772361067
 20
3.599360837486139
 30
0.0
 11
117.8550408772361067
 21
4.195879555022981
 31
0.0
  0
LINE
  5
23C5
  8
0
 10
117.8550408772361067
 20
4.6927894247861408
 30
0.0
 11
117.8550408772361067
 21
5.2893608374861412
 31
0.0
  0
ARC
  5
23C6
  8
0
 10
117.4801524033448032
 20
-22.0340288511729305
 30
0.0
 40
26.865713663702941
 50
87.5855645112950754
 51
88.1957070433299037
  0
ARC
  5
23C7
  8
0
 10
119.9200191170529024
 20
-22.0364661035028107
 30
0.0
 40
26.8681525339026592
 50
91.8043206425546572
 51
92.4144077898757246
  0
ARC
  5
23C8
  8
0
 10
92.2245867578655805
 20
5.6641411816681186
 30
0.0
 40
26.8627761453395486
 50
357.5855311645598249
 51
358.1957404183937115
  0
ARC
  5
23C9
  8
0
 10
118.7000427022084068
 20
4.4443657207961902
 30
0.0
 40
0.3739981774343532
 50
220.8944185527386992
 51
139.0455436754469929
  0
LINE
  5
23CA
  8
0
 10
119.0740449409361048
 20
4.0703567688861391
 30
0.0
 11
119.0635152865709045
 21
4.3562566164822298
 31
0.0
  0
LINE
  5
23CB
  8
0
 10
119.0740449407544048
 20
4.0703567738204161
 30
0.0
 11
118.7881472705383032
 21
4.0808869547085527
 31
0.0
  0
LINE
  5
23CC
  8
0
 10
118.3260368135188969
 20
4.0703567691598801
 30
0.0
 11
118.6124646631360946
 21
4.0809059607861391
 31
0.0
  0
LINE
  5
23CD
  8
0
 10
118.3303721388426055
 20
4.1993105616701882
 30
0.0
 11
118.3260368038538957
 21
4.0703567688039159
 31
0.0
  0
LINE
  5
23CE
  8
0
 10
118.3260368038538957
 20
4.0703567688039159
 30
0.0
 11
117.8550408772361067
 21
3.599360837486139
 31
0.0
  0
LINE
  5
23CF
  8
0
 10
119.5450408772361044
 20
3.599360837486139
 30
0.0
 11
119.0740449409361048
 21
4.0703567688861391
 31
0.0
  0
LINE
  5
23D0
  8
0
 10
119.5450408772361044
 20
5.2893608374861394
 30
0.0
 11
119.0740449360590958
 21
4.8183649008090921
 31
0.0
  0
LINE
  5
23D1
  8
0
 10
117.8550408772361067
 20
5.2893608374861394
 30
0.0
 11
118.3260368135234017
 21
4.8183649060264626
 31
0.0
  0
LINE
  5
23D2
  8
0
 10
118.3260368135234017
 20
4.8183649060264626
 30
0.0
 11
118.3303482393746009
 21
4.6900153268391991
 31
0.0
  0
LINE
  5
23D3
  8
0
 10
116.325457873885199
 20
4.807430237325387
 30
0.0
 11
116.3254576773563969
 21
4.0815472855132651
 31
0.0
  0
ARC
  5
23D4
  8
0
 10
118.4136036768718014
 20
4.0753709644989602
 30
0.0
 40
0.1242063646862997
 50
54.2027363610606869
 51
88.2803325244816932
  0
ARC
  5
23D5
  8
0
 10
118.6997326979515037
 20
4.4721369308709544
 30
0.0
 40
0.3649695226747065
 50
234.2025853907065027
 51
309.8515380006141982
  0
ARC
  5
23D6
  8
0
 10
118.7217403867386025
 20
4.4443607984060041
 30
0.0
 40
0.3283004904977446
 50
314.6476177471492974
 51
45.3521763165446004
  0
ARC
  5
23D7
  8
0
 10
118.6997307194434939
 20
4.4167971819125942
 30
0.0
 40
0.3647996018199305
 50
50.1279111234267276
 51
125.8162721334874021
  0
ARC
  5
23D8
  8
0
 10
118.4145408774287063
 20
4.8121452210316811
 30
0.0
 40
0.1226769041031551
 50
271.423174916973494
 51
305.7727659294906744
  0
ARC
  5
23D9
  8
0
 10
118.9315799624413046
 20
4.6758987661940816
 30
0.0
 40
0.0209709429907487
 50
5.5495918155780517
 51
84.4862990089477961
  0
ARC
  5
23DA
  8
0
 10
118.9315722958504011
 20
4.2128265473797528
 30
0.0
 40
0.0209781780695106
 50
275.5614427760826857
 51
354.4398535258163747
  0
LINE
  5
23DB
  8
0
 10
118.9335949298361044
 20
4.6967726818861371
 30
0.0
 11
118.9253576822681993
 21
4.6893608430720164
 31
0.0
  0
LINE
  5
23DC
  8
0
 10
118.9450417641102007
 20
4.6696758020184168
 30
0.0
 11
118.9524526118360939
 21
4.6779268088861361
 31
0.0
  0
LINE
  5
23DD
  8
0
 10
118.9253558435360958
 20
4.1993607245147064
 30
0.0
 11
118.9336053569360985
 21
4.1919471168861371
 31
0.0
  0
LINE
  5
23DE
  8
0
 10
118.945040000562102
 20
4.2190458701712581
 30
0.0
 11
118.9524517723361043
 21
4.2107939586861391
 31
0.0
  0
LINE
  5
23DF
  8
0
 10
117.8016516936361029
 20
3.5332214362861381
 30
0.0
 11
117.788623554226703
 21
3.5191639869861371
 31
0.0
  0
LINE
  5
23E0
  8
0
 10
117.7889014703556967
 20
3.5459693650298858
 30
0.0
 11
117.7748440267361048
 21
3.5329435144823629
 31
0.0
  0
LINE
  5
23E1
  8
0
 10
125.4955526882361028
 20
5.4193608374861402
 30
0.0
 11
123.7155526882361016
 21
5.4193608374861402
 31
0.0
  0
ARC
  5
23E2
  8
0
 10
123.7155526882361016
 20
5.3593608374861388
 30
0.0
 40
0.0600000000000005
 50
89.9999999999992042
 51
180.0
  0
LINE
  5
23E3
  8
0
 10
123.6555526882360994
 20
5.3593608374861388
 30
0.0
 11
123.6555526882360994
 21
3.5293608374861392
 31
0.0
  0
ARC
  5
23E4
  8
0
 10
123.7155526882361016
 20
3.5293608374861392
 30
0.0
 40
0.0600000000000005
 50
180.0
 51
270.0
  0
LINE
  5
23E5
  8
0
 10
123.7155526882361016
 20
3.4693608374861391
 30
0.0
 11
124.1849234890425038
 21
3.4693608374861391
 31
0.0
  0
LINE
  5
23E6
  8
0
 10
125.0262194501172957
 20
3.46936083748614
 30
0.0
 11
125.4955526882361028
 21
3.4693608374861391
 31
0.0
  0
ARC
  5
23E7
  8
0
 10
125.4955526882361028
 20
3.5293608374861369
 30
0.0
 40
0.0599999999999987
 50
270.0
 51
0.0000000000017302
  0
LINE
  5
23E8
  8
0
 10
125.555552688236105
 20
3.5293608374861392
 30
0.0
 11
125.555552688236105
 21
5.3593608374861388
 31
0.0
  0
ARC
  5
23E9
  8
0
 10
125.4955526882361028
 20
5.359360837486137
 30
0.0
 40
0.0600000000000023
 50
0.0000000000017302
 51
89.9999999999454445
  0
LINE
  5
23EA
  8
0
 10
124.3592121801360975
 20
5.000403389186137
 30
0.0
 11
124.8518931968361017
 21
5.000403389186137
 31
0.0
  0
ARC
  5
23EB
  8
0
 10
124.3589728801639041
 20
4.9966499183624089
 30
0.0
 40
0.0037610912530943
 50
86.3520928897968219
 51
183.6541260518372951
  0
LINE
  5
23EC
  8
0
 10
124.355219435336096
 20
4.9964102115861371
 30
0.0
 11
124.355219435336096
 21
4.5043114632861387
 31
0.0
  0
ARC
  5
23ED
  8
0
 10
124.3589724355502
 20
4.5040721500017682
 30
0.0
 40
0.0037610549976829
 50
176.3518468358016094
 51
273.6547308561056866
  0
LINE
  5
23EE
  8
0
 10
124.3592121796361027
 20
4.5003187438861376
 30
0.0
 11
124.8518931963361069
 21
4.5003182856861388
 31
0.0
  0
ARC
  5
23EF
  8
0
 10
124.8521324960248933
 20
4.50407175667819
 30
0.0
 40
0.0037610915251789
 50
266.3520681775005983
 51
3.654123217716196
  0
LINE
  5
23F0
  8
0
 10
124.8558863745360981
 20
4.5043104952861386
 30
0.0
 11
124.8558859411360942
 21
4.9964102115861371
 31
0.0
  0
ARC
  5
23F1
  8
0
 10
124.8521331877493026
 20
4.9966501790959379
 30
0.0
 40
0.0037604178475043
 50
356.3412379049374863
 51
93.6591194105161833
  0
LINE
  5
23F2
  8
0
 10
124.2844131922503976
 20
5.12390756705621
 30
0.0
 11
124.9266925702360993
 21
5.1239075403861403
 31
0.0
  0
ARC
  5
23F3
  8
0
 10
124.9266925677452065
 20
5.0639196183518393
 30
0.0
 40
0.059987922034301
 50
359.9873906910777919
 51
89.999997620844141
  0
LINE
  5
23F4
  8
0
 10
124.9866804883263001
 20
5.06390641657255
 30
0.0
 11
124.9857274714361068
 21
0.5803399625861392
 31
0.0
  0
LINE
  5
23F5
  8
0
 10
124.9857274714361068
 20
0.5803399625861392
 30
0.0
 11
124.996645492443605
 21
-0.5153304130154535
 31
0.0
  0
ARC
  5
23F6
  8
0
 10
123.5773954690876053
 20
2.0637007650756032
 30
0.0
 40
2.45874566292827
 50
36.4428022019699895
 51
45.5322544777645604
  0
ARC
  5
23F7
  8
0
 10
125.0170026166056942
 20
3.4619327701199998
 30
0.0
 40
0.4549767896459457
 50
51.5750680343586865
 51
67.4778437612442445
  0
ARC
  5
23F8
  8
0
 10
125.1642182839594
 20
3.816954463339211
 30
0.0
 40
0.0706424880664055
 50
67.477843761244273
 51
123.1492711376239981
  0
ARC
  5
23F9
  8
0
 10
125.1943802876309064
 20
3.7707729012219029
 30
0.0
 40
0.1258011967630104
 50
123.1492711376238987
 51
155.1694738575361896
  0
ARC
  5
23FA
  8
0
 10
126.4444903692065054
 20
3.4344379143421149
 30
0.0
 40
1.4187008178053711
 50
164.0791189339192897
 51
178.5894571895844933
  0
LINE
  5
23FB
  8
0
 10
125.0262194501360966
 20
3.46936083748614
 30
0.0
 11
125.0116132716360937
 21
2.4292371459861388
 31
0.0
  0
ARC
  5
23FC
  8
0
 10
245.8403443411665137
 20
1.885342747461082
 30
0.0
 40
120.8299551973335042
 50
179.7420924412101044
 51
180.6262906037094922
  0
ARC
  5
23FD
  8
0
 10
113.6679752636572971
 20
0.1125800397709078
 30
0.0
 40
11.3586299535456394
 50
0.7944929416369283
 51
2.2806890705356988
  0
ARC
  5
23FE
  8
0
 10
125.2617698213394988
 20
0.273355902203793
 30
0.0
 40
0.2362793226705222
 50
180.7944929416368041
 51
204.694655296544795
  0
ARC
  5
23FF
  8
0
 10
124.978412528356003
 20
0.1430581318283028
 30
0.0
 40
0.0756002445533949
 50
13.4257937844334894
 51
24.694655296545541
  0
ARC
  5
2400
  8
0
 10
123.8021589218456029
 20
-0.077372750659281
 30
0.0
 40
1.2722444863500999
 50
339.8649379721596802
 51
10.7811730486286308
  0
ARC
  5
2401
  8
0
 10
124.9402643675465043
 20
-0.4916447128181325
 30
0.0
 40
0.0611542610004
 50
281.4807662778458166
 51
337.2203172363549015
  0
ARC
  5
2402
  8
0
 10
124.5976907232851971
 20
1.2775844429865211
 30
0.0
 40
1.8632418424931809
 50
259.5128084261011736
 51
280.975642469771401
  0
LINE
  5
2403
  8
0
 10
124.2935151589361027
 20
5.097287044586138
 30
0.0
 11
124.9175878246361009
 21
5.0973097664861369
 31
0.0
  0
ARC
  5
2404
  8
0
 10
124.9175932313000033
 20
5.0624064462026013
 30
0.0
 40
0.0349033207022962
 50
0.3706668793365064
 51
90.0088753453560173
  0
LINE
  5
2405
  8
0
 10
124.9524958216077977
 20
5.062632246686138
 30
0.0
 11
124.9524958216077977
 21
4.4380965492629993
 31
0.0
  0
ARC
  5
2406
  8
0
 10
124.9174461271615968
 20
4.4384632218074263
 30
0.0
 40
0.0350516123709405
 50
270.2366371712257092
 51
359.400621180605583
  0
LINE
  5
2407
  8
0
 10
124.9175908933360972
 20
4.4034119083861389
 30
0.0
 11
124.293522436660794
 21
4.4034119083861389
 31
0.0
  0
ARC
  5
2408
  8
0
 10
124.2951110805873043
 20
4.4426349870699173
 30
0.0
 40
0.0392552377519045
 50
186.8354113400334882
 51
267.6806290919491857
  0
LINE
  5
2409
  8
0
 10
124.2561348635874054
 20
4.4379629212168767
 30
0.0
 11
124.2561348635874054
 21
5.0626349708861378
 31
0.0
  0
ARC
  5
240A
  8
0
 10
124.2954002238634956
 20
5.0577658707127053
 30
0.0
 40
0.039566104864074
 50
92.7308012026636845
 51
172.9311239318230093
  0
LINE
  5
240B
  8
0
 10
124.3563107704499942
 20
4.9993067926568058
 30
0.0
 11
124.2669908765360987
 21
5.0849152705361389
 31
0.0
  0
LINE
  5
240C
  8
0
 10
124.8547946065223044
 20
4.9993067926568058
 30
0.0
 11
124.9441145004361005
 21
5.0849152705361389
 31
0.0
  0
LINE
  5
240D
  8
0
 10
124.3563107704499942
 20
4.5014139142154681
 30
0.0
 11
124.2669908765360987
 21
4.415805436336135
 31
0.0
  0
LINE
  5
240E
  8
0
 10
124.8547946065223044
 20
4.5014139142154681
 30
0.0
 11
124.9441145004361005
 21
4.415805436336135
 31
0.0
  0
LINE
  5
240F
  8
0
 10
124.224423320176399
 20
5.0638970023303411
 30
0.0
 11
124.2254870854655024
 21
0.5803305732521605
 31
0.0
  0
LINE
  5
2410
  8
0
 10
124.2254870854655024
 20
0.5803305732521605
 30
0.0
 11
124.214596137544703
 21
-0.5153391690401073
 31
0.0
  0
ARC
  5
2411
  8
0
 10
125.6337824469472935
 20
2.0637261624426531
 30
0.0
 40
2.45874566292827
 50
134.4691607830382907
 51
143.5598270517457991
  0
ARC
  5
2412
  8
0
 10
124.1941407621944933
 20
3.461922607380802
 30
0.0
 40
0.4549767896459457
 50
112.523571499558102
 51
128.426347226444193
  0
ARC
  5
2413
  8
0
 10
124.0469163255088034
 20
3.8169406641232828
 30
0.0
 40
0.0706424880664055
 50
56.8521441231784195
 51
112.523571499558102
  0
ARC
  5
2414
  8
0
 10
124.0167554625754036
 20
3.7707583569895942
 30
0.0
 40
0.1258011967630104
 50
24.8319414032665904
 51
56.8521441231792082
  0
ARC
  5
2415
  8
0
 10
122.7666536891784972
 20
3.4343924912923121
 30
0.0
 40
1.4187008178053711
 50
1.411958071218304
 51
15.9222963268832203
  0
LINE
  5
2416
  8
0
 10
124.1849237451864951
 20
3.4693504470800329
 30
0.0
 11
124.1995556157365002
 21
2.4292271166839838
 31
0.0
  0
ARC
  5
2417
  8
0
 10
3.370838017781451
 20
1.8823481325775111
 30
0.0
 40
120.8299551973335042
 50
359.3751246570931812
 51
0.2593228195926555
  0
ARC
  5
2418
  8
0
 10
135.5432508439110961
 20
0.112850209933038
 30
0.0
 40
11.3586299535456394
 50
177.720726190267186
 51
179.2069223191658125
  0
ARC
  5
2419
  8
0
 10
123.9494523184474986
 20
0.273339694452206
 30
0.0
 40
0.2362793226705222
 50
335.3067599642578784
 51
359.2069223191659262
  0
ARC
  5
241A
  8
0
 10
124.2328128298246952
 20
0.143048923313847
 30
0.0
 40
0.0756002445533949
 50
155.3067599642573953
 51
166.5756214763692071
  0
ARC
  5
241B
  8
0
 10
124.2834901262444021
 20
-0.4823203026548253
 30
0.0
 40
0.0763978220653103
 50
205.6015763692743974
 51
250.9476408141194099
  0
ARC
  5
241C
  8
0
 10
124.2844459909858017
 20
5.063884903988833
 30
0.0
 40
0.0600226720286335
 50
90.0313086561695144
 51
179.988451298672004
  0
ARC
  5
241D
  8
0
 10
124.5500658932351001
 20
6.3680723364238796
 30
0.0
 40
1.344208208976702
 50
228.2952180309578125
 51
255.9802674045866979
  0
ARC
  5
241E
  8
0
 10
124.648075692413002
 20
6.5444867135523639
 30
0.0
 40
1.4663887202673269
 50
230.1375355396957048
 51
255.6408631822199027
  0
ARC
  5
241F
  8
0
 10
124.6610394832371043
 20
6.3680723364238796
 30
0.0
 40
1.344208208976702
 50
284.0196637857254132
 51
311.7047819690395727
  0
ARC
  5
2420
  8
0
 10
124.5630296840593019
 20
6.5444867135523639
 30
0.0
 40
1.4663887202673269
 50
284.3591326579160068
 51
309.8624644603042952
  0
LINE
  5
2423
  8
0
 10
129.5996551299608086
 20
5.3695576877861386
 30
0.0
 11
131.4224897756608073
 21
5.3695576877861386
 31
0.0
  0
ARC
  5
2424
  8
0
 10
129.5996564510975873
 20
5.3557766969092926
 30
0.0
 40
0.013780990940176
 50
90.0054927517934829
 51
179.993915871681196
  0
LINE
  5
2425
  8
0
 10
129.5858754602350871
 20
5.3557781602861381
 30
0.0
 11
129.5858754604350906
 21
3.5329411442861369
 31
0.0
  0
ARC
  5
2426
  8
0
 10
129.599652860515107
 20
3.5329413868812969
 30
0.0
 40
0.0137774000820586
 50
180.0010088753112996
 51
270.0094374616313075
  0
LINE
  5
2427
  8
0
 10
129.5996551298563872
 20
3.5191639869861371
 30
0.0
 11
131.4224897757702024
 21
3.5191639869861371
 31
0.0
  0
ARC
  5
2428
  8
0
 10
131.4224897756608073
 20
3.5329435145861399
 30
0.0
 40
0.0137795276000024
 50
270.0000000000122213
 51
359.9999995684933083
  0
LINE
  5
2429
  8
0
 10
131.4362693032607865
 20
3.5329435144823629
 30
0.0
 11
131.436268958953292
 21
4.1944030589254266
 31
0.0
  0
LINE
  5
242A
  8
0
 10
131.4362693031607989
 20
4.6933852660586624
 30
0.0
 11
131.4362693031607989
 21
5.3557781602861381
 31
0.0
  0
ARC
  5
242B
  8
0
 10
131.4224897755607913
 20
5.3557781602861381
 30
0.0
 40
0.0137795276000006
 50
0.0
 51
89.9999991496265466
  0
LINE
  5
242C
  8
0
 10
131.4094616363607884
 20
5.3555002373861402
 30
0.0
 11
129.6126832691608115
 21
5.3555002373861402
 31
0.0
  0
ARC
  5
242D
  8
0
 10
129.6151500631735871
 20
5.3402832269540212
 30
0.0
 40
0.0154156569497605
 50
99.2079840021508659
 51
170.7920155484937936
  0
LINE
  5
242E
  8
0
 10
129.5999330527608038
 20
5.3427500210861387
 30
0.0
 11
129.5999330386688939
 21
3.5459693990861161
 31
0.0
  0
ARC
  5
242F
  8
0
 10
129.6151546245731936
 20
3.548443427890303
 30
0.0
 40
0.0154213324964337
 50
189.2317972309301126
 51
260.7775752567205245
  0
LINE
  5
2430
  8
0
 10
129.612683085760807
 20
3.5332214374861399
 30
0.0
 11
131.4094616363607884
 21
3.5332214362861381
 31
0.0
  0
ARC
  5
2431
  8
0
 10
131.4069941507270016
 20
3.5484395895368008
 30
0.0
 40
0.0154168957223445
 50
279.2098416080613106
 51
350.7798464863216168
  0
LINE
  5
2432
  8
0
 10
131.4222118596412088
 20
3.5459693650298858
 30
0.0
 11
131.4222118538608015
 21
4.1946627186861392
 31
0.0
  0
ARC
  5
2433
  8
0
 10
131.4069906380624957
 20
5.3402790213552453
 30
0.0
 40
0.0154204815115977
 50
9.2209089087154723
 51
80.7790964837470966
  0
LINE
  5
2434
  8
0
 10
131.4222118538608015
 20
5.3427500210861387
 30
0.0
 11
131.4222118538608015
 21
4.693237761562
 31
0.0
  0
LINE
  5
2435
  8
0
 10
131.4224897757653139
 20
5.3695576878861386
 30
0.0
 11
131.4094616363607884
 21
5.3555002373861402
 31
0.0
  0
LINE
  5
2436
  8
0
 10
131.4222118538608015
 20
5.3427500210861387
 30
0.0
 11
131.4362693032607865
 21
5.3557781602861381
 31
0.0
  0
LINE
  5
2437
  8
0
 10
129.5996527524607131
 20
5.369557687370472
 30
0.0
 11
129.6126832691608115
 21
5.3555002373861402
 31
0.0
  0
LINE
  5
2438
  8
0
 10
129.5999330527608038
 20
5.3427500210861316
 30
0.0
 11
129.5858754602350871
 21
5.3557781602861381
 31
0.0
  0
LINE
  5
2439
  8
0
 10
129.5996551299608086
 20
3.5191639869861371
 30
0.0
 11
129.612683085760807
 21
3.5332214374861399
 31
0.0
  0
LINE
  5
243A
  8
0
 10
129.5999330386688939
 20
3.5459714572919458
 30
0.0
 11
129.5858754604350906
 21
3.5329411442861369
 31
0.0
  0
LINE
  5
243B
  8
0
 10
132.9988508817608022
 20
4.701140076986138
 30
0.0
 11
132.9988508817608022
 21
4.1875815958861384
 31
0.0
  0
ARC
  5
243C
  8
0
 10
132.9795841321856074
 20
4.187406913944093
 30
0.0
 40
0.0192675414356833
 50
314.1482817083963255
 51
0.5194578240733169
  0
LINE
  5
243D
  8
0
 10
132.9930043157607997
 20
4.1735816896861389
 30
0.0
 11
132.906207300871813
 21
4.0877855541804626
 31
0.0
  0
ARC
  5
243E
  8
0
 10
132.8896011408575077
 20
4.1045854282984191
 30
0.0
 40
0.0236220304122788
 50
269.9999832717903132
 51
314.6677583418680229
  0
ARC
  5
243F
  8
0
 10
131.3447693137152896
 20
-6.344246750830453
 30
0.0
 40
10.5390470156341092
 50
81.5711151667339607
 51
89.5025537551613439
  0
ARC
  5
2440
  8
0
 10
131.8858427561488043
 20
28.9134465866051791
 30
0.0
 40
24.7231314667549888
 50
268.8959199235621895
 51
268.9580567085732241
  0
ARC
  5
2441
  8
0
 10
130.9055656473258011
 20
-21.9513323126418314
 30
0.0
 40
26.1510926126289291
 50
88.8959199235621753
 51
90.3166916797949568
  0
LINE
  5
2442
  8
0
 10
130.7610211215607876
 20
4.1993608275861396
 30
0.0
 11
130.2857647463993942
 21
4.1993608318860751
 31
0.0
  0
ARC
  5
2443
  8
0
 10
130.2857570461808905
 20
4.2190444413076369
 30
0.0
 40
0.0196837167978554
 50
179.9958408129789973
 51
270.0012815762119089
  0
LINE
  5
2444
  8
0
 10
130.2660733294347892
 20
4.2190458701712581
 30
0.0
 11
130.2660715658867048
 21
4.6696758020184168
 31
0.0
  0
ARC
  5
2445
  8
0
 10
130.2857550241421905
 20
4.6696773848210809
 30
0.0
 40
0.0196834583190711
 50
89.9928325366873025
 51
180.0046073160050923
  0
LINE
  5
2446
  8
0
 10
130.2857574864607955
 20
4.6893608429861402
 30
0.0
 11
130.7610211195874967
 21
4.6893164495848882
 31
0.0
  0
LINE
  5
2447
  8
0
 10
130.7610211195874967
 20
4.6893164495848882
 30
0.0
 11
131.3560724527607988
 21
4.692789424786139
 31
0.0
  0
ARC
  5
2448
  8
0
 10
131.3159563673150103
 20
15.4895047922303899
 30
0.0
 40
10.7967898944972696
 50
270.2128862094838269
 51
278.360774767742214
  0
ARC
  5
2449
  8
0
 10
132.8893585471280119
 20
4.7833802831960703
 30
0.0
 40
0.0243328570488349
 50
46.1773696136933509
 51
98.239261991933958
  0
ARC
  5
244A
  8
0
 10
130.041468170896195
 20
1.8159747057445721
 30
0.0
 40
4.1372363881475236
 50
44.4871470626732304
 51
46.1773696136933509
  0
ARC
  5
244B
  8
0
 10
132.9791658428603967
 20
4.701140077086257
 30
0.0
 40
0.0196850389004473
 50
359.9999997085910195
 51
45.3322588818671122
  0
LINE
  5
244C
  8
0
 10
131.3560724527607988
 20
5.2893608374861394
 30
0.0
 11
129.6660724527608011
 21
5.2893608374861394
 31
0.0
  0
LINE
  5
244D
  8
0
 10
129.6660724527608011
 20
5.2893608374861394
 30
0.0
 11
129.6660724527608011
 21
3.5993608374861412
 31
0.0
  0
LINE
  5
244E
  8
0
 10
129.6660724527608011
 20
3.5993608374861412
 30
0.0
 11
131.3560724527607988
 21
3.599360837486139
 31
0.0
  0
LINE
  5
244F
  8
0
 10
131.3560724527607988
 20
3.599360837486139
 30
0.0
 11
131.3560724527607988
 21
4.195879555022981
 31
0.0
  0
LINE
  5
2450
  8
0
 10
131.3560724527607988
 20
4.6927894247861408
 30
0.0
 11
131.3560724527607988
 21
5.2893608374861412
 31
0.0
  0
ARC
  5
2451
  8
0
 10
131.7309609266521875
 20
-22.0340288511729305
 30
0.0
 40
26.865713663702941
 50
91.8042929566701105
 51
92.4144354887049246
  0
ARC
  5
2452
  8
0
 10
129.2910942129439889
 20
-22.0364661035028107
 30
0.0
 40
26.8681525339026592
 50
87.5855922101242612
 51
88.195679357445357
  0
ARC
  5
2453
  8
0
 10
156.9865265721313961
 20
5.6641411816681186
 30
0.0
 40
26.8627761453395486
 50
181.8042595816062033
 51
182.4144688354402035
  0
ARC
  5
2454
  8
0
 10
130.5110706277885129
 20
4.4443657207961902
 30
0.0
 40
0.3739981774343532
 50
40.9544563245530426
 51
319.1055814472612724
  0
LINE
  5
2455
  8
0
 10
130.1370683890608007
 20
4.0703567688861391
 30
0.0
 11
130.1475980434260009
 21
4.3562566164822298
 31
0.0
  0
LINE
  5
2456
  8
0
 10
130.1370683892425006
 20
4.0703567738204161
 30
0.0
 11
130.4229660594587017
 21
4.0808869547085527
 31
0.0
  0
LINE
  5
2457
  8
0
 10
130.8850765164779943
 20
4.0703567691598801
 30
0.0
 11
130.5986486668608109
 21
4.0809059607861391
 31
0.0
  0
LINE
  5
2458
  8
0
 10
130.8807411911544136
 20
4.1993105616701882
 30
0.0
 11
130.8850765261429956
 21
4.0703567688039159
 31
0.0
  0
LINE
  5
2459
  8
0
 10
130.8850765261429956
 20
4.0703567688039159
 30
0.0
 11
131.3560724527607988
 21
3.599360837486139
 31
0.0
  0
LINE
  5
245A
  8
0
 10
129.6660724527608011
 20
3.599360837486139
 30
0.0
 11
130.1370683890608007
 21
4.0703567688861391
 31
0.0
  0
LINE
  5
245B
  8
0
 10
129.6660724527608011
 20
5.2893608374861394
 30
0.0
 11
130.1370683939379091
 21
4.8183649008090921
 31
0.0
  0
LINE
  5
245C
  8
0
 10
131.3560724527607988
 20
5.2893608374861394
 30
0.0
 11
130.8850765164735037
 21
4.8183649060264626
 31
0.0
  0
LINE
  5
245D
  8
0
 10
130.8850765164735037
 20
4.8183649060264626
 30
0.0
 11
130.8807650906223046
 21
4.6900153268391991
 31
0.0
  0
LINE
  5
245E
  8
0
 10
132.8856554561116923
 20
4.807430237325387
 30
0.0
 11
132.8856556526405086
 21
4.0815472855132651
 31
0.0
  0
ARC
  5
245F
  8
0
 10
130.797509653125104
 20
4.0753709644989602
 30
0.0
 40
0.1242063646862997
 50
91.7196674755183068
 51
125.7972636389392989
  0
ARC
  5
2460
  8
0
 10
130.5113806320455012
 20
4.4721369308709544
 30
0.0
 40
0.3649695226747065
 50
230.1484619993858018
 51
305.797414609293412
  0
ARC
  5
2461
  8
0
 10
130.4893729432583029
 20
4.4443607984060041
 30
0.0
 40
0.3283004904977446
 50
134.6478236834553002
 51
225.3523822528507026
  0
ARC
  5
2462
  8
0
 10
130.5113826105533974
 20
4.4167971819125942
 30
0.0
 40
0.3647996018199305
 50
54.1837278665125197
 51
129.8720888765732013
  0
ARC
  5
2463
  8
0
 10
130.7965724525681992
 20
4.8121452210316811
 30
0.0
 40
0.1226769041031551
 50
234.2272340705092972
 51
268.5768250830263923
  0
ARC
  5
2464
  8
0
 10
130.2795333675555867
 20
4.6758987661940816
 30
0.0
 40
0.0209709429907487
 50
95.5137009910522181
 51
174.4504081844218888
  0
ARC
  5
2465
  8
0
 10
130.2795410341466038
 20
4.2128265473797528
 30
0.0
 40
0.0209781780695106
 50
185.5601464741835116
 51
264.4385572239173143
  0
LINE
  5
2466
  8
0
 10
130.2775184001608011
 20
4.6967726818861371
 30
0.0
 11
130.2857556477287062
 21
4.6893608430720164
 31
0.0
  0
LINE
  5
2467
  8
0
 10
130.2660715658867048
 20
4.6696758020184168
 30
0.0
 11
130.2586607181607974
 21
4.6779268088861361
 31
0.0
  0
LINE
  5
2468
  8
0
 10
130.2857574864607955
 20
4.1993607245147064
 30
0.0
 11
130.277507973060807
 21
4.1919471168861371
 31
0.0
  0
LINE
  5
2469
  8
0
 10
130.2660733294347892
 20
4.2190458701712581
 30
0.0
 11
130.2586615576607869
 21
4.2107939586861391
 31
0.0
  0
LINE
  5
246A
  8
0
 10
131.4094616363607884
 20
3.5332214362861381
 30
0.0
 11
131.4224897757702024
 21
3.5191639869861371
 31
0.0
  0
LINE
  5
246B
  8
0
 10
131.4222118596412088
 20
3.5459693650298858
 30
0.0
 11
131.4362693032607865
 21
3.5329435144823629
 31
0.0
  0
ARC
  5
246C
  8
0
 10
125.4497628599355039
 20
-0.0651996905126495
 30
0.0
 40
1.31463393468698
 50
180.6907784720316954
 51
200.0235717664589004
  0
ARC
  5
246D
  8
0
 10
125.5681860056162975
 20
-0.1016638109247179
 30
0.0
 40
1.4331098129215629
 50
169.4552412126170111
 51
179.1757909205371107
  0
ENDSEC
  0
EOF
