  0
SECTION
  2
HEADER
  9
$ACADVER
  1
AC1009
  9
$INSBASE
 10
124.6061445854244027
 20
-7.6317035211792108
 30
0.0
  9
$EXTMIN
 10
117.4170094002805058
 20
-7.6317842442836863
 30
-0.0000000349181948
  9
$EXTMAX
 10
131.7955050853495891
 20
-3.4259971482342229
 30
0.0000000814935746
  9
$LIMMIN
 10
0.0
 20
0.0
  9
$LIMMAX
 10
11.6929133858000007
 20
8.2677165353999982
  9
$ORTHOMODE
 70
     0
  9
$REGENMODE
 70
     1
  9
$FILLMODE
 70
     1
  9
$QTEXTMODE
 70
     0
  9
$MIRRTEXT
 70
     0
  9
$DRAGMODE
 70
     2
  9
$LTSCALE
 40
0.6431102362
  9
$OSMODE
 70
  2047
  9
$ATTMODE
 70
     1
  9
$TEXTSIZE
 40
0.2
  9
$TRACEWID
 40
0.05
  9
$TEXTSTYLE
  7
STANDARD
  9
$CLAYER
  8
0
  9
$CELTYPE
  6
BYLAYER
  9
$CECOLOR
 62
   256
  9
$DIMSCALE
 40
1.0
  9
$DIMASZ
 40
0.1875
  9
$DIMEXO
 40
0.0625
  9
$DIMDLI
 40
0.4443307087
  9
$DIMRND
 40
0.0
  9
$DIMDLE
 40
0.0
  9
$DIMEXE
 40
0.125
  9
$DIMTP
 40
0.01
  9
$DIMTM
 40
0.01
  9
$DIMTXT
 40
1.0
  9
$DIMCEN
 40
0.1052362205
  9
$DIMTSZ
 40
0.0
  9
$DIMTOL
 70
     1
  9
$DIMLIM
 70
     0
  9
$DIMTIH
 70
     1
  9
$DIMTOH
 70
     1
  9
$DIMSE1
 70
     0
  9
$DIMSE2
 70
     0
  9
$DIMTAD
 70
     0
  9
$DIMZIN
 70
     0
  9
$DIMBLK
  1

  9
$DIMASO
 70
     1
  9
$DIMSHO
 70
     1
  9
$DIMPOST
  1
\X
  9
$DIMAPOST
  1

  9
$DIMALT
 70
     1
  9
$DIMALTD
 70
     2
  9
$DIMALTF
 40
25.3999999999999986
  9
$DIMLFAC
 40
1.0
  9
$DIMTOFL
 70
     0
  9
$DIMTVP
 40
0.0
  9
$DIMTIX
 70
     0
  9
$DIMSOXD
 70
     0
  9
$DIMSAH
 70
     0
  9
$DIMBLK1
  1

  9
$DIMBLK2
  1

  9
$DIMSTYLE
  2
STANDARD
  9
$DIMCLRD
 70
     0
  9
$DIMCLRE
 70
     0
  9
$DIMCLRT
 70
     0
  9
$DIMTFAC
 40
1.0
  9
$DIMGAP
 40
0.09
  9
$LUNITS
 70
     2
  9
$LUPREC
 70
     4
  9
$SKETCHINC
 40
0.1
  9
$FILLETRAD
 40
0.0
  9
$AUNITS
 70
     0
  9
$AUPREC
 70
     0
  9
$MENU
  1
.
  9
$ELEVATION
 40
0.0
  9
$PELEVATION
 40
0.0
  9
$THICKNESS
 40
0.0
  9
$LIMCHECK
 70
     0
  9
$BLIPMODE
 70
     0
  9
$CHAMFERA
 40
0.0
  9
$CHAMFERB
 40
0.0
  9
$SKPOLY
 70
     0
  9
$TDCREATE
 40
2458172.4620254631154239
  9
$TDUPDATE
 40
2459030.7938194451853633
  9
$TDINDWG
 40
0.0752026968
  9
$TDUSRTIMER
 40
0.0752026968
  9
$USRTIMER
 70
     1
  9
$ANGBASE
 50
0.0
  9
$ANGDIR
 70
     0
  9
$PDMODE
 70
     0
  9
$PDSIZE
 40
0.3125
  9
$PLINEWID
 40
0.0
  9
$COORDS
 70
     1
  9
$SPLFRAME
 70
     0
  9
$SPLINETYPE
 70
     6
  9
$SPLINESEGS
 70
     8
  9
$ATTDIA
 70
     1
  9
$ATTREQ
 70
     1
  9
$HANDLING
 70
     1
  9
$HANDSEED
  5
3487
  9
$SURFTAB1
 70
     6
  9
$SURFTAB2
 70
     6
  9
$SURFTYPE
 70
     6
  9
$SURFU
 70
     6
  9
$SURFV
 70
     6
  9
$UCSNAME
  2

  9
$UCSORG
 10
0.0
 20
0.0
 30
0.0
  9
$UCSXDIR
 10
1.0
 20
0.0
 30
0.0
  9
$UCSYDIR
 10
0.0
 20
1.0
 30
0.0
  9
$PUCSNAME
  2

  9
$PUCSORG
 10
0.0
 20
0.0
 30
0.0
  9
$PUCSXDIR
 10
1.0
 20
0.0
 30
0.0
  9
$PUCSYDIR
 10
0.0
 20
1.0
 30
0.0
  9
$USERI1
 70
     0
  9
$USERI2
 70
     0
  9
$USERI3
 70
     0
  9
$USERI4
 70
     0
  9
$USERI5
 70
     0
  9
$USERR1
 40
0.0
  9
$USERR2
 40
0.0
  9
$USERR3
 40
0.0
  9
$USERR4
 40
0.0
  9
$USERR5
 40
0.0
  9
$WORLDVIEW
 70
     1
  9
$SHADEDGE
 70
     3
  9
$SHADEDIF
 70
    70
  9
$TILEMODE
 70
     1
  9
$MAXACTVP
 70
    64
  9
$PLIMCHECK
 70
     0
  9
$PEXTMIN
 10
1.0000000000000000E+20
 20
1.0000000000000000E+20
 30
1.0000000000000000E+20
  9
$PEXTMAX
 10
-1.0000000000000000E+20
 20
-1.0000000000000000E+20
 30
-1.0000000000000000E+20
  9
$PLIMMIN
 10
0.0
 20
0.0
  9
$PLIMMAX
 10
12.0
 20
9.0
  9
$UNITMODE
 70
     0
  9
$VISRETAIN
 70
     1
  9
$PLINEGEN
 70
     0
  9
$PSLTSCALE
 70
     1
  0
ENDSEC
  0
SECTION
  2
TABLES
  0
TABLE
  2
VPORT
 70
     1
  0
VPORT
  2
*ACTIVE
 70
     0
 10
0.0
 20
0.0
 11
1.0
 21
1.0
 12
-0.0049013572575651
 22
-10.8411648666367793
 13
0.0
 23
0.0
 14
1.0
 24
1.0
 15
0.0
 25
0.0
 16
0.0
 26
0.0
 36
30.6214257250603907
 17
124.6111586000725993
 27
5.3122741703778242
 37
0.0
 40
5.4457492778289378
 41
2.6486111111111108
 42
50.0
 43
0.0
 44
0.0
 50
0.0
 51
0.0
 71
     0
 72
   100
 73
     1
 74
     1
 75
     0
 76
     0
 77
     0
 78
     0
  0
ENDTAB
  0
TABLE
  2
LTYPE
 70
     2
  0
LTYPE
  2
CONTINUOUS
 70
     0
  3
Solid line
 72
    65
 73
     0
 40
0.0
  0
LTYPE
  2
PHANTOM2
 70
     0
  3
___ _ _ ___ _ _ ___ _ _ ___ _ _
 72
    65
 73
     6
 40
1.25
 49
0.625
 49
-0.125
 49
0.125
 49
-0.125
 49
0.125
 49
-0.125
  0
ENDTAB
  0
TABLE
  2
LAYER
 70
     2
  0
LAYER
  2
0
 70
     0
 62
   255
  6
CONTINUOUS
  0
LAYER
  2
DEFPOINTS
 70
     0
 62
     7
  6
CONTINUOUS
  0
ENDTAB
  0
TABLE
  2
STYLE
 70
     1
  0
STYLE
  2
STANDARD
 70
     0
 40
0.0
 41
0.8
 50
0.0
 71
     0
 42
0.2
  3
txt
  4

  0
ENDTAB
  0
TABLE
  2
VIEW
 70
     0
  0
ENDTAB
  0
TABLE
  2
UCS
 70
     0
  0
ENDTAB
  0
TABLE
  2
APPID
 70
     9
  0
APPID
  2
ACAD
 70
     0
  0
APPID
  2
ACAD_MLEADERVER
 70
     0
  0
APPID
  2
ACAD_EXEMPT_FROM_CAD_STANDARDS
 70
     0
  0
APPID
  2
ACAD_DSTYLE_DIMJAG
 70
     0
  0
APPID
  2
ACAD_DSTYLE_DIMTALN
 70
     0
  0
APPID
  2
ACAD_NAV_VCDISPLAY
 70
     0
  0
APPID
  2
ACAECLAYERSTANDARD
 70
     0
  0
APPID
  2
ACCMTRANSPARENCY
 70
     0
  0
APPID
  2
ACDBATTR
 70
     0
  0
ENDTAB
  0
TABLE
  2
DIMSTYLE
 70
     1
  0
DIMSTYLE
  2
STANDARD
 70
     0
  3

  4

  5

  6

  7

 40
1.0
 41
0.1875
 42
0.0625
 43
0.38
 44
0.125
 45
0.0
 46
0.0
 47
0.01
 48
0.01
140
0.15625
141
0.09
142
0.0
143
25.3999999999999986
144
1.0
145
0.0
146
1.0
147
0.09
 71
     1
 72
     0
 73
     1
 74
     1
 75
     0
 76
     0
 77
     0
 78
     4
170
     0
171
     2
172
     0
173
     0
174
     0
175
     0
176
     0
177
     0
178
     0
  0
ENDTAB
  0
ENDSEC
  0
SECTION
  2
BLOCKS
  0
BLOCK
  8
0
  2
$MODEL_SPACE
 70
     0
 10
0.0
 20
0.0
 30
0.0
  3
$MODEL_SPACE
  1

  0
ENDBLK
  5
21
  8
0
  0
BLOCK
 67
     1
  8
0
  2
$PAPER_SPACE
 70
     0
 10
0.0
 20
0.0
 30
0.0
  3
$PAPER_SPACE
  1

  0
ENDBLK
  5
1D
 67
     1
  8
0
  0
BLOCK
  8
0
  2
_FILLED
 70
     0
 10
0.0
 20
0.0
 30
0.0
  3
_FILLED
  1

  0
SOLID
  5
25E6
  8
0
  6
BYBLOCK
 62
     0
 10
0.0
 20
0.0
 30
0.0
 11
-1.0
 21
0.1666666667
 31
0.0
 12
-1.0
 22
-0.1666666667
 32
0.0
 13
-1.0
 23
-0.1666666667
 33
0.0
  0
ENDBLK
  5
25E7
  8
0
  6
BYBLOCK
 62
     0
  0
ENDSEC
  0
SECTION
  2
ENTITIES
  0
ATTDEF
  5
1FF6
  8
DEFPOINTS
 10
124.606433829108795
 20
-7.6280183220914042
 30
0.0
 40
0.001
  1
K-454X-3S
  3

  2
MODELNUMBER
 70
     0
1001
ACDBATTR
1070
     0
1070
     1
  0
ATTDEF
  5
1FF7
  8
DEFPOINTS
 10
124.606433829108795
 20
-7.6296849887580693
 30
0.0
 40
0.001
  1
MEMOIRS
  3

  2
TRADENAME
 70
     0
1001
ACDBATTR
1070
     0
1070
     1
  0
ATTDEF
  5
1FF8
  8
DEFPOINTS
 10
124.606433829108795
 20
-7.6313516554247336
 30
0.0
 40
0.001
  1
BATHROOM SINK FAUCET
  3

  2
PRODUCT
 70
     0
1001
ACDBATTR
1070
     0
1070
     1
  0
LINE
  5
319F
  8
0
 10
125.5561425970433049
 20
-7.6317035211792108
 30
0.0
 11
125.5561425970433049
 21
-7.5717042584179071
 31
0.0
  0
ARC
  5
31A0
  8
0
 10
132.9383790523912126
 20
-4.6873577780165796
 30
0.0
 40
7.9257094131485992
 50
185.6978188333195021
 51
201.3413059272839121
  0
ARC
  5
31A1
  8
0
 10
124.6044315138977936
 20
-6.006297513838188
 30
0.0
 40
1.649797550157206
 50
78.3140309706748639
 51
90.0641225323780361
  0
ARC
  5
31A2
  8
0
 10
124.9264834901060937
 20
-4.4492490122627952
 30
0.0
 40
0.0597920433634891
 50
6.8320130447354268
 51
78.3143740540204618
  0
ARC
  5
31A3
  8
0
 10
131.5505078980627047
 20
-4.2475158079467183
 30
0.0
 40
6.5675412290919901
 50
181.698133414442907
 51
189.295510198593206
  0
ARC
  5
31A4
  8
0
 10
124.6063282872995046
 20
-8.9955238064252292
 30
0.0
 40
3.8638357184275218
 50
84.8521668374321223
 51
90.0026945804748237
  0
ARC
  5
31A5
  8
0
 10
124.9514919497252947
 20
-5.2186269582184952
 30
0.0
 40
0.0713703420559864
 50
50.1364407813051827
 51
88.7779604738640842
  0
ARC
  5
31A6
  8
0
 10
124.7605106607388024
 20
-5.3558052052804879
 30
0.0
 40
0.3144706152879628
 50
337.8763329731777958
 51
358.802214907021721
  0
ARC
  5
31A7
  8
0
 10
124.7755649824077011
 20
-5.3650346720732944
 30
0.0
 40
0.29935936061563
 50
0.5083212046237228
 51
42.2268268389427135
  0
LINE
  5
31A8
  8
0
 10
124.9869323564917067
 20
-4.4757128848640519
 30
0.0
 11
124.9963890466020047
 21
-5.1631474447271977
 31
0.0
  0
ARC
  5
31A9
  8
0
 10
124.7983381527614029
 20
-5.5287123521703423
 30
0.0
 40
0.0588498029992149
 50
2.330176240134231
 51
57.5910964154168497
  0
ARC
  5
31AA
  8
0
 10
124.8011368965709948
 20
-5.5237953401182631
 30
0.0
 40
0.0560592595890768
 50
314.172226393999324
 51
357.4191534739322265
  0
ARC
  5
31AB
  8
0
 10
124.689831295782696
 20
-5.3920828265905874
 30
0.0
 40
0.2284021560583934
 50
280.8231058343852737
 51
311.1741937346056943
  0
ARC
  5
31AC
  8
0
 10
124.6051170569982958
 20
-5.0518614785489797
 30
0.0
 40
0.5788015158150325
 50
270.1015186474724032
 51
282.7360956979038065
  0
ARC
  5
31AD
  8
0
 10
124.6041646288762053
 20
-5.9772125466000423
 30
0.0
 40
0.5552388861339069
 50
89.7958906147995464
 51
102.1139444413503981
  0
ARC
  5
31AE
  8
0
 10
124.4224258252740043
 20
-5.5333875267201558
 30
0.0
 40
0.0674948223671542
 50
126.4726334787279001
 51
175.1892743318431087
  0
ARC
  5
31AF
  8
0
 10
124.4152455934740971
 20
-5.5223718375932487
 30
0.0
 40
0.0603150320554403
 50
185.0939106280642932
 51
225.3742044423759978
  0
ARC
  5
31B0
  8
0
 10
124.5222895194407045
 20
-5.39254705865517
 30
0.0
 40
0.2284021560583933
 50
229.1433207447742006
 51
259.4944086449939959
  0
ARC
  5
31B1
  8
0
 10
124.6051170717509962
 20
-5.0518614777054962
 30
0.0
 40
0.5788015166323764
 50
257.5814187836920723
 51
270.1015171869593132
  0
ARC
  5
31B2
  8
0
 10
124.597654569394706
 20
-6.0260290741947431
 30
0.0
 40
0.6508610221994172
 50
73.0705029445386316
 51
89.2527714360120967
  0
ARC
  5
31B3
  8
0
 10
124.7008902924442992
 20
-5.6748070796861922
 30
0.0
 40
0.284819610136029
 50
57.4509342909038381
 51
72.3639690166575491
  0
ARC
  5
31B4
  8
0
 10
124.7893750801698047
 20
-5.5333665893841131
 30
0.0
 40
0.1179979375692744
 50
29.3190689409739917
 51
56.7187098018199407
  0
ARC
  5
31B5
  8
0
 10
124.844655834283401
 20
-5.4982758844973674
 30
0.0
 40
0.0527333750017948
 50
331.6215444026989871
 51
25.4847807074735506
  0
ARC
  5
31B6
  8
0
 10
124.7769715823064018
 20
-5.4518558069372958
 30
0.0
 40
0.1346265685510488
 50
289.0711320863100013
 51
327.9283629417137718
  0
ARC
  5
31B7
  8
0
 10
124.6146306246917987
 20
-6.026029074194736
 30
0.0
 40
0.6508610221994094
 50
90.7472285639870933
 51
106.9294970554620932
  0
ARC
  5
31B8
  8
0
 10
124.5113949016422055
 20
-5.6748070796861922
 30
0.0
 40
0.284819610136029
 50
107.6360309833423941
 51
122.549065709096098
  0
ARC
  5
31B9
  8
0
 10
124.4229101139167
 20
-5.5333665893841131
 30
0.0
 40
0.1179979375692744
 50
123.2812901981800024
 51
150.680931059025994
  0
ARC
  5
31BA
  8
0
 10
124.3676293598031037
 20
-5.4982758844973674
 30
0.0
 40
0.0527333750017948
 50
154.5152192925264103
 51
208.3784555973008992
  0
ARC
  5
31BB
  8
0
 10
124.4353136117802023
 20
-5.4518558069372958
 30
0.0
 40
0.1346265685510488
 50
212.0716370582860861
 51
250.1891009145749933
  0
LINE
  5
31BC
  8
0
 10
123.6561425970432992
 20
-7.6317035211792108
 30
0.0
 11
123.6560815968999947
 21
-7.5726780390664858
 31
0.0
  0
ARC
  5
31BD
  8
0
 10
116.270892567025399
 20
-4.695899859454328
 30
0.0
 40
7.9257094131485983
 50
338.7174222045455281
 51
354.3609092985099096
  0
ARC
  5
31BE
  8
0
 10
124.6062175989634966
 20
-6.0064892542040527
 30
0.0
 40
1.6499922557667199
 50
90.1261366398835406
 51
101.7443540778087936
  0
ARC
  5
31BF
  8
0
 10
124.2825398593010959
 20
-4.4495790331654952
 30
0.0
 40
0.0597920433634891
 50
101.7443540778087936
 51
173.2267150870939929
  0
ARC
  5
31C0
  8
0
 10
117.6583121546723021
 20
-4.2546355537760228
 30
0.0
 40
6.5675412290919892
 50
350.7632179332363762
 51
358.3605947173865047
  0
ARC
  5
31C1
  8
0
 10
124.6073435174201052
 20
-8.9953582699323906
 30
0.0
 40
3.8636703630650011
 50
90.0177499144804045
 51
95.2066164117114653
  0
ARC
  5
31C2
  8
0
 10
124.2583235095223984
 20
-5.2190002363315573
 30
0.0
 40
0.0713884432401101
 50
91.2832405966153004
 51
129.9147632199083091
  0
ARC
  5
31C3
  8
0
 10
124.4294326055178033
 20
-5.3621355999018077
 30
0.0
 40
0.2936182277949697
 50
137.6261694885938027
 51
202.5415212768776883
  0
LINE
  5
31C4
  8
0
 10
124.2221181501153069
 20
-4.4761048518976736
 30
0.0
 11
124.2133621165173025
 21
-5.1635495107521203
 31
0.0
  0
ARC
  5
31C5
  8
0
 10
124.2293410279019952
 20
-5.3698549382951732
 30
0.0
 40
0.1266725364441495
 50
235.8577968303773105
 51
272.4148797951477832
  0
ARC
  5
31C6
  8
0
 10
124.9799301175391975
 20
-5.3764868126513532
 30
0.0
 40
0.1213441570530334
 50
268.4932859375019802
 51
306.3353645555441744
  0
LINE
  5
31C7
  8
0
 10
124.5218810993433038
 20
-5.6437135688924398
 30
0.0
 11
124.6904040947433003
 21
-5.6437135688924398
 31
0.0
  0
ARC
  5
31C8
  8
0
 10
124.6372796934549001
 20
-5.0283716376409693
 30
0.0
 40
0.617630872246734
 50
274.934289746429215
 51
290.6315999245442185
  0
ARC
  5
31C9
  8
0
 10
124.7612229506493975
 20
-5.3575659443400561
 30
0.0
 40
0.2658769489323078
 50
290.6315999245442185
 51
319.2489264893810059
  0
ARC
  5
31CA
  8
0
 10
124.8984580425447035
 20
-5.4843250023813024
 30
0.0
 40
0.0794308731002851
 50
323.9016907925740725
 51
350.2409000227127081
  0
ARC
  5
31CB
  8
0
 10
124.5628442733880945
 20
-5.091060758154879
 30
0.0
 40
0.5541688468592697
 50
244.3521886500209916
 51
265.7609317339890822
  0
ARC
  5
31CC
  8
0
 10
124.4106719503597986
 20
-5.4079899302870169
 30
0.0
 40
0.2026001963169
 50
224.5100136989987902
 51
244.3521886500209916
  0
ARC
  5
31CD
  8
0
 10
124.3318885990124016
 20
-5.4753314693516266
 30
0.0
 40
0.0994702915936637
 50
192.2371126005965039
 51
228.6647591606738104
  0
ARC
  5
31CE
  8
0
 10
124.9045620680627025
 20
-5.3157198764936266
 30
0.0
 40
0.0778614152176632
 50
34.1744181257352366
 51
60.1261567225013422
  0
ARC
  5
31CF
  8
0
 10
124.9159270583430015
 20
-5.324899914177438
 30
0.0
 40
0.0749308209139809
 50
336.3000479526364757
 51
44.9262933922351522
  0
LINE
  5
31D0
  8
0
 10
124.4457524477433026
 20
-5.2390313606792107
 30
0.0
 11
124.7665327463433016
 21
-5.2390313606792107
 31
0.0
  0
ARC
  5
31D1
  8
0
 10
124.7003731778087001
 20
-5.671025430692235
 30
0.0
 40
0.4370308513538788
 50
55.7807160395260979
 51
81.292848145789435
  0
ARC
  5
31D2
  8
0
 10
124.8735674733324998
 20
-5.4099996428184447
 30
0.0
 40
0.1238447428044726
 50
26.3565077810992712
 51
54.1251315990204489
  0
ARC
  5
31D3
  8
0
 10
124.9213845424055052
 20
-5.384573619822647
 30
0.0
 40
0.0697276179566265
 50
352.8046562312414949
 51
25.0791959915813614
  0
ARC
  5
31D4
  8
0
 10
-34.9557839925749434
 20
15.7153851133999698
 30
0.0
 40
161.3332291313955977
 50
352.4444884488132175
 51
352.4819174145329725
  0
LINE
  5
31D5
  8
0
 10
124.7665327463433016
 20
-5.2390313606792107
 30
0.0
 11
124.7302834461448953
 21
-5.3423834747794494
 31
0.0
  0
LINE
  5
31D6
  8
0
 10
124.5218810993433038
 20
-5.3527186861792106
 30
0.0
 11
124.6904040947433003
 21
-5.3527186861792106
 31
0.0
  0
LINE
  5
31D7
  8
0
 10
124.6904040947433003
 20
-5.3527186861792106
 30
0.0
 11
124.7302834461433036
 21
-5.3423834747792123
 31
0.0
  0
ARC
  5
31D8
  8
0
 10
124.7037627595511964
 20
-5.7331090738514954
 30
0.0
 40
0.391624616933344
 50
52.1258349402558991
 51
86.1169774329825373
  0
ARC
  5
31D9
  8
0
 10
124.8918505116575943
 20
-5.4911375101907982
 30
0.0
 40
0.0851491571941294
 50
355.5196784065445854
 51
52.0691055524190531
  0
ARC
  5
31DA
  8
0
 10
124.5545162543944002
 20
-5.7204799350685622
 30
0.0
 40
0.5519029399057019
 50
94.067510472860107
 51
121.1605492598588967
  0
ARC
  5
31DB
  8
0
 10
124.367847363164401
 20
-5.3805719142658681
 30
0.0
 40
0.1652376550555855
 50
126.7676885166553973
 51
138.914185362918488
  0
ARC
  5
31DC
  8
0
 10
124.2960467544010044
 20
-5.3246905149103787
 30
0.0
 40
0.0745674129258596
 50
135.0176118487580084
 51
202.8359788652431064
  0
ARC
  5
31DD
  8
0
 10
124.5049643255814971
 20
-5.6604299287428113
 30
0.0
 40
0.4255382469804367
 50
97.9984228523632055
 51
124.1821653585235055
  0
ARC
  5
31DE
  8
0
 10
124.3380925426695001
 20
-5.4090177904499503
 30
0.0
 40
0.1238447428044726
 50
125.6647523692032991
 51
153.4333761871247077
  0
ARC
  5
31DF
  8
0
 10
124.2903690376533063
 20
-5.3834165832698231
 30
0.0
 40
0.0697276179566265
 50
154.7106879766425891
 51
186.9852277369822957
  0
ARC
  5
31E0
  8
0
 10
152.5114346019310005
 20
-1.7856984544289689
 30
0.0
 40
28.5191928169825601
 50
187.2643898220802043
 51
187.4761197490163056
  0
LINE
  5
31E1
  8
0
 10
124.4457524477433026
 20
-5.2390313606792107
 30
0.0
 11
124.4820017479416947
 21
-5.3423834747755521
 31
0.0
  0
ARC
  5
31E2
  8
0
 10
124.5296338092129957
 20
-5.7962979951600477
 30
0.0
 40
0.4564068416199744
 50
95.990476864235788
 51
125.0663793381700941
  0
ARC
  5
31E3
  8
0
 10
124.3192415991485973
 20
-5.4898756276104521
 30
0.0
 40
0.0848156781867273
 50
127.6640490279681046
 51
184.4219357140420072
  0
ARC
  5
31E4
  8
0
 10
124.622869128983595
 20
-4.8809405519527802
 30
0.0
 40
0.4824657397834646
 50
253.023835256330301
 51
257.9177008449636901
  0
LINE
  5
31E5
  8
0
 10
124.2661425970432987
 20
-5.3082280141713927
 30
0.0
 11
124.2658644894747937
 21
-5.2505604681456477
 31
0.0
  0
LINE
  5
31E6
  8
0
 10
124.9461425970433055
 20
-5.3096484009792118
 30
0.0
 11
124.9461425970433055
 21
-5.2498908586565296
 31
0.0
  0
LINE
  5
31E7
  8
0
 10
124.8571392940431934
 20
-5.5263196346796617
 30
0.0
 11
124.8571425970433069
 21
-5.4367690897922163
 31
0.0
  0
LINE
  5
31E8
  8
0
 10
124.3551687751893979
 20
-5.5277271150489566
 30
0.0
 11
124.3551687751893979
 21
-5.4367507299301634
 31
0.0
  0
LINE
  5
31E9
  8
0
 10
123.6561465738056
 20
-7.6317035211792099
 30
0.0
 11
125.5561425970433049
 21
-7.6317035211792117
 31
0.0
  0
ARC
  5
31EA
  8
0
 10
124.6101293613665035
 20
-5.9501863550294232
 30
0.0
 40
0.5282242166577649
 50
74.645541507841088
 51
90.4324431390436558
  0
ARC
  5
31EB
  8
0
 10
124.5314858547657053
 20
-5.6837850824280078
 30
0.0
 40
0.2532708766566201
 50
99.968233018658097
 51
126.0874831302019032
  0
ARC
  5
31EC
  8
0
 10
124.6949527363288013
 20
-5.6584871835318893
 30
0.0
 40
0.2245227910832924
 50
53.0622032801812722
 51
75.8084574414646255
  0
ARC
  5
31ED
  8
0
 10
124.6058005977031939
 20
-6.0740404642542298
 30
0.0
 40
0.9085848766974031
 50
89.9784333640716341
 51
95.7121304398880284
  0
ARC
  5
31EE
  8
0
 10
124.7264609833072058
 20
-5.5602244450412774
 30
0.0
 40
0.3799932496239226
 50
55.1970759063004195
 51
78.1536043740706248
  0
ARC
  5
31EF
  8
0
 10
124.4777183369399012
 20
-6.7460903960451191
 30
0.0
 40
1.5916660428614651
 50
78.1536043740706248
 51
81.6960365932670953
  0
ARC
  5
31F0
  8
0
 10
124.6083941663740973
 20
-6.047780205064214
 30
0.0
 40
0.8822631749682974
 50
83.5441202884831142
 51
87.071005461291449
  0
ARC
  5
31F1
  8
0
 10
124.6062134237949977
 20
-6.0861134274438413
 30
0.0
 40
0.9206577782456035
 50
87.0573682379628195
 51
90.004407798479221
  0
ARC
  5
31F2
  8
0
 10
122.0811352662095004
 20
-4.43934671734013
 30
0.0
 40
2.252019696602908
 50
1.525772720498543
 51
15.5184559356793006
  0
ARC
  5
31F3
  8
0
 10
123.9665271486816067
 20
-3.9172108216845212
 30
0.0
 40
0.2956672472741923
 50
15.7768086475436604
 51
66.1355348924983986
  0
LINE
  5
31F4
  8
0
 10
124.0861465738318969
 20
-3.6468216313736241
 30
0.0
 11
124.0861465738056069
 21
-3.625952613454908
 31
0.0
  0
ARC
  5
31F5
  8
0
 10
124.1461465737304053
 20
-3.6259526133792122
 30
0.0
 40
0.0599999999247762
 50
123.656781296008802
 51
180.0000000722847062
  0
ARC
  5
31F6
  8
0
 10
124.6061465738182932
 20
-4.3168216313371968
 30
0.0
 40
0.8899999999579851
 50
56.3432091960862209
 51
123.6567908039136938
  0
ARC
  5
31F7
  8
0
 10
125.0661465739378002
 20
-3.6259526133317541
 30
0.0
 40
0.05999999986776
 50
359.9999999546818117
 51
56.343218703991198
  0
ARC
  5
31F8
  8
0
 10
125.259317805298096
 20
-3.9289730312448108
 30
0.0
 40
0.3119999829341447
 50
115.2666081454973011
 51
123.788109190779295
  0
ARC
  5
31F9
  8
0
 10
125.2593178121953059
 20
-3.9289730457022638
 30
0.0
 40
0.3119999987854036
 50
123.7881087669565972
 51
162.8210482312719023
  0
ARC
  5
31FA
  8
0
 10
127.4057771640901962
 20
-4.4805176695578099
 30
0.0
 40
2.5278688170723922
 50
165.2477566769638031
 51
177.7134785648875095
  0
ARC
  5
31FB
  8
0
 10
124.2663314018602989
 20
-4.0703476370249438
 30
0.0
 40
0.4248072923408819
 50
70.5958982943254085
 51
109.1238792160904012
  0
ARC
  5
31FC
  8
0
 10
124.6061465738056029
 20
-3.1056105984902511
 30
0.0
 40
0.5980279361318824
 50
250.5958982943253943
 51
289.4041017056753731
  0
ARC
  5
31FD
  8
0
 10
124.9453179917921943
 20
-4.0685200161917878
 30
0.0
 40
0.422869608912369
 50
70.5958982888507052
 51
109.4041017056754015
  0
ARC
  5
31FE
  8
0
 10
123.5782613567822068
 20
-4.0171750171491141
 30
0.0
 40
0.8990760648663396
 50
359.3852345658589229
 51
22.7377396006528585
  0
ARC
  5
31FF
  8
0
 10
116.0341308326552934
 20
-4.5734314545784276
 30
0.0
 40
8.460830094183958
 50
1.442440522255855
 51
3.704159354678791
  0
ARC
  5
3200
  8
0
 10
125.2339057170375014
 20
-3.8936651104609732
 30
0.0
 40
0.4840258747804148
 50
152.4336600845915939
 51
173.2556813235277104
  0
ARC
  5
3201
  8
0
 10
129.0426740717153962
 20
-4.344079597055476
 30
0.0
 40
4.3193341530456832
 50
173.2556813235277104
 51
175.7877936147334879
  0
ARC
  5
3202
  8
0
 10
133.1709681213050942
 20
-4.5731154102584179
 30
0.0
 40
8.4536309109224739
 50
176.2948282723203022
 51
178.5591739145789063
  0
LINE
  5
3203
  8
0
 10
124.0861465738056069
 20
-3.6259526133792108
 30
0.0
 11
125.1261465738055989
 21
-3.6259526133792108
 31
0.0
  0
LINE
  5
3205
  8
0
 10
118.3266342232632979
 20
-5.2682443163978583
 30
0.0
 11
119.0746371526333007
 21
-5.2682463039028642
 31
0.0
  0
LINE
  5
3206
  8
0
 10
119.0746371526333007
 20
-5.2682463039028642
 30
0.0
 11
119.074637089926199
 21
-5.2918463039027808
 31
0.0
  0
LINE
  5
3207
  8
0
 10
119.074637089926199
 20
-5.2918463039027808
 30
0.0
 11
118.3266341605561962
 21
-5.2918443163977749
 31
0.0
  0
LINE
  5
3208
  8
0
 10
118.3266341605561962
 20
-5.2918443163977749
 30
0.0
 11
118.3266342232632979
 21
-5.2682443163978583
 31
0.0
  0
ARC
  5
3209
  8
0
 10
118.3670303847436003
 20
-5.3218444237339551
 30
0.0
 40
0.0300000000000003
 50
89.9998477604233216
 51
158.5648877745227878
  0
ARC
  5
320A
  8
0
 10
112.3427159802054973
 20
-5.1027616694362301
 30
0.0
 40
6.0000000012952128
 50
336.7539675254691929
 51
358.0122079990334214
  0
LINE
  5
320B
  8
0
 10
117.8556272365764954
 20
-7.4708430649015174
 30
0.0
 11
117.8556271010652949
 21
-7.5218430649013373
 31
0.0
  0
LINE
  5
320C
  8
0
 10
117.8022379174655043
 20
-7.5218429230419064
 30
0.0
 11
119.5990162846596974
 21
-7.5218430286580471
 31
0.0
  0
LINE
  5
320D
  8
0
 10
123.656461327563207
 20
-7.571703014233929
 30
0.0
 11
125.5561421483478028
 21
-7.571703110020354
 31
0.0
  0
ARC
  5
320E
  8
0
 10
119.5990050900508948
 20
-7.5356363297359019
 30
0.0
 40
0.0137933056206124
 50
22.3031232732103
 51
89.9534988993107305
  0
ARC
  5
320F
  8
0
 10
119.4376266004932035
 20
-7.6017705103929778
 30
0.0
 40
0.188197280632873
 50
0.0004511068530313
 51
22.2855926356883494
  0
LINE
  5
3210
  8
0
 10
119.6258238811202972
 20
-7.601769028659354
 30
0.0
 11
119.625823801617102
 21
-7.6316902880589117
 31
0.0
  0
LINE
  5
3211
  8
0
 10
119.625823801617102
 20
-7.6316902880589117
 30
0.0
 11
117.775429958805006
 21
-7.6316853714113542
 31
0.0
  0
LINE
  5
3212
  8
0
 10
117.775429958805006
 20
-7.6316853714113542
 30
0.0
 11
117.7754300383083006
 21
-7.601764111911459
 31
0.0
  0
ARC
  5
3213
  8
0
 10
117.9636190160200044
 20
-7.6017646119449758
 30
0.0
 40
0.1881889777124357
 50
157.7139535046061951
 51
179.9998477604241032
  0
ARC
  5
3214
  8
0
 10
117.8022386601919038
 20
-7.5356236122691609
 30
0.0
 40
0.0137806892472707
 50
90.003088022992273
 51
157.7139538777634868
  0
ARC
  5
3215
  8
0
 10
117.853150299682099
 20
-4.4509983187375992
 30
0.0
 40
1.189170272938177
 50
293.4630944851617755
 51
313.2704209018252755
  0
ARC
  5
3216
  8
0
 10
119.5480775716226987
 20
-4.451081655494189
 30
0.0
 40
1.189080976804479
 50
226.7283003970985931
 51
246.5369737389198121
  0
ARC
  5
3217
  8
0
 10
119.0335677422190059
 20
-5.3223537173964752
 30
0.0
 40
0.0308078957501595
 50
21.8595612923530709
 51
81.9924639459734266
  0
ARC
  5
3218
  8
0
 10
125.0585510732053933
 20
-5.102795457498452
 30
0.0
 40
5.9999999972308231
 50
181.9874875131521037
 51
203.2457280025417106
  0
LINE
  5
3219
  8
0
 10
119.5456272365704962
 20
-7.470847555369847
 30
0.0
 11
119.5456271010593952
 21
-7.5218475553696642
 31
0.0
  0
LINE
  5
321A
  8
0
 10
117.8556272365764954
 20
-7.4708430649015174
 30
0.0
 11
119.5456272365704962
 21
-7.4708475553698444
 31
0.0
  0
LINE
  5
321B
  8
0
 10
118.326640154625693
 20
-5.2682443163136181
 30
0.0
 11
119.0746371526333007
 21
-5.2682463039028642
 31
0.0
  0
ARC
  5
321C
  8
0
 10
119.0056371455357009
 20
-5.2382461204640931
 30
0.0
 40
0.0300000000000003
 50
269.9998476773890275
 51
359.9998477604241884
  0
LINE
  5
321D
  8
0
 10
119.0356371455356026
 20
-5.2382462001765484
 30
0.0
 11
119.0356373846729952
 21
-5.1482462001768647
 31
0.0
  0
ARC
  5
321E
  8
0
 10
119.0056373846730935
 20
-5.1482461204644103
 30
0.0
 40
0.0299999999999998
 50
359.9998477604249842
 51
89.9998477604241458
  0
ARC
  5
321F
  8
0
 10
118.3956376123745997
 20
-5.1482447273459506
 30
0.0
 40
0.0300002277008646
 50
89.9998477604233216
 51
179.9994128871074963
  0
LINE
  5
3220
  8
0
 10
118.3656373846752956
 20
-5.1482444199320261
 30
0.0
 11
118.3656364624406052
 21
-5.2382444199273008
 31
0.0
  0
ARC
  5
3221
  8
0
 10
118.3956362347580011
 20
-5.2382447273365589
 30
0.0
 40
0.0299997723190101
 50
179.999412887107809
 51
270.0015872338858003
  0
ARC
  5
3222
  8
0
 10
118.4506375440999051
 20
-5.0882446457841937
 30
0.0
 40
0.0300000000000011
 50
269.9998477604265759
 51
359.9998477604224831
  0
LINE
  5
3223
  8
0
 10
118.4806375440998067
 20
-5.0882447254966499
 30
0.0
 11
118.4806377845658005
 21
-4.99774472549697
 31
0.0
  0
ARC
  5
3224
  8
0
 10
118.5106377845656027
 20
-4.9977448052094262
 30
0.0
 40
0.0300000000000011
 50
89.9998477604306544
 51
179.9998477604225116
  0
ARC
  5
3225
  8
0
 10
118.4149731710262046
 20
-4.9222327399868346
 30
0.0
 40
0.0455118110374216
 50
181.5130754069130035
 51
270.00058873731831
  0
LINE
  5
3226
  8
0
 10
118.3694772288133947
 20
-4.9234344829219649
 30
0.0
 11
118.3650560021663978
 21
-4.7560543667882387
 31
0.0
  0
ARC
  5
3227
  8
0
 10
118.3195600587354051
 20
-4.7572561097555486
 30
0.0
 40
0.0455118122561322
 50
1.5130754069130621
 51
89.9997878673620875
  0
ARC
  5
3228
  8
0
 10
117.4520949649913035
 20
-4.6841047312079631
 30
0.0
 40
0.0277701218026183
 50
183.754768865289293
 51
264.392985619802289
  0
LINE
  5
3229
  8
0
 10
117.4243844524181952
 20
-4.6859232904917443
 30
0.0
 11
117.4414762209261056
 21
-4.2564939471570238
 31
0.0
  0
ARC
  5
322A
  8
0
 10
117.4870055588408064
 20
-4.2583073361956831
 30
0.0
 40
0.0455654363609304
 50
90.2433358011898861
 51
177.7191706460234002
  0
ARC
  5
322B
  8
0
 10
118.671125284053204
 20
-4.2577363431818362
 30
0.0
 40
0.0449908617950171
 50
89.9982861001472259
 51
178.2718495221814976
  0
ARC
  5
322C
  8
0
 10
112.1382699713228988
 20
-4.0648651509219711
 30
0.0
 40
6.4907109335674651
 50
354.5259365406125198
 51
358.309190005908988
  0
ARC
  5
322D
  8
0
 10
118.7301549826746054
 20
-4.2577366033699739
 30
0.0
 40
0.0449909642525108
 50
1.72128122902298
 51
90.0066794840977735
  0
ARC
  5
322E
  8
0
 10
124.0475965593353038
 20
-4.1409943701769301
 30
0.0
 40
5.2737334569661742
 50
181.2537483167471066
 51
185.9085418766603937
  0
LINE
  5
322F
  8
0
 10
118.3956376920877034
 20
-5.1182444996451917
 30
0.0
 11
119.0056372362854944
 21
-5.11824612046391
 31
0.0
  0
LINE
  5
3230
  8
0
 10
118.9863020894763963
 20
-4.9677460690883111
 30
0.0
 11
118.4149730500976005
 21
-4.9677445510202896
 31
0.0
  0
ARC
  5
3231
  8
0
 10
118.9863027989859035
 20
-4.9222342580564202
 30
0.0
 40
0.0455118110374216
 50
269.9991067835298963
 51
358.4866201139353166
  0
LINE
  5
3232
  8
0
 10
119.0317987348117015
 20
-4.923436242764418
 30
0.0
 11
119.0362208509441047
 21
-4.7560561501281766
 31
0.0
  0
ARC
  5
3233
  8
0
 10
119.0817167879881993
 20
-4.757258134868362
 30
0.0
 40
0.0455118122561322
 50
89.9999076534861757
 51
178.4866201139352029
  0
LINE
  5
3234
  8
0
 10
117.4493816924953933
 20
-4.7117419853641804
 30
0.0
 11
119.9518953960860017
 21
-4.711748634747857
 31
0.0
  0
ARC
  5
3235
  8
0
 10
119.9499828022389067
 20
-4.6848904744575881
 30
0.0
 40
0.0269261729438396
 50
274.0732084127708958
 51
358.9295592043516763
  0
LINE
  5
3236
  8
0
 10
119.9769042761112985
 20
-4.6853934992444506
 30
0.0
 11
119.9598032869171931
 21
-4.2565006385581627
 31
0.0
  0
ARC
  5
3237
  8
0
 10
119.9142738436467965
 20
-4.2583138285463678
 30
0.0
 40
0.0455655337118689
 50
2.2805739866068628
 51
89.7275110942087224
  0
LINE
  5
3238
  8
0
 10
119.9144905446974008
 20
-4.2127488101319956
 30
0.0
 11
117.486812042516803
 21
-4.2127423107683386
 31
0.0
  0
ARC
  5
3239
  8
0
 10
118.9506375436982069
 20
-5.088245974325118
 30
0.0
 40
0.0300000000000011
 50
179.9998477604258085
 51
269.9998477604216873
  0
LINE
  5
323A
  8
0
 10
118.9206375436983052
 20
-5.0882458946126627
 30
0.0
 11
118.9206377841641995
 21
-4.997745894612982
 31
0.0
  0
ARC
  5
323B
  8
0
 10
118.8906377841642978
 20
-4.9977458149005267
 30
0.0
 40
0.0300000000000011
 50
359.9998477604257801
 51
89.9998477604176088
  0
ARC
  5
323C
  8
0
 10
118.7766575234133057
 20
-4.686415246720224
 30
0.0
 40
0.0253497957006315
 50
272.2490763269624949
 51
5.7467725650524129
  0
ARC
  5
323D
  8
0
 10
118.6247088050467937
 20
-4.6863881604308366
 30
0.0
 40
0.0254368159375538
 50
174.3331690161847973
 51
265.458272285661792
  0
LINE
  5
323E
  8
0
 10
125.1261465738055989
 20
-3.6259526133317541
 30
0.0
 11
125.1261465738055989
 21
-3.6468216313658348
 31
0.0
  0
ARC
  5
323F
  8
0
 10
118.7006347106970026
 20
-5.401712484057664
 30
0.0
 40
0.0908148665515311
 50
69.1136875401370645
 51
110.8860862970472994
  0
LINE
  5
3240
  8
0
 10
130.8856589243478936
 20
-5.2682443163978583
 30
0.0
 11
130.137655994977905
 21
-5.2682463039028642
 31
0.0
  0
LINE
  5
3241
  8
0
 10
130.137655994977905
 20
-5.2682463039028642
 30
0.0
 11
130.137656057685092
 21
-5.2918463039027808
 31
0.0
  0
LINE
  5
3242
  8
0
 10
130.137656057685092
 20
-5.2918463039027808
 30
0.0
 11
130.8856589870549954
 21
-5.2918443163977749
 31
0.0
  0
LINE
  5
3243
  8
0
 10
130.8856589870549954
 20
-5.2918443163977749
 30
0.0
 11
130.8856589243478936
 21
-5.2682443163978583
 31
0.0
  0
ARC
  5
3244
  8
0
 10
130.8452627628676055
 20
-5.3218444237339551
 30
0.0
 40
0.0300000000000003
 50
21.4351122254771802
 51
90.0001522395766642
  0
ARC
  5
3245
  8
0
 10
136.8695771674057085
 20
-5.1027616694362301
 30
0.0
 40
6.0000000012952128
 50
181.9877920009664933
 51
203.2460324745306934
  0
LINE
  5
3246
  8
0
 10
131.3566659110346961
 20
-7.4708430649015174
 30
0.0
 11
131.3566660465459108
 21
-7.5218430649013373
 31
0.0
  0
LINE
  5
3247
  8
0
 10
131.4100552301457014
 20
-7.5218429230419064
 30
0.0
 11
129.6132768629514942
 21
-7.5218430286580471
 31
0.0
  0
ARC
  5
3248
  8
0
 10
129.613288057560311
 20
-7.5356363297359019
 30
0.0
 40
0.0137933056206124
 50
90.0465011006892837
 51
157.6968767267896965
  0
ARC
  5
3249
  8
0
 10
129.7746665471179881
 20
-7.6017705103929778
 30
0.0
 40
0.188197280632873
 50
157.7144073643115973
 51
179.9995488931469083
  0
LINE
  5
324A
  8
0
 10
129.5864692664908944
 20
-7.601769028659354
 30
0.0
 11
129.5864693459942032
 21
-7.6316902880589117
 31
0.0
  0
LINE
  5
324B
  8
0
 10
129.5864693459942032
 20
-7.6316902880589117
 30
0.0
 11
131.4368631888061998
 21
-7.6316853714113542
 31
0.0
  0
LINE
  5
324C
  8
0
 10
131.4368631888061998
 20
-7.6316853714113542
 30
0.0
 11
131.4368631093030046
 21
-7.601764111911459
 31
0.0
  0
ARC
  5
324D
  8
0
 10
131.2486741315912013
 20
-7.6017646119449758
 30
0.0
 40
0.1881889777124357
 50
0.0001522395758571
 51
22.2860464953938013
  0
ARC
  5
324E
  8
0
 10
131.4100544874193872
 20
-7.5356236122691609
 30
0.0
 40
0.0137806892472707
 50
22.2860461222364385
 51
89.9969119770077555
  0
ARC
  5
324F
  8
0
 10
131.3591428479290926
 20
-4.4509983187375992
 30
0.0
 40
1.189170272938177
 50
226.7295790981740993
 51
246.536905514838196
  0
ARC
  5
3250
  8
0
 10
129.6642155759884929
 20
-4.451081655494189
 30
0.0
 40
1.189080976804479
 50
293.4630262610801879
 51
313.2716996029013217
  0
ARC
  5
3251
  8
0
 10
130.1787254053922993
 20
-5.3223537173964752
 30
0.0
 40
0.0308078957501595
 50
98.0075360540273692
 51
158.1404387076468936
  0
ARC
  5
3252
  8
0
 10
124.1537420744057982
 20
-5.102795457498452
 30
0.0
 40
5.9999999972308231
 50
336.7542719974583179
 51
358.0125124868479247
  0
LINE
  5
3253
  8
0
 10
129.6666659110406954
 20
-7.470847555369847
 30
0.0
 11
129.6666660465519101
 21
-7.5218475553696642
 31
0.0
  0
LINE
  5
3254
  8
0
 10
131.3566659110346961
 20
-7.4708430649015174
 30
0.0
 11
129.6666659110406954
 21
-7.4708475553698444
 31
0.0
  0
LINE
  5
3255
  8
0
 10
130.8856529929855981
 20
-5.2682443163136181
 30
0.0
 11
130.137655994977905
 21
-5.2682463039028642
 31
0.0
  0
ARC
  5
3256
  8
0
 10
130.2066560020755048
 20
-5.2382461204640931
 30
0.0
 40
0.0300000000000003
 50
180.0001522395756979
 51
270.0001523226109725
  0
LINE
  5
3257
  8
0
 10
130.176656002075589
 20
-5.2382462001765484
 30
0.0
 11
130.1766557629381964
 21
-5.1482462001768647
 31
0.0
  0
ARC
  5
3258
  8
0
 10
130.2066557629381123
 20
-5.1482461204644103
 30
0.0
 40
0.0299999999999998
 50
90.0001522395758684
 51
180.0001522395749021
  0
ARC
  5
3259
  8
0
 10
130.8166555352366061
 20
-5.1482447273459506
 30
0.0
 40
0.0300002277008646
 50
0.0005871128925066
 51
90.0001522395766642
  0
LINE
  5
325A
  8
0
 10
130.8466557629359102
 20
-5.1482444199320261
 30
0.0
 11
130.8466566851707
 21
-5.2382444199273008
 31
0.0
  0
ARC
  5
325B
  8
0
 10
130.8166569128532046
 20
-5.2382447273365589
 30
0.0
 40
0.0299997723190101
 50
269.9984127661143134
 51
0.0005871128922012
  0
ARC
  5
325C
  8
0
 10
130.7616556035112865
 20
-5.0882446457841937
 30
0.0
 40
0.0300000000000011
 50
180.0001522395774032
 51
270.0001522395734241
  0
LINE
  5
325D
  8
0
 10
130.731655603511399
 20
-5.0882447254966499
 30
0.0
 11
130.7316553630454905
 21
-4.99774472549697
 31
0.0
  0
ARC
  5
325E
  8
0
 10
130.7016553630456031
 20
-4.9977448052094262
 30
0.0
 40
0.0300000000000011
 50
0.0001522395774347
 51
90.0001522395693456
  0
ARC
  5
325F
  8
0
 10
130.7973199765851007
 20
-4.9222327399868346
 30
0.0
 40
0.0455118110374216
 50
269.99941126268169
 51
358.4869245930868829
  0
LINE
  5
3260
  8
0
 10
130.842815918797811
 20
-4.9234344829219649
 30
0.0
 11
130.847237145444808
 21
-4.7560543667882387
 31
0.0
  0
ARC
  5
3261
  8
0
 10
130.8927330888759002
 20
-4.7572561097555486
 30
0.0
 40
0.0455118122561322
 50
90.0002121326378983
 51
178.4869245930869113
  0
ARC
  5
3262
  8
0
 10
131.760198182619888
 20
-4.6841047312079631
 30
0.0
 40
0.0277701218026183
 50
275.6070143801969152
 51
356.2452311347104796
  0
LINE
  5
3263
  8
0
 10
131.7879086951930105
 20
-4.6859232904917443
 30
0.0
 11
131.7708169266850859
 21
-4.2564939471570238
 31
0.0
  0
ARC
  5
3264
  8
0
 10
131.7252875887704135
 20
-4.2583073361956831
 30
0.0
 40
0.0455654363609304
 50
2.2808293539766189
 51
89.7566641988101281
  0
ARC
  5
3265
  8
0
 10
130.5411678635580017
 20
-4.2577363431818362
 30
0.0
 40
0.0449908617950171
 50
1.7281504778184751
 51
90.0017138998527741
  0
ARC
  5
3266
  8
0
 10
137.0740231762883923
 20
-4.0648651509219711
 30
0.0
 40
6.4907109335674651
 50
181.6908099940908983
 51
185.4740634593873949
  0
ARC
  5
3267
  8
0
 10
130.4821381649366003
 20
-4.2577366033699739
 30
0.0
 40
0.0449909642525108
 50
89.9933205159022407
 51
178.278718770977008
  0
ARC
  5
3268
  8
0
 10
125.1646965882759019
 20
-4.1409943701769301
 30
0.0
 40
5.2737334569661742
 50
354.0914581233395211
 51
358.7462516832529218
  0
LINE
  5
3269
  8
0
 10
130.8166554555234882
 20
-5.1182444996451917
 30
0.0
 11
130.2066559113256972
 21
-5.11824612046391
 31
0.0
  0
LINE
  5
326A
  8
0
 10
130.2259910581348095
 20
-4.9677460690883111
 30
0.0
 11
130.7973200975137047
 21
-4.9677445510202896
 31
0.0
  0
ARC
  5
326B
  8
0
 10
130.2259903486252881
 20
-4.9222342580564202
 30
0.0
 40
0.0455118110374216
 50
181.5133798860647119
 51
270.00089321646999
  0
LINE
  5
326C
  8
0
 10
130.1804944127995043
 20
-4.923436242764418
 30
0.0
 11
130.1760722966670869
 21
-4.7560561501281766
 31
0.0
  0
ARC
  5
326D
  8
0
 10
130.1305763596230065
 20
-4.757258134868362
 30
0.0
 40
0.0455118122561322
 50
1.5133798860647381
 51
90.0000923465138243
  0
LINE
  5
326E
  8
0
 10
131.7629114551158125
 20
-4.7117419853641804
 30
0.0
 11
129.2603977515252041
 21
-4.711748634747857
 31
0.0
  0
ARC
  5
326F
  8
0
 10
129.2623103453724127
 20
-4.6848904744575881
 30
0.0
 40
0.0269261729438396
 50
181.07044079564821
 51
265.9267915872291042
  0
LINE
  5
3270
  8
0
 10
129.2353888714999073
 20
-4.6853934992444506
 30
0.0
 11
129.2524898606939985
 21
-4.2565006385581627
 31
0.0
  0
ARC
  5
3271
  8
0
 10
129.298019303964395
 20
-4.2583138285463678
 30
0.0
 40
0.0455655337118689
 50
90.2724889057912776
 51
177.7194260133931039
  0
LINE
  5
3272
  8
0
 10
129.297802602913805
 20
-4.2127488101319956
 30
0.0
 11
131.7254811050943886
 21
-4.2127423107683386
 31
0.0
  0
ARC
  5
3273
  8
0
 10
130.2616556039129989
 20
-5.088245974325118
 30
0.0
 40
0.0300000000000011
 50
270.0001522395783127
 51
0.0001522395741269
  0
LINE
  5
3274
  8
0
 10
130.2916556039128864
 20
-5.0882458946126627
 30
0.0
 11
130.2916553634470063
 21
-4.997745894612982
 31
0.0
  0
ARC
  5
3275
  8
0
 10
130.3216553634468937
 20
-4.9977458149005267
 30
0.0
 40
0.0300000000000011
 50
90.000152239582377
 51
180.0001522395741063
  0
ARC
  5
3276
  8
0
 10
130.4356356241978858
 20
-4.686415246720224
 30
0.0
 40
0.0253497957006315
 50
174.2532274349474903
 51
267.7509236730375051
  0
ARC
  5
3277
  8
0
 10
130.5875843425644121
 20
-4.6863881604308366
 30
0.0
 40
0.0254368159375538
 50
274.5417277143390038
 51
5.6668309838151938
  0
ARC
  5
3278
  8
0
 10
130.511658436914189
 20
-5.401712484057664
 30
0.0
 40
0.0908148665515311
 50
69.1139137029526438
 51
110.8863124598629071
  0
ENDSEC
  0
EOF
