  0
SECTION
  2
HEADER
  9
$ACADVER
  1
AC1009
  9
$INSBASE
 10
3397.1301051187761004
 20
135.4718609910098053
 30
0.0
  9
$EXTMIN
 10
3392.7661916967081197
 20
129.1086259730975883
 30
-0.0000000000112498
  9
$EXTMAX
 10
3407.3233995885570948
 20
135.4862235313198937
 30
0.0000000000002956
  9
$LIMMIN
 10
0.0
 20
0.0
  9
$LIMMAX
 10
11.6929133858000007
 20
8.2677165353999982
  9
$ORTHOMODE
 70
     0
  9
$REGENMODE
 70
     1
  9
$FILLMODE
 70
     1
  9
$QTEXTMODE
 70
     0
  9
$MIRRTEXT
 70
     0
  9
$DRAGMODE
 70
     2
  9
$LTSCALE
 40
0.6431102362
  9
$OSMODE
 70
  3839
  9
$ATTMODE
 70
     1
  9
$TEXTSIZE
 40
0.2
  9
$TRACEWID
 40
0.05
  9
$TEXTSTYLE
  7
STANDARD
  9
$CLAYER
  8
0
  9
$CELTYPE
  6
BYLAYER
  9
$CECOLOR
 62
   256
  9
$DIMSCALE
 40
1.0
  9
$DIMASZ
 40
0.1875
  9
$DIMEXO
 40
0.0625
  9
$DIMDLI
 40
0.4443307087
  9
$DIMRND
 40
0.0
  9
$DIMDLE
 40
0.0
  9
$DIMEXE
 40
0.125
  9
$DIMTP
 40
0.01
  9
$DIMTM
 40
0.01
  9
$DIMTXT
 40
2.0
  9
$DIMCEN
 40
0.1052362205
  9
$DIMTSZ
 40
0.0
  9
$DIMTOL
 70
     1
  9
$DIMLIM
 70
     0
  9
$DIMTIH
 70
     1
  9
$DIMTOH
 70
     1
  9
$DIMSE1
 70
     0
  9
$DIMSE2
 70
     0
  9
$DIMTAD
 70
     0
  9
$DIMZIN
 70
     0
  9
$DIMBLK
  1

  9
$DIMASO
 70
     1
  9
$DIMSHO
 70
     1
  9
$DIMPOST
  1
\X
  9
$DIMAPOST
  1

  9
$DIMALT
 70
     1
  9
$DIMALTD
 70
     2
  9
$DIMALTF
 40
25.3999999999999986
  9
$DIMLFAC
 40
1.0
  9
$DIMTOFL
 70
     0
  9
$DIMTVP
 40
0.0
  9
$DIMTIX
 70
     0
  9
$DIMSOXD
 70
     0
  9
$DIMSAH
 70
     0
  9
$DIMBLK1
  1

  9
$DIMBLK2
  1

  9
$DIMSTYLE
  2
STANDARD
  9
$DIMCLRD
 70
     0
  9
$DIMCLRE
 70
     0
  9
$DIMCLRT
 70
     0
  9
$DIMTFAC
 40
1.0
  9
$DIMGAP
 40
0.09
  9
$LUNITS
 70
     2
  9
$LUPREC
 70
     4
  9
$SKETCHINC
 40
0.1
  9
$FILLETRAD
 40
0.0
  9
$AUNITS
 70
     0
  9
$AUPREC
 70
     0
  9
$MENU
  1
.
  9
$ELEVATION
 40
0.0
  9
$PELEVATION
 40
0.0
  9
$THICKNESS
 40
0.0
  9
$LIMCHECK
 70
     0
  9
$BLIPMODE
 70
     0
  9
$CHAMFERA
 40
0.0
  9
$CHAMFERB
 40
0.0
  9
$SKPOLY
 70
     0
  9
$TDCREATE
 40
2458060.468368056230247
  9
$TDUPDATE
 40
2459222.7235185191966593
  9
$TDINDWG
 40
0.5782362269
  9
$TDUSRTIMER
 40
0.5782362269
  9
$USRTIMER
 70
     1
  9
$ANGBASE
 50
0.0
  9
$ANGDIR
 70
     0
  9
$PDMODE
 70
     0
  9
$PDSIZE
 40
0.3125
  9
$PLINEWID
 40
0.0
  9
$COORDS
 70
     1
  9
$SPLFRAME
 70
     0
  9
$SPLINETYPE
 70
     6
  9
$SPLINESEGS
 70
     8
  9
$ATTDIA
 70
     1
  9
$ATTREQ
 70
     1
  9
$HANDLING
 70
     1
  9
$HANDSEED
  5
1EA10
  9
$SURFTAB1
 70
     6
  9
$SURFTAB2
 70
     6
  9
$SURFTYPE
 70
     6
  9
$SURFU
 70
     6
  9
$SURFV
 70
     6
  9
$UCSNAME
  2

  9
$UCSORG
 10
0.0
 20
0.0
 30
0.0
  9
$UCSXDIR
 10
1.0
 20
0.0
 30
0.0
  9
$UCSYDIR
 10
0.0
 20
1.0
 30
0.0
  9
$PUCSNAME
  2

  9
$PUCSORG
 10
0.0
 20
0.0
 30
0.0
  9
$PUCSXDIR
 10
1.0
 20
0.0
 30
0.0
  9
$PUCSYDIR
 10
0.0
 20
1.0
 30
0.0
  9
$USERI1
 70
     0
  9
$USERI2
 70
     0
  9
$USERI3
 70
     0
  9
$USERI4
 70
     0
  9
$USERI5
 70
     0
  9
$USERR1
 40
0.0
  9
$USERR2
 40
0.0
  9
$USERR3
 40
0.0
  9
$USERR4
 40
0.0
  9
$USERR5
 40
0.0
  9
$WORLDVIEW
 70
     1
  9
$SHADEDGE
 70
     3
  9
$SHADEDIF
 70
    70
  9
$TILEMODE
 70
     1
  9
$MAXACTVP
 70
    64
  9
$PLIMCHECK
 70
     0
  9
$PEXTMIN
 10
1.0000000000000000E+20
 20
1.0000000000000000E+20
 30
1.0000000000000000E+20
  9
$PEXTMAX
 10
-1.0000000000000000E+20
 20
-1.0000000000000000E+20
 30
-1.0000000000000000E+20
  9
$PLIMMIN
 10
0.0
 20
0.0
  9
$PLIMMAX
 10
12.0
 20
9.0
  9
$UNITMODE
 70
     0
  9
$VISRETAIN
 70
     1
  9
$PLINEGEN
 70
     0
  9
$PSLTSCALE
 70
     1
  0
ENDSEC
  0
SECTION
  2
TABLES
  0
TABLE
  2
VPORT
 70
     1
  0
VPORT
  2
*ACTIVE
 70
     0
 10
0.0
 20
0.0
 11
1.0
 21
1.0
 12
-12.1719317937445304
 22
-3.4885587245314289
 13
0.0
 23
0.0
 14
1.0
 24
1.0
 15
0.0
 25
0.0
 16
0.0
 26
0.0
 36
0.0358426669211835
 17
3412.2167274363769138
 27
135.7859834767401992
 37
0.0
 40
6.4407420885016773
 41
2.9735537190082639
 42
50.0
 43
0.0
 44
0.0
 50
0.0
 51
0.0
 71
     0
 72
   100
 73
     1
 74
     1
 75
     0
 76
     0
 77
     0
 78
     0
  0
ENDTAB
  0
TABLE
  2
LTYPE
 70
     2
  0
LTYPE
  2
CONTINUOUS
 70
     0
  3
Solid line
 72
    65
 73
     0
 40
0.0
  0
LTYPE
  2
PHANTOM2
 70
     0
  3
___ _ _ ___ _ _ ___ _ _ ___ _ _
 72
    65
 73
     6
 40
1.25
 49
0.625
 49
-0.125
 49
0.125
 49
-0.125
 49
0.125
 49
-0.125
  0
ENDTAB
  0
TABLE
  2
LAYER
 70
     2
  0
LAYER
  2
0
 70
     0
 62
   255
  6
CONTINUOUS
  0
LAYER
  2
DEFPOINTS
 70
     0
 62
     7
  6
CONTINUOUS
  0
ENDTAB
  0
TABLE
  2
STYLE
 70
     1
  0
STYLE
  2
STANDARD
 70
     0
 40
0.0
 41
0.8
 50
0.0
 71
     0
 42
0.2
  3
txt
  4

  0
ENDTAB
  0
TABLE
  2
VIEW
 70
     0
  0
ENDTAB
  0
TABLE
  2
UCS
 70
     0
  0
ENDTAB
  0
TABLE
  2
APPID
 70
     9
  0
APPID
  2
ACAD
 70
     0
  0
APPID
  2
ACAD_MLEADERVER
 70
     0
  0
APPID
  2
ACAD_EXEMPT_FROM_CAD_STANDARDS
 70
     0
  0
APPID
  2
ACAD_NAV_VCDISPLAY
 70
     0
  0
APPID
  2
ACAECLAYERSTANDARD
 70
     0
  0
APPID
  2
ACCMTRANSPARENCY
 70
     0
  0
APPID
  2
ACAD_DSTYLE_DIMJAG
 70
     0
  0
APPID
  2
ACAD_DSTYLE_DIMTALN
 70
     0
  0
APPID
  2
ACDBATTR
 70
     0
  0
ENDTAB
  0
TABLE
  2
DIMSTYLE
 70
     1
  0
DIMSTYLE
  2
STANDARD
 70
     0
  3

  4

  5

  6

  7

 40
1.0
 41
0.1875
 42
0.0625
 43
0.38
 44
0.125
 45
0.0
 46
0.0
 47
0.01
 48
0.01
140
0.15625
141
0.09
142
0.0
143
25.3999999999999986
144
1.0
145
0.0
146
1.0
147
0.09
 71
     1
 72
     0
 73
     1
 74
     1
 75
     0
 76
     0
 77
     0
 78
     4
170
     0
171
     2
172
     0
173
     0
174
     0
175
     0
176
     0
177
     0
178
     0
  0
ENDTAB
  0
ENDSEC
  0
SECTION
  2
BLOCKS
  0
BLOCK
  8
0
  2
$MODEL_SPACE
 70
     0
 10
0.0
 20
0.0
 30
0.0
  3
$MODEL_SPACE
  1

  0
ENDBLK
  5
21
  8
0
  0
BLOCK
 67
     1
  8
0
  2
$PAPER_SPACE
 70
     0
 10
0.0
 20
0.0
 30
0.0
  3
$PAPER_SPACE
  1

  0
ENDBLK
  5
1D
 67
     1
  8
0
  0
BLOCK
  8
0
  2
_FILLED
 70
     0
 10
0.0
 20
0.0
 30
0.0
  3
_FILLED
  1

  0
SOLID
  5
9E2C
  8
0
  6
BYBLOCK
 62
     0
 10
0.0
 20
0.0
 30
0.0
 11
-1.0
 21
0.1666666667
 31
0.0
 12
-1.0
 22
-0.1666666667
 32
0.0
 13
-1.0
 23
-0.1666666667
 33
0.0
  0
ENDBLK
  5
9E2D
  8
0
  6
BYBLOCK
 62
     0
  0
BLOCK
  8
0
  2
A$C6B0F1CD5
 70
     2
 10
0.0
 20
0.0
 30
0.0
  3
A$C6B0F1CD5
  1

  0
ATTDEF
  5
B779
  8
DEFPOINTS
 10
0.0005209962714616
 20
0.000347009907216
 30
0.0
 40
0.001
  1
BATH FAUCET
  3

  2
PRODUCT
 70
     0
1001
ACDBATTR
1070
     0
1070
     1
  0
ATTDEF
  5
B77A
  8
DEFPOINTS
 10
0.0005209962714616
 20
0.0020136765738812
 30
0.0
 40
0.001
  1
SINGULIER
  3

  2
TRADENAME
 70
     0
1001
ACDBATTR
1070
     0
1070
     1
  0
ATTDEF
  5
B77B
  8
DEFPOINTS
 10
0.0005209962714616
 20
0.0036803432405463
 30
0.0
 40
0.001
  1
K-10873W
  3

  2
MODELNUMBER
 70
     0
1001
ACDBATTR
1070
     0
1070
     1
  0
ENDBLK
  5
B77F
  8
0
  0
BLOCK
  8
0
  2
A$C790C4779
 70
     0
 10
0.0
 20
0.0
 30
0.0
  3
A$C790C4779
  1

  0
LINE
  5
135B8
  8
0
 62
     1
 10
0.0000000000000002
 20
-37.3954278042999988
 30
0.0
 11
0.0000000000000024
 21
135.5073127926623044
 31
0.0
  0
LINE
  5
135B9
  8
0
 10
-4.232274871249996
 20
-0.0000000000500009
 30
0.0
 11
-1.6732305542500019
 21
0.0000000000500009
 31
0.0
  0
ARC
  5
135BA
  8
0
 10
-1.673230554249227
 20
-0.019685039349227
 30
0.0
 40
0.0196850393992278
 50
359.9999999977458174
 51
90.0000000022289299
  0
LINE
  5
135BB
  8
0
 10
-1.65354551485
 20
-0.0196850393500014
 30
0.0
 11
-1.6535455148548031
 21
-0.1417322834500041
 31
0.0
  0
ARC
  5
135BC
  8
0
 10
-1.8503959085783681
 20
-0.1417322834422592
 30
0.0
 40
0.1968503937235679
 50
308.0000000051189204
 51
359.9999999977458174
  0
ARC
  5
135BD
  8
0
 10
206402.867126322700642
 20
-264186.1327213866170496
 30
0.0
 40
335256.6379051808035001
 50
128.0000000051190909
 51
128.0001315430347972
  0
ARC
  5
135BE
  8
0
 10
-2.3841858483936611
 20
-0.7086672312258245
 30
0.0
 40
0.0787343436991881
 50
269.9974989648274004
 51
308.0001315430346835
  0
LINE
  5
135BF
  8
0
 10
-2.3841892852500002
 20
-0.7874015748500014
 30
0.0
 11
-3.521326940266623
 21
-0.7873519373147886
 31
0.0
  0
ARC
  5
135C0
  8
0
 10
-3.5213234946367509
 20
-0.7084166022533154
 30
0.0
 40
0.0789353351366763
 50
232.1074321309334039
 51
269.9974989648262067
  0
ARC
  5
135C1
  8
0
 10
122.5627830190684051
 20
161.2970992303251876
 30
0.0
 40
205.3665118602133077
 50
231.8926994283673935
 51
232.1074321309334039
  0
ARC
  5
135C2
  8
0
 10
-4.05438302028411
 20
-0.1413806812727074
 30
0.0
 40
0.1975826044299356
 50
180.1019590338792966
 51
231.894492101153304
  0
LINE
  5
135C3
  8
0
 10
-3.4665376408499968
 20
-0.8464569578199387
 30
0.0
 11
-3.4665376408499968
 21
-0.7873543289388536
 31
0.0
  0
LINE
  5
135C4
  8
0
 10
-2.4389785857499979
 20
-0.8464564280499971
 30
0.0
 11
-2.4389785857499979
 21
-0.7873991832258938
 31
0.0
  0
LINE
  5
135C5
  8
0
 10
-4.1763149515081661
 20
-0.2968525105499964
 30
0.0
 11
-1.729202704762441
 21
-0.2968525105499964
 31
0.0
  0
ARC
  5
135C6
  8
0
 10
-4.2322710507446732
 20
-0.0196942628668566
 30
0.0
 40
0.0196942632874289
 50
90.0111148525494258
 51
179.9731663683137128
  0
LINE
  5
135C7
  8
0
 10
-4.2519653118722616
 20
-0.0196850393500014
 30
0.0
 11
-4.2519653118722616
 21
-0.1417322834500041
 31
0.0
  0
LINE
  5
135C8
  8
0
 10
4.2322748712499969
 20
-0.0000000000500009
 30
0.0
 11
1.6732305542500019
 21
0.0000000000500009
 31
0.0
  0
ARC
  5
135C9
  8
0
 10
1.6732305542492281
 20
-0.019685039349227
 30
0.0
 40
0.0196850393992278
 50
89.9999999977710843
 51
180.0000000022540974
  0
LINE
  5
135CA
  8
0
 10
1.65354551485
 20
-0.0196850393500014
 30
0.0
 11
1.6535455148548031
 21
-0.1417322834500041
 31
0.0
  0
ARC
  5
135CB
  8
0
 10
1.8503959085783681
 20
-0.1417322834422592
 30
0.0
 40
0.1968503937235679
 50
180.0000000022540974
 51
231.999999994881108
  0
ARC
  5
135CC
  8
0
 10
-206402.867126322700642
 20
-264186.1327213866170496
 30
0.0
 40
335256.6379051808035001
 50
51.9998684569652525
 51
51.9999999948808806
  0
ARC
  5
135CD
  8
0
 10
2.3841858483936611
 20
-0.7086672312258245
 30
0.0
 40
0.0787343436991881
 50
231.9998684569652028
 51
270.0025010351724859
  0
LINE
  5
135CE
  8
0
 10
2.3841892852500002
 20
-0.7874015748500014
 30
0.0
 11
3.5213269402666239
 21
-0.7873519373147886
 31
0.0
  0
ARC
  5
135CF
  8
0
 10
3.5213234946367522
 20
-0.7084166022533154
 30
0.0
 40
0.0789353351366763
 50
270.0025010351737933
 51
307.8925678690666246
  0
ARC
  5
135D0
  8
0
 10
-122.5627830190684051
 20
161.2970992303251876
 30
0.0
 40
205.3665118602133077
 50
307.8925678690666246
 51
308.1073005716326065
  0
ARC
  5
135D1
  8
0
 10
4.0543830206346447
 20
-0.1413806814436782
 30
0.0
 40
0.1975826040790903
 50
308.1055078494570125
 51
359.8980410155184018
  0
LINE
  5
135D2
  8
0
 10
3.5236243727499978
 20
-0.8464569872500007
 30
0.0
 11
2.3818920892499991
 21
-0.8464563986499982
 31
0.0
  0
LINE
  5
135D3
  8
0
 10
2.3818920892499991
 20
-0.8464563986499982
 30
0.0
 11
2.3228369407499989
 21
-0.9055114862499991
 31
0.0
  0
LINE
  5
135D4
  8
0
 10
2.3228369407499989
 20
-0.9055114862499991
 30
0.0
 11
2.32283669621774
 21
-1.377952431149992
 31
0.0
  0
LINE
  5
135D5
  8
0
 10
2.32283669621774
 20
-1.377952431149992
 30
0.0
 11
2.3818917848499961
 21
-1.4370075797500019
 31
0.0
  0
LINE
  5
135D6
  8
0
 10
2.3818917848499961
 20
-1.4370075797500019
 30
0.0
 11
3.5236240682500002
 21
-1.4370092896499991
 31
0.0
  0
LINE
  5
135D7
  8
0
 10
3.5236240682500002
 20
-1.4370092896499991
 30
0.0
 11
3.5826792168500021
 21
-1.377954201950004
 31
0.0
  0
LINE
  5
135D8
  8
0
 10
3.5826792168500021
 20
-1.377954201950004
 30
0.0
 11
3.582679460450001
 21
-0.905512135849996
 31
0.0
  0
LINE
  5
135D9
  8
0
 10
3.582679460450001
 20
-0.905512135849996
 30
0.0
 11
3.5236243727499978
 21
-0.8464569872500007
 31
0.0
  0
LINE
  5
135DA
  8
0
 10
3.4665376408499982
 20
-0.8464569578199387
 30
0.0
 11
3.4665376408499982
 21
-0.7873543289388536
 31
0.0
  0
LINE
  5
135DB
  8
0
 10
2.4389785857499979
 20
-0.8464564280499971
 30
0.0
 11
2.4389785857499979
 21
-0.7873991832258938
 31
0.0
  0
LINE
  5
135DC
  8
0
 10
4.176314951508167
 20
-0.2968525105499964
 30
0.0
 11
1.729202704762441
 21
-0.2968525105499964
 31
0.0
  0
ARC
  5
135DD
  8
0
 10
4.2322710507446706
 20
-0.0196942628668637
 30
0.0
 40
0.01969426328744
 50
0.0268336317070377
 51
89.9888851474415361
  0
LINE
  5
135DE
  8
0
 10
4.2519653118722616
 20
-0.0196850393500014
 30
0.0
 11
4.2519653118722616
 21
-0.1417322834500041
 31
0.0
  0
LINE
  5
135DF
  8
0
 10
3.5433038938999988
 20
-0.9055123383000065
 30
0.0
 11
3.543303893900001
 21
-1.3779528689999969
 31
0.0
  0
LINE
  5
135E0
  8
0
 10
3.5826792168507078
 20
-1.377952833859438
 30
0.0
 11
3.4378639481999991
 21
-1.3779529631
 31
0.0
  0
ARC
  5
135E1
  8
0
 10
3.248028303433538
 20
-0.9399295068502055
 30
0.0
 40
0.4773909512347318
 50
246.5685011794114985
 51
293.4314988205883878
  0
LINE
  5
135E2
  8
0
 10
3.0581926583999999
 20
-1.3779529631
 30
0.0
 11
2.8473127671000542
 21
-1.3779527748999949
 31
0.0
  0
ARC
  5
135E3
  8
0
 10
2.6574772525882229
 20
-0.9398586328204601
 30
0.0
 40
0.4774560333709902
 50
246.5718688740558946
 51
293.4280970205315953
  0
LINE
  5
135E4
  8
0
 10
2.4676414772999991
 20
-1.3779529631
 30
0.0
 11
2.322837098936501
 21
-1.3779528338691589
 31
0.0
  0
LINE
  5
135E5
  8
0
 10
2.3622015316999998
 20
-1.3779528689999969
 30
0.0
 11
2.3622015316999989
 21
-0.9055123382999994
 31
0.0
  0
LINE
  5
135E6
  8
0
 10
3.582679460449878
 20
-0.9055123734407715
 30
0.0
 11
3.4378639481999991
 21
-0.9055122441999969
 31
0.0
  0
ARC
  5
135E7
  8
0
 10
3.248028303433538
 20
-1.343535700449791
 30
0.0
 40
0.4773909512347318
 50
66.5685011794114843
 51
113.4314988205885015
  0
LINE
  5
135E8
  8
0
 10
3.0581926583999999
 20
-0.9055122441999969
 30
0.0
 11
2.8473127671000542
 21
-0.9055124324000018
 31
0.0
  0
ARC
  5
135E9
  8
0
 10
2.6574772525882229
 20
-1.3436065744795369
 30
0.0
 40
0.4774560333709902
 50
66.5719029794683621
 51
113.4281311259440059
  0
LINE
  5
135EA
  8
0
 10
2.4676414772999991
 20
-0.9055122441999969
 30
0.0
 11
2.3228369407495402
 21
-0.9055123734309802
 31
0.0
  0
LINE
  5
135EB
  8
0
 10
3.4378639481999982
 20
-0.9055122441999969
 30
0.0
 11
3.4378639481999982
 21
-1.3779529631
 31
0.0
  0
LINE
  5
135EC
  8
0
 10
3.0581926583999999
 20
-0.9055122442336838
 30
0.0
 11
3.058192658399999
 21
-1.377952963066313
 31
0.0
  0
LINE
  5
135ED
  8
0
 10
2.8473127671
 20
-0.9055124324000018
 30
0.0
 11
2.8473127671
 21
-1.3779527748999949
 31
0.0
  0
LINE
  5
135EE
  8
0
 10
2.4676414772999991
 20
-0.9055122441999969
 30
0.0
 11
2.4676414772999999
 21
-1.3779529631
 31
0.0
  0
LINE
  5
135EF
  8
0
 10
-3.6169677232999988
 20
-1.523622219399996
 30
0.0
 11
3.6169677232999988
 21
-1.523622219399996
 31
0.0
  0
LINE
  5
135F0
  8
0
 10
-3.6169677232999988
 20
-1.523622219399996
 30
0.0
 11
-3.6169655664706148
 21
-1.79921328830644
 31
0.0
  0
LINE
  5
135F1
  8
0
 10
3.6169677233000002
 20
-1.523622219399996
 30
0.0
 11
3.6169655664706148
 21
-1.79921328830644
 31
0.0
  0
ARC
  5
135F2
  8
0
 10
2.6574690738000011
 20
-1.7992057790999989
 30
0.0
 40
0.9594964926999981
 50
270.0002677998999729
 51
359.9995515920693947
  0
LINE
  5
135F3
  8
0
 10
2.6574735584770042
 20
-2.7587022717895162
 30
0.0
 11
2.2392906997799491
 21
-2.7587042263720098
 31
0.0
  0
ARC
  5
135F4
  8
0
 10
1.907109920768588
 20
-4.075208196272551
 30
0.0
 40
1.3083373122455031
 50
92.8163441161551788
 51
111.9714302184384991
  0
ARC
  5
135F5
  8
0
 10
1.6844007503543561
 20
-3.5169014528423679
 30
0.0
 40
0.7072586572166115
 50
112.1620754251559049
 51
163.3646549416143046
  0
ARC
  5
135F6
  8
0
 10
2.7186311955143219
 20
-3.8197152938323948
 30
0.0
 40
1.784901853957199
 50
163.5553001483318099
 51
178.3862015974247868
  0
ARC
  5
135F7
  8
0
 10
17.0322942082439717
 20
-4.2229819411431349
 30
0.0
 40
16.1042444656422106
 50
178.3862015974247868
 51
179.0624040412432976
  0
LINE
  5
135F8
  8
0
 10
0.9302059317510785
 20
-3.9594616474315032
 30
0.0
 11
0.9302059317510789
 21
-6.2430797267999969
 31
0.0
  0
ARC
  5
135F9
  8
0
 10
-11.7908390203851798
 20
-5.718937694217189
 30
0.0
 40
12.7318384196702503
 50
355.5078398175591019
 51
357.6405908905456954
  0
ARC
  5
135FA
  8
0
 10
0.2226689771053312
 20
-6.6400791684104936
 30
0.0
 40
0.6834632913349376
 50
333.5756682723919084
 51
353.6113554237957146
  0
ARC
  5
135FB
  8
0
 10
-0.000004227200002
 20
-6.543456277899991
 30
0.0
 40
0.9259561775000049
 50
270.0002615682309965
 51
334.3531834573997799
  0
ARC
  5
135FC
  8
0
 10
-0.0039294877421534
 20
-2.5412034252165361
 30
0.0
 40
0.8186418030565732
 50
2.3872099443528429
 51
89.7249787062001758
  0
ARC
  5
135FD
  8
0
 10
-1.2042913979932119
 20
-4.5679724788304936
 30
0.0
 40
2.0296260080375919
 50
339.3436971396209856
 51
353.942414238114111
  0
ARC
  5
135FE
  8
0
 10
0.004017697323935
 20
-4.9538129150649262
 30
0.0
 40
0.7656678747152985
 50
269.6993498564817742
 51
334.446170457167284
  0
ARC
  5
135FF
  8
0
 10
2.1686245118476162
 20
-7.9508769724150801
 30
0.0
 40
5.192656081247792
 50
89.2201525049801347
 51
93.5971406112717261
  0
LINE
  5
13600
  8
0
 10
10.3808581070999999
 20
0.0000014401000001
 30
0.0
 11
12.3030732488000005
 21
0.0000014401000001
 31
0.0
  0
LINE
  5
13601
  8
0
 10
12.3030732488000005
 20
0.0000014401000001
 30
0.0
 11
12.29657102
 21
-1.033483819499998
 31
0.0
  0
ARC
  5
13602
  8
0
 10
8.1992593507892622
 20
-1.007705359971282
 30
0.0
 40
4.0973927616993393
 50
345.2166835011761918
 51
359.6395252388066979
  0
ARC
  5
13603
  8
0
 10
7.665804588572442
 20
-0.8630059943421527
 30
0.0
 40
4.6501126065208096
 50
341.9974842144903278
 51
345.1699741906389818
  0
ARC
  5
13604
  8
0
 10
12.0028788648755391
 20
-2.2764817731436571
 30
0.0
 40
0.0886059968295827
 50
318.0992830752639975
 51
344.4977818221523762
  0
ARC
  5
13605
  8
0
 10
12.0222500335543199
 20
-2.2924277543286129
 30
0.0
 40
0.0635475594357337
 50
280.4396121136027205
 51
317.1360971380005935
  0
LINE
  5
13606
  8
0
 10
12.0337647944999997
 20
-2.3549233748999958
 30
0.0
 11
11.9798079277565606
 21
-2.3627665272333331
 31
0.0
  0
ARC
  5
13607
  8
0
 10
11.9770126687480296
 20
-2.3433200881157599
 30
0.0
 40
0.0196466119684799
 50
190.154941106188403
 51
277.939795250628606
  0
LINE
  5
13608
  8
0
 10
11.95767382945
 20
-2.3467839957999952
 30
0.0
 11
11.9571443876300005
 21
-2.308943896012607
 31
0.0
  0
LINE
  5
13609
  8
0
 10
10.7521216164000002
 20
-1.210324162899993
 30
0.0
 11
11.9318097393000002
 21
-1.210324196599998
 31
0.0
  0
ARC
  5
1360A
  8
0
 10
11.9318097387331292
 20
-1.230167867049893
 30
0.0
 40
0.0198436704498946
 50
359.8147381281693242
 51
89.9999983632289542
  0
LINE
  5
1360B
  8
0
 10
11.9516533054496605
 20
-1.2302320300503231
 30
0.0
 11
11.9566201102960505
 21
-2.208815112944535
 31
0.0
  0
ARC
  5
1360C
  8
0
 10
11.8551802160073105
 20
-2.2804312542049838
 30
0.0
 40
0.1058756961608776
 50
344.3772049374097719
 51
2.5461677608355711
  0
ARC
  5
1360D
  8
0
 10
10.6067466818612992
 20
-2.3297893135268088
 30
0.0
 40
1.3552833762090479
 50
2.2861042438788921
 51
5.1211050264768181
  0
LINE
  5
1360E
  8
0
 10
11.9443278825999997
 20
-1.214818001299995
 30
0.0
 11
11.9443278825999997
 21
-2.0771530284999988
 31
0.0
  0
ARC
  5
1360F
  8
0
 10
7.7738742757910222
 20
-2.5360116965846942
 30
0.0
 40
4.1956208794196908
 50
4.4909549061469374
 51
6.2787749749526132
  0
ARC
  5
13610
  8
0
 10
8.9328028997891487
 20
-2.4084993214452619
 30
0.0
 40
3.0296985143644992
 50
6.2787749749526123
 51
11.4328692858054399
  0
ARC
  5
13611
  8
0
 10
6.2269925402716213
 20
-2.9813099462674368
 30
0.0
 40
5.7954158466209558
 50
11.6810173414004108
 51
12.6660501549976203
  0
ARC
  5
13612
  8
0
 10
11.3410135079070997
 20
-1.8142682605241871
 30
0.0
 40
0.5503239048216554
 50
10.86426564846942
 51
89.8999399818415554
  0
ARC
  5
13613
  8
0
 10
11.9403624301628604
 20
-1.271832645922472
 30
0.0
 40
0.011990444703853
 50
16.7031499675962891
 51
70.6476770153719542
  0
ARC
  5
13614
  8
0
 10
11.9403908746999896
 20
-1.8779516345999949
 30
0.0
 40
0.011811023600004
 50
289.5118474172356855
 51
0.0
  0
LINE
  5
13615
  8
0
 10
11.9522018983000002
 20
-1.8779516345999949
 30
0.0
 11
11.9528880707079601
 21
-1.4735112468700251
 31
0.0
  0
ARC
  5
13616
  8
0
 10
11.8716683941174104
 20
-2.2845554211270871
 30
0.0
 40
0.0888872497842505
 50
331.9619538346584022
 51
344.0752043370417255
  0
ARC
  5
13617
  8
0
 10
13.6448174646469802
 20
-2.6082002513809708
 30
0.0
 40
1.7179739166623069
 50
170.5569657723497983
 51
176.416341704627996
  0
ARC
  5
13618
  8
0
 10
40.6176326128047194
 20
-4.5165655329799712
 30
0.0
 40
28.7581617563696206
 50
175.9806653773430867
 51
177.8243949032508056
  0
ARC
  5
13619
  8
0
 10
11.3109454596221699
 20
-3.9843821651330771
 30
0.0
 40
2.3739108471967758
 50
270.7487131088689125
 51
304.0721119084967086
  0
ARC
  5
1361A
  8
0
 10
11.9392484018913105
 20
-4.9930688185020671
 30
0.0
 40
1.1872246568299929
 50
306.2278427815676878
 51
341.1817607006785806
  0
ARC
  5
1361B
  8
0
 10
12.2872573453760499
 20
-5.1116643625316414
 30
0.0
 40
0.8195629538895935
 50
341.1817607006785806
 51
357.4079159961017922
  0
ARC
  5
1361C
  8
0
 10
11.8011570714692908
 20
-5.0896579760327496
 30
0.0
 40
1.3061611015833281
 50
357.4079159961017922
 51
1.859337335707236
  0
LINE
  5
1361D
  8
0
 10
13.1066304719000009
 20
-5.0472784519999934
 30
0.0
 11
13.0868023329999996
 21
-4.6459973220999942
 31
0.0
  0
ARC
  5
1361E
  8
0
 10
12.1079914253851406
 20
-4.7028268321022209
 30
0.0
 40
0.9804592730312299
 50
3.322847899046351
 51
30.3415943727762816
  0
ARC
  5
1361F
  8
0
 10
11.7444886779769906
 20
-4.9405605757694451
 30
0.0
 40
1.4144290415860841
 50
31.2144213116060705
 51
59.0490585062247391
  0
ARC
  5
13620
  8
0
 10
10.8464265443629309
 20
-6.5341546809798103
 30
0.0
 40
3.2433612945695489
 50
59.9218854450547767
 51
66.9248125443956212
  0
ARC
  5
13621
  8
0
 10
12.6684623023076401
 20
-2.2204077592796159
 30
0.0
 40
1.4394475239673199
 50
236.7965187613311002
 51
247.5006852366697103
  0
ARC
  5
13622
  8
0
 10
12.0955923033801795
 20
-3.08839684311718
 30
0.0
 40
0.3994826227261367
 50
222.6214766235947025
 51
237.3723914536045925
  0
ARC
  5
13623
  8
0
 10
11.8438483531682408
 20
-3.3152100033849901
 30
0.0
 40
0.0609266116601539
 50
200.1534310629050992
 51
225.9817505718258133
  0
ARC
  5
13624
  8
0
 10
11.9762488603168809
 20
-3.3085488660547631
 30
0.0
 40
0.1916027213839594
 50
177.8119439527129089
 51
188.2980249856892101
  0
LINE
  5
13625
  8
0
 10
11.7847858370215999
 20
-3.3012335704231068
 30
0.0
 11
11.8417615188000003
 21
-1.918661399399987
 31
0.0
  0
ARC
  5
13626
  8
0
 10
12.9657332026160592
 20
-1.9649801770574551
 30
0.0
 40
1.124925675404381
 50
165.616448583165095
 51
177.6401810463889888
  0
ARC
  5
13627
  8
0
 10
11.3471134242308
 20
-3.5432079149980491
 30
0.0
 40
2.3829989295199301
 50
269.8762315409881012
 51
287.8607440399625261
  0
ARC
  5
13628
  8
0
 10
11.51442690145727
 20
-4.062436459526416
 30
0.0
 40
1.837478919699338
 50
287.8607440399622988
 51
310.9111810268066733
  0
ARC
  5
13629
  8
0
 10
11.9834054086248099
 20
-4.6036266166918827
 30
0.0
 40
1.1213590788920349
 50
310.9111810268066733
 51
334.6055649638310001
  0
ARC
  5
1362A
  8
0
 10
12.1240198547220093
 20
-4.6703785286917103
 30
0.0
 40
0.9657048460332601
 50
334.6055649638310001
 51
351.8644030939661889
  0
ARC
  5
1362B
  8
0
 10
12.2224814324441091
 20
-4.6844541034681866
 30
0.0
 40
0.866242269690127
 50
351.8644030939661889
 51
359.9718430927334225
  0
LINE
  5
1362C
  8
0
 10
10.3808581069999999
 20
0.0000014401000001
 30
0.0
 11
10.3873603358000004
 21
-1.033483819499998
 31
0.0
  0
ARC
  5
1362D
  8
0
 10
14.48467200501074
 20
-1.007705359971282
 30
0.0
 40
4.0973927616993393
 50
180.3604747611933021
 51
194.7833164988236945
  0
ARC
  5
1362E
  8
0
 10
15.0181267672275602
 20
-0.8630059943421527
 30
0.0
 40
4.6501126065208096
 50
194.8300258093609898
 51
198.0025157855097007
  0
ARC
  5
1362F
  8
0
 10
10.6810524909244595
 20
-2.2764817731436571
 30
0.0
 40
0.0886059968295827
 50
195.5022181778475101
 51
221.9007169247360025
  0
ARC
  5
13630
  8
0
 10
10.6616813222456894
 20
-2.2924277543286129
 30
0.0
 40
0.0635475594357337
 50
222.8639028619994065
 51
259.5603878863972227
  0
LINE
  5
13631
  8
0
 10
10.6501665613000007
 20
-2.3549233748999958
 30
0.0
 11
10.7041234280434399
 21
-2.3627665272333331
 31
0.0
  0
ARC
  5
13632
  8
0
 10
10.7069186870519708
 20
-2.3433200881157599
 30
0.0
 40
0.0196466119684799
 50
262.0602047493715077
 51
349.845058893811597
  0
LINE
  5
13633
  8
0
 10
10.7262575263500004
 20
-2.3467839957999952
 30
0.0
 11
10.7267869681699999
 21
-2.308943896012607
 31
0.0
  0
ARC
  5
13634
  8
0
 10
10.7521216170668694
 20
-1.230167867049893
 30
0.0
 40
0.0198436704498946
 50
90.0000016367710316
 51
180.1852618718305905
  0
LINE
  5
13635
  8
0
 10
10.7322780503503399
 20
-1.2302320300503231
 30
0.0
 11
10.7273112455039605
 21
-2.208815112944535
 31
0.0
  0
ARC
  5
13636
  8
0
 10
10.8287511397926899
 20
-2.2804312542049838
 30
0.0
 40
0.1058756961608776
 50
177.4538322391643987
 51
195.6227950625901997
  0
ARC
  5
13637
  8
0
 10
12.0771846739387101
 20
-2.3297893135268088
 30
0.0
 40
1.3552833762090479
 50
174.8788949735231881
 51
177.7138957561211043
  0
LINE
  5
13638
  8
0
 10
10.7396034732000007
 20
-1.214818001299995
 30
0.0
 11
10.7396034732000007
 21
-2.0771530284999988
 31
0.0
  0
ARC
  5
13639
  8
0
 10
14.9100570800089791
 20
-2.5360116965846942
 30
0.0
 40
4.1956208794196908
 50
173.7212250250474028
 51
175.5090450938533877
  0
ARC
  5
1363A
  8
0
 10
13.75112845601085
 20
-2.4084993214452619
 30
0.0
 40
3.0296985143644992
 50
168.5671307141944908
 51
173.7212250250474028
  0
ARC
  5
1363B
  8
0
 10
16.4569388155283782
 20
-2.9813099462674368
 30
0.0
 40
5.7954158466209558
 50
167.3339498450023086
 51
168.3189826585995093
  0
ARC
  5
1363C
  8
0
 10
11.3429178478929007
 20
-1.8142682605241871
 30
0.0
 40
0.5503239048216554
 50
90.1000600181584446
 51
169.1357343515306013
  0
ARC
  5
1363D
  8
0
 10
10.7435689256371294
 20
-1.271832645922472
 30
0.0
 40
0.011990444703853
 50
109.3523229846280032
 51
163.2968500324037109
  0
ARC
  5
1363E
  8
0
 10
10.7435404811000108
 20
-1.8779516345999949
 30
0.0
 40
0.011811023600004
 50
180.0
 51
250.4881525827642861
  0
LINE
  5
1363F
  8
0
 10
10.7317294575000002
 20
-1.8779516345999949
 30
0.0
 11
10.7310432850920296
 21
-1.4735112468700251
 31
0.0
  0
ARC
  5
13640
  8
0
 10
10.81226296168259
 20
-2.2845554211270871
 30
0.0
 40
0.0888872497842505
 50
195.9247956629581893
 51
208.0380461653415125
  0
ARC
  5
13641
  8
0
 10
9.0391138911530184
 20
-2.6082002513809708
 30
0.0
 40
1.7179739166623069
 50
3.583658295372016
 51
9.4430342276501467
  0
ARC
  5
13642
  8
0
 10
-17.9337012570047207
 20
-4.5165655329799712
 30
0.0
 40
28.7581617563696206
 50
2.1756050967491292
 51
4.0193346226568458
  0
ARC
  5
13643
  8
0
 10
11.4255435852618508
 20
-3.8167771224841109
 30
0.0
 40
2.5426871789811072
 50
237.0628215887417127
 51
268.1163533938930073
  0
ARC
  5
13644
  8
0
 10
10.7446829539086792
 20
-4.9930688185020671
 30
0.0
 40
1.1872246568299929
 50
198.8182392993213909
 51
233.7721572184323975
  0
ARC
  5
13645
  8
0
 10
10.3966740104239399
 20
-5.1116643625316414
 30
0.0
 40
0.8195629538895935
 50
182.5920840038982078
 51
198.8182392993213909
  0
ARC
  5
13646
  8
0
 10
10.8827742843307096
 20
-5.0896579760327496
 30
0.0
 40
1.3061611015833281
 50
178.1406626642927051
 51
182.5920840038982078
  0
LINE
  5
13647
  8
0
 10
9.5773008839000013
 20
-5.0472784519999934
 30
0.0
 11
9.5971290228000043
 21
-4.6459973220999942
 31
0.0
  0
ARC
  5
13648
  8
0
 10
10.5759399304148705
 20
-4.7028268321022209
 30
0.0
 40
0.9804592730312299
 50
149.6584056272236865
 51
176.6771521009536059
  0
ARC
  5
13649
  8
0
 10
10.9394426778230098
 20
-4.9405605757694451
 30
0.0
 40
1.4144290415860841
 50
120.9509414937752041
 51
148.7855786883939118
  0
ARC
  5
1364A
  8
0
 10
11.8375048114370696
 20
-6.5341546809798103
 30
0.0
 40
3.2433612945695489
 50
113.075187455604393
 51
120.0781145549451026
  0
ARC
  5
1364B
  8
0
 10
10.0154690534923603
 20
-2.2204077592796159
 30
0.0
 40
1.4394475239673199
 50
292.4993147633302897
 51
303.2034812386688145
  0
ARC
  5
1364C
  8
0
 10
10.5883390524198209
 20
-3.08839684311718
 30
0.0
 40
0.3994826227261367
 50
302.6276085463953223
 51
317.378523376405326
  0
ARC
  5
1364D
  8
0
 10
10.8400830026317703
 20
-3.3152100033849901
 30
0.0
 40
0.0609266116601539
 50
314.0182494281742152
 51
339.8465689370949008
  0
ARC
  5
1364E
  8
0
 10
10.7076824954831196
 20
-3.3085488660547631
 30
0.0
 40
0.1916027213839594
 50
351.7019750143107899
 51
2.1880560472870609
  0
LINE
  5
1364F
  8
0
 10
10.8991455187783899
 20
-3.3012335704231068
 30
0.0
 11
10.8421698370000001
 21
-1.918661399399987
 31
0.0
  0
ARC
  5
13650
  8
0
 10
9.7181981531839376
 20
-1.9649801770574551
 30
0.0
 40
1.124925675404381
 50
2.3598189536110099
 51
14.3835514168352994
  0
ARC
  5
13651
  8
0
 10
11.3368179315692004
 20
-3.5432079149980491
 30
0.0
 40
2.3829989295199301
 50
252.1392559600373886
 51
270.1237684590118988
  0
ARC
  5
13652
  8
0
 10
11.1695044543427304
 20
-4.062436459526416
 30
0.0
 40
1.837478919699338
 50
229.088818973193213
 51
252.1392559600375876
  0
ARC
  5
13653
  8
0
 10
10.7005259471751906
 20
-4.6036266166918827
 30
0.0
 40
1.1213590788920349
 50
205.3944350361689999
 51
229.088818973193213
  0
ARC
  5
13654
  8
0
 10
10.559911501078
 20
-4.6703785286917103
 30
0.0
 40
0.9657048460332601
 50
188.1355969060338111
 51
205.3944350361689999
  0
ARC
  5
13655
  8
0
 10
10.4614499233558895
 20
-4.6844541034681866
 30
0.0
 40
0.866242269690127
 50
180.0281569072666059
 51
188.1355969060338111
  0
LINE
  5
13656
  8
0
 10
10.4604561302098205
 20
-1.7786230187561849
 30
0.0
 11
0.9302059317510789
 21
-4.5311086975323072
 31
0.0
  0
LINE
  5
13657
  8
0
 10
0.9302059317510792
 20
-5.1048187572632591
 30
0.0
 11
10.5999036389994501
 21
-2.312061071976216
 31
0.0
  0
LINE
  5
13658
  8
0
 10
11.2336978269000003
 20
-0.1102346034999968
 30
0.0
 11
11.4502333625000006
 21
-0.1102346034999968
 31
0.0
  0
ARC
  5
13659
  8
0
 10
11.4502333625000006
 20
-0.1200771551352986
 30
0.0
 40
0.0098425516353018
 50
0.0048522026362922
 51
90.0000000000394493
  0
LINE
  5
1365A
  8
0
 10
11.4600759141000008
 20
-0.1200763215999956
 30
0.0
 11
11.4600909177550001
 21
-0.2972424812523968
 31
0.0
  0
ARC
  5
1365B
  8
0
 10
11.4502492180850197
 20
-0.2972433147155584
 30
0.0
 40
0.0098416997052721
 50
269.9078786402786818
 51
0.0048522026338495
  0
LINE
  5
1365C
  8
0
 10
11.4502333943999997
 20
-0.3070850016999955
 30
0.0
 11
11.2336979033999995
 21
-0.3070850016000008
 31
0.0
  0
ARC
  5
1365D
  8
0
 10
11.23369796110393
 20
-0.2972424820962374
 30
0.0
 40
0.0098425195039326
 50
179.9999994397452099
 51
269.999664090888075
  0
LINE
  5
1365E
  8
0
 10
11.2238554415999996
 20
-0.2972424819999944
 30
0.0
 11
11.2238554433323703
 21
-0.1200771232158502
 31
0.0
  0
ARC
  5
1365F
  8
0
 10
11.2336979631454099
 20
-0.1200771233120932
 30
0.0
 40
0.0098425198130396
 50
90.0007931187747943
 51
179.9999994397468015
  0
LINE
  5
13660
  8
0
 10
11.2435404810000001
 20
-0.285157346899993
 30
0.0
 11
11.4403908747000003
 21
-0.285157346899993
 31
0.0
  0
LINE
  5
13661
  8
0
 10
11.4403908747000003
 20
-0.285157346899993
 30
0.0
 11
11.4403908747000003
 21
-0.1259827065999985
 31
0.0
  0
LINE
  5
13662
  8
0
 10
11.4403908747000003
 20
-0.1259827065999985
 30
0.0
 11
11.2435404810000001
 21
-0.1259827065999985
 31
0.0
  0
LINE
  5
13663
  8
0
 10
11.2435404810000001
 20
-0.1259827065999985
 30
0.0
 11
11.2435404810000001
 21
-0.285157346899993
 31
0.0
  0
LINE
  5
13664
  8
0
 10
11.2435404810000001
 20
-0.1329247435999932
 30
0.0
 11
11.4403908747000003
 21
-0.1329247435999932
 31
0.0
  0
LINE
  5
13665
  8
0
 10
11.4403908747000003
 20
-0.1758951483000004
 30
0.0
 11
11.2435404810000001
 21
-0.1758951483000004
 31
0.0
  0
LINE
  5
13666
  8
0
 62
     1
 10
2.9527527127499957
 20
0.0
 30
0.0
 11
3408.7567064464851683
 21
0.0
 31
0.0
  0
LINE
  5
13667
  8
0
 10
-3.3740125552999989
 20
-1.437007873999995
 30
0.0
 11
-3.3740125552999989
 21
-1.5236220473000011
 31
0.0
  0
LINE
  5
13668
  8
0
 10
-2.5314928702999988
 20
-1.523622219399996
 30
0.0
 11
-2.5314928702999988
 21
-1.4370080725999941
 31
0.0
  0
LINE
  5
13669
  8
0
 10
2.5315011772
 20
-1.5236210477475041
 30
0.0
 11
2.5315013069151591
 21
-1.4370078038106859
 31
0.0
  0
LINE
  5
1366A
  8
0
 10
3.3740208622000001
 20
-1.5236209259999991
 30
0.0
 11
3.3740208622000001
 21
-1.437009065598772
 31
0.0
  0
ARC
  5
1366B
  8
0
 10
2.271510834839332
 20
-1.5234519131982931
 30
0.0
 40
0.0207238646051601
 50
359.5319609112299872
 51
56.0224196324593322
  0
ARC
  5
1366C
  8
0
 10
2.2754550412557482
 20
-1.5175994482230091
 30
0.0
 40
0.0136663784704072
 50
56.0224196324582806
 51
91.2475798736429198
  0
LINE
  5
1366D
  8
0
 10
2.2751574879000001
 20
-1.503936309399996
 30
0.0
 11
-2.2752329068285522
 21
-1.5039382334107709
 31
0.0
  0
ARC
  5
1366E
  8
0
 10
-2.2740689617853578
 20
-1.521347485033139
 30
0.0
 40
0.0174094494500777
 50
89.727221817396412
 51
153.1828808872606089
  0
ARC
  5
1366F
  8
0
 10
-2.270154145968919
 20
-1.5238287508724959
 30
0.0
 40
0.022027201329863
 50
152.016809705136609
 51
179.4627927975514012
  0
LINE
  5
13670
  8
0
 10
-1.7716502950999991
 20
-1.503936318799993
 30
0.0
 11
-1.7716502967500001
 21
-1.4842512795
 31
0.0
  0
LINE
  5
13671
  8
0
 10
-1.7716502967500001
 20
-1.4842512795
 30
0.0
 11
-1.5354298242999991
 21
-1.484251260299998
 31
0.0
  0
LINE
  5
13672
  8
0
 10
-1.5354298242999991
 20
-1.484251260299998
 30
0.0
 11
-1.5354298226999989
 21
-1.5039362989999949
 31
0.0
  0
LINE
  5
13673
  8
0
 10
-2.3818893597500002
 20
-0.8464569872500007
 30
0.0
 11
-3.5236216432499989
 21
-0.8464563986499982
 31
0.0
  0
LINE
  5
13674
  8
0
 10
-3.5236216432499989
 20
-0.8464563986499982
 30
0.0
 11
-3.5826767917499991
 21
-0.9055114862499991
 31
0.0
  0
LINE
  5
13675
  8
0
 10
-3.5826767917499991
 20
-0.9055114862499991
 30
0.0
 11
-3.5826770362822589
 21
-1.377952431149992
 31
0.0
  0
LINE
  5
13676
  8
0
 10
-3.5826770362822589
 20
-1.377952431149992
 30
0.0
 11
-3.5236219476500028
 21
-1.4370075797500019
 31
0.0
  0
LINE
  5
13677
  8
0
 10
-3.5236219476500028
 20
-1.4370075797500019
 30
0.0
 11
-2.3818896642499992
 21
-1.4370092896499991
 31
0.0
  0
LINE
  5
13678
  8
0
 10
-2.3818896642499992
 20
-1.4370092896499991
 30
0.0
 11
-2.3228345156499959
 21
-1.377954201950004
 31
0.0
  0
LINE
  5
13679
  8
0
 10
-2.3228345156499959
 20
-1.377954201950004
 30
0.0
 11
-2.322834272049997
 21
-0.905512135849996
 31
0.0
  0
LINE
  5
1367A
  8
0
 10
-2.322834272049997
 20
-0.905512135849996
 30
0.0
 11
-2.3818893597500002
 21
-0.8464569872500007
 31
0.0
  0
LINE
  5
1367B
  8
0
 10
-2.3622098386000001
 20
-0.9055123383000065
 30
0.0
 11
-2.3622098385999979
 21
-1.3779528689999969
 31
0.0
  0
LINE
  5
1367C
  8
0
 10
-2.3228345156492902
 20
-1.377952833859438
 30
0.0
 11
-2.4676497842999989
 21
-1.3779529631
 31
0.0
  0
ARC
  5
1367D
  8
0
 10
-2.65748542906646
 20
-0.9399295068502055
 30
0.0
 40
0.4773909512347318
 50
246.5685011794114985
 51
293.4314988205883878
  0
LINE
  5
1367E
  8
0
 10
-2.847321074099999
 20
-1.3779529631
 30
0.0
 11
-3.0582009653999451
 21
-1.3779527748999949
 31
0.0
  0
ARC
  5
1367F
  8
0
 10
-3.248036479911776
 20
-0.9398586328204601
 30
0.0
 40
0.4774560333709902
 50
246.5718688740558946
 51
293.4280970205315953
  0
LINE
  5
13680
  8
0
 10
-3.4378722551999989
 20
-1.3779529631
 30
0.0
 11
-3.582676633563497
 21
-1.3779528338691589
 31
0.0
  0
LINE
  5
13681
  8
0
 10
-3.5433122007999991
 20
-1.3779528689999969
 30
0.0
 11
-3.5433122007999991
 21
-0.9055123382999994
 31
0.0
  0
LINE
  5
13682
  8
0
 10
-2.3228342720501201
 20
-0.9055123734407715
 30
0.0
 11
-2.4676497842999989
 21
-0.9055122441999969
 31
0.0
  0
ARC
  5
13683
  8
0
 10
-2.65748542906646
 20
-1.343535700449791
 30
0.0
 40
0.4773909512347318
 50
66.5685011794115127
 51
113.4314988205885015
  0
LINE
  5
13684
  8
0
 10
-2.847321074099999
 20
-0.9055122441999969
 30
0.0
 11
-3.0582009653999451
 21
-0.9055124324000018
 31
0.0
  0
ARC
  5
13685
  8
0
 10
-3.248036479911776
 20
-1.3436065744795369
 30
0.0
 40
0.4774560333709902
 50
66.5719029794683905
 51
113.4281311259440059
  0
LINE
  5
13686
  8
0
 10
-3.4378722551999989
 20
-0.9055122441999969
 30
0.0
 11
-3.5826767917504578
 21
-0.9055123734309802
 31
0.0
  0
LINE
  5
13687
  8
0
 10
-2.4676497842999998
 20
-0.9055122441999969
 30
0.0
 11
-2.4676497842999998
 21
-1.3779529631
 31
0.0
  0
LINE
  5
13688
  8
0
 10
-2.847321074099999
 20
-0.9055122442336838
 30
0.0
 11
-2.847321074099999
 21
-1.377952963066313
 31
0.0
  0
LINE
  5
13689
  8
0
 10
-3.058200965399998
 20
-0.9055124324000018
 30
0.0
 11
-3.0582009653999989
 21
-1.3779527748999949
 31
0.0
  0
LINE
  5
1368A
  8
0
 10
-3.4378722551999989
 20
-0.9055122441999969
 30
0.0
 11
-3.4378722551999981
 21
-1.3779529631
 31
0.0
  0
LINE
  5
1368B
  8
0
 10
0.8140018595208253
 20
-2.5071048493476691
 30
0.0
 11
0.8140018595208253
 21
-4.7821547824318884
 31
0.0
  0
ARC
  5
1368C
  8
0
 10
-2.6574690738000011
 20
-1.7992057790999989
 30
0.0
 40
0.9594964926999981
 50
180.0004484079302074
 51
269.9997322001000271
  0
LINE
  5
1368D
  8
0
 10
-2.6574735584770042
 20
-2.7587022717895162
 30
0.0
 11
-2.2392906997799491
 21
-2.7587042263720098
 31
0.0
  0
ARC
  5
1368E
  8
0
 10
-1.907109920768588
 20
-4.075208196272551
 30
0.0
 40
1.3083373122455031
 50
68.0285697815615009
 51
87.1836558838448354
  0
ARC
  5
1368F
  8
0
 10
-1.6844007503543561
 20
-3.5169014528423679
 30
0.0
 40
0.7072586572166115
 50
16.635345058385699
 51
67.8379245748440667
  0
ARC
  5
13690
  8
0
 10
-2.718631195514321
 20
-3.8197152938323948
 30
0.0
 40
1.784901853957199
 50
1.6137984025751699
 51
16.4446998516682008
  0
ARC
  5
13691
  8
0
 10
-17.0322942082439717
 20
-4.2229819411431349
 30
0.0
 40
16.1042444656422106
 50
0.9375959587566665
 51
1.6137984025751699
  0
LINE
  5
13692
  8
0
 10
-0.930205931751078
 20
-3.9594616474315032
 30
0.0
 11
-0.9302059317510785
 21
-6.2430797267999969
 31
0.0
  0
ARC
  5
13693
  8
0
 10
11.7908390203851798
 20
-5.718937694217189
 30
0.0
 40
12.7318384196702503
 50
182.3594091094543046
 51
184.4921601824408981
  0
ARC
  5
13694
  8
0
 10
-0.2226689771053307
 20
-6.6400791684104936
 30
0.0
 40
0.6834632913349376
 50
186.3886445762043138
 51
206.4243317276082053
  0
ARC
  5
13695
  8
0
 10
0.0000042272000025
 20
-6.543456277899991
 30
0.0
 40
0.9259561775000049
 50
205.6468165426001065
 51
269.9997384317690035
  0
ARC
  5
13696
  8
0
 10
0.000001751300015
 20
-2.531514959500007
 30
0.0
 40
0.8089439065000162
 50
90.0001240408620333
 51
178.2708212361322921
  0
ARC
  5
13697
  8
0
 10
0.9295205756342417
 20
-4.6520449919252647
 30
0.0
 40
1.742957414251957
 50
184.2810471217289034
 51
201.2565944974953993
  0
ARC
  5
13698
  8
0
 10
-0.0040176973239345
 20
-4.9538129150649262
 30
0.0
 40
0.7656678747152985
 50
205.5538295428326876
 51
270.3006501435182258
  0
ARC
  5
13699
  8
0
 10
-2.1686245118476162
 20
-7.9508769724150801
 30
0.0
 40
5.192656081247792
 50
86.4028593887282739
 51
90.7798474950198369
  0
LINE
  5
1369A
  8
0
 10
-0.8085737803517024
 20
-2.5071048493476691
 30
0.0
 11
-0.8085737803517024
 21
-4.7821547824318884
 31
0.0
  0
ENDBLK
  5
1369E
  8
0
  0
ENDSEC
  0
SECTION
  2
ENTITIES
  0
ATTDEF
  5
1BF3F
  8
DEFPOINTS
 10
3397.1308400339980835
 20
135.4757120787674012
 30
0.0
 40
0.001
  1
K-45533M-4
  3

  2
MODELNUMBER
 70
     0
1001
ACDBATTR
1070
     0
1070
     1
  0
ATTDEF
  5
1BF40
  8
DEFPOINTS
 10
3397.1308400339980835
 20
135.4740454121007929
 30
0.0
 40
0.001
  1
CUFF
  3

  2
TRADENAME
 70
     0
1001
ACDBATTR
1070
     0
1070
     1
  0
ATTDEF
  5
1BF41
  8
DEFPOINTS
 10
3397.1308400339980835
 20
135.4723787454340993
 30
0.0
 40
0.001
  1
BATH AND SHOWER FAUCET
  3

  2
PRODUCT
 70
     0
1001
ACDBATTR
1070
     0
1070
     1
  0
LINE
  5
1E803
  8
0
 10
3401.3623905674849084
 20
135.4718609910098053
 30
0.0
 11
3398.8033314811291348
 21
135.4718609910098053
 31
0.0
  0
ARC
  5
1E804
  8
0
 10
3402.6262981741538169
 20
133.020154117490506
 30
0.0
 40
3.3054799568924058
 50
3.0554431996576179
 51
13.3648828175813499
  0
ARC
  5
1E805
  8
0
 10
3422.2986842415148203
 20
131.6680593021991967
 30
0.0
 40
16.4537350136385996
 50
175.2121185661403899
 51
178.6876547550508008
  0
ARC
  5
1E806
  8
0
 10
3406.7145187293290292
 20
133.388923834961787
 30
0.0
 40
1.5984609751638521
 50
237.2275339384775918
 51
248.7069087949790003
  0
ARC
  5
1E807
  8
0
 10
3405.4579361501459971
 20
130.2026777019817132
 30
0.0
 40
1.826641898778596
 50
47.2519005276179627
 51
68.27554526434254
  0
ARC
  5
1E808
  8
0
 10
3405.9591417276337779
 20
130.7344679998427921
 30
0.0
 40
1.0959407691969281
 50
2.5249883541010441
 51
47.6226271151072709
  0
ARC
  5
1E809
  8
0
 10
3406.0615521860599983
 20
130.8034493358269117
 30
0.0
 40
0.9926821036888378
 50
318.7129188291629021
 51
358.8051730520290903
  0
ARC
  5
1E80A
  8
0
 10
3405.537642544828941
 20
131.293307947879498
 30
0.0
 40
1.7097257559587951
 50
286.7688066060861161
 51
317.9624498374092809
  0
ARC
  5
1E80B
  8
0
 10
3405.6916640419372015
 20
130.6667015905645997
 30
0.0
 40
1.467314751575602
 50
294.1883560375105162
 51
328.5858316864574249
  0
ARC
  5
1E80C
  8
0
 10
3406.0929900638479921
 20
130.3889335356223
 30
0.0
 40
0.9804321772703101
 50
330.2149842272302749
 51
2.102297752572897
  0
LINE
  5
1E80D
  8
0
 10
3407.0727623352008777
 20
130.4248994989098094
 30
0.0
 11
3407.0540184511010011
 21
130.7827497769098102
 31
0.0
  0
ARC
  5
1E80E
  8
0
 10
3405.3081120526007908
 20
133.659398080838713
 30
0.0
 40
0.5485371237139561
 50
13.1532495389900799
 51
166.8467504610098899
  0
ARC
  5
1E810
  8
0
 10
3405.3081120526007908
 20
131.9625398421073896
 30
0.0
 40
2.4168690535975679
 50
252.5984597912820959
 51
287.4015402087179041
  0
LINE
  5
1E811
  8
0
 10
3404.3470093503010503
 20
135.4718609910098053
 30
0.0
 11
3406.269214754900986
 21
135.4718609910098053
 31
0.0
  0
LINE
  5
1E812
  8
0
 10
3404.7182676592610733
 20
134.2615353197072068
 30
0.0
 11
3405.897956445940963
 21
134.2615353197072068
 31
0.0
  0
LINE
  5
1E813
  8
0
 10
3404.3535073015341368
 20
134.4383637109638983
 30
0.0
 11
3404.3470093503010503
 21
135.4718609910098053
 31
0.0
  0
ARC
  5
1E814
  8
0
 10
3404.7184605256829855
 20
134.241383717345002
 30
0.0
 40
0.020152525281522
 50
90.548348186769033
 51
179.5868393283624016
  0
LINE
  5
1E815
  8
0
 10
3405.9104742687009093
 20
133.3948341482146986
 30
0.0
 11
3405.9104742687009093
 21
134.2570222164974041
 31
0.0
  0
LINE
  5
1E816
  8
0
 10
3405.9234715272777976
 20
133.1264530744132912
 30
0.0
 11
3405.9232901955879242
 21
133.1628462634164123
 31
0.0
  0
LINE
  5
1E817
  8
0
 10
3405.9227872452779593
 20
133.263788165557088
 30
0.0
 11
3405.9179155808501491
 21
134.2415290362276892
 31
0.0
  0
ARC
  5
1E818
  8
0
 10
3402.0641670518921273
 20
134.4776800993624875
 30
0.0
 40
4.1987338325421213
 50
341.678360937588991
 51
359.4634820563165931
  0
LINE
  5
1E819
  8
0
 10
3406.2627168036678995
 20
134.4383637109638983
 30
0.0
 11
3406.269214754900986
 21
135.4718609910098053
 31
0.0
  0
ARC
  5
1E81A
  8
0
 10
3405.8977635795190508
 20
134.241383717345002
 30
0.0
 40
0.020152525281522
 50
0.4131606716375055
 51
89.4516518132309812
  0
LINE
  5
1E81B
  8
0
 10
3405.1998443247011892
 20
135.3616247705099056
 30
0.0
 11
3405.4163797578012236
 21
135.3616247705099056
 31
0.0
  0
ARC
  5
1E81C
  8
0
 10
3405.4163797578012236
 20
135.3517822509099062
 30
0.0
 40
0.0098425195999994
 50
359.999999417863819
 51
90.0
  0
LINE
  5
1E81D
  8
0
 10
3405.4262222774009388
 20
135.351782250809805
 30
0.0
 11
3405.4262222756010488
 21
135.1746168965098036
 31
0.0
  0
ARC
  5
1E81E
  8
0
 10
3405.41637975580079
 20
135.1746168966097912
 30
0.0
 40
0.0098425198000029
 50
270.0000116426970749
 51
359.999999417863819
  0
LINE
  5
1E81F
  8
0
 10
3405.4163797578012236
 20
135.1647743768097882
 30
0.0
 11
3405.1998443247011892
 21
135.1647743328090883
 31
0.0
  0
ARC
  5
1E820
  8
0
 10
3405.1998443227012103
 20
135.1746168505090964
 30
0.0
 40
0.0098425177000794
 50
179.9997322182734081
 51
270.0000116427232228
  0
LINE
  5
1E821
  8
0
 10
3405.1900018050018843
 20
135.1746168965098036
 30
0.0
 11
3405.1900026330140463
 21
135.3517822508079007
 31
0.0
  0
ARC
  5
1E822
  8
0
 10
3405.1998451987551562
 20
135.3517822048069945
 30
0.0
 40
0.0098425657416615
 50
90.0050880667091633
 51
179.999732218276705
  0
ARC
  5
1E823
  8
0
 10
3405.9863842529280191
 20
133.1816748642308994
 30
0.0
 40
0.0679972450419422
 50
279.9704596385145123
 51
339.447966899457299
  0
LINE
  5
1E824
  8
0
 10
3405.998157323867872
 20
133.1147045713098009
 30
0.0
 11
3405.945902266846133
 21
133.1072041644927992
 31
0.0
  0
ARC
  5
1E825
  8
0
 10
3405.9430749435978214
 20
133.1266032034743034
 30
0.0
 40
0.0196039911791436
 50
180.4387803265508978
 51
278.292218996986378
  0
LINE
  5
1E826
  8
0
 10
3405.9023639510010071
 20
133.0414044263098106
 30
0.0
 11
3405.9161981885508794
 21
133.1452171272098042
 31
0.0
  0
ARC
  5
1E827
  8
0
 10
3405.8292161821200352
 20
133.190450115143193
 30
0.0
 40
0.0980402603019769
 50
332.524352706364823
 51
3.4463570528940282
  0
LINE
  5
1E828
  8
0
 10
3404.7057498336348544
 20
133.394834123099514
 30
0.0
 11
3404.7057498336348544
 21
134.2570222164974041
 31
0.0
  0
LINE
  5
1E829
  8
0
 10
3404.6927525750579662
 20
133.1264530744132912
 30
0.0
 11
3404.6929339067960427
 21
133.1628462730182889
 31
0.0
  0
LINE
  5
1E82A
  8
0
 10
3404.6934368568508944
 20
133.2637881239855062
 30
0.0
 11
3404.6983085214869789
 21
134.2415290362276892
 31
0.0
  0
ARC
  5
1E82B
  8
0
 10
3408.5520570504450006
 20
134.4776800993624875
 30
0.0
 40
4.1987338325421213
 50
180.5365179436832932
 51
198.321639062411009
  0
ARC
  5
1E82C
  8
0
 10
3404.6298398494081994
 20
133.1816748642308994
 30
0.0
 40
0.0679972450419422
 50
200.5520331005425874
 51
260.0295403614854877
  0
LINE
  5
1E82D
  8
0
 10
3404.6180667784678917
 20
133.1147045713098009
 30
0.0
 11
3404.670321835490995
 21
133.1072041644927992
 31
0.0
  0
ARC
  5
1E82E
  8
0
 10
3404.6731491587388518
 20
133.1266032034743034
 30
0.0
 40
0.0196039911791436
 50
261.7077810030135083
 51
359.5612196734489885
  0
ARC
  5
1E82F
  8
0
 10
3407.9899259310482194
 20
133.020154117490506
 30
0.0
 40
3.3054799568924058
 50
166.635117182418611
 51
176.9445568003424114
  0
ARC
  5
1E830
  8
0
 10
3388.317539863687216
 20
131.6680593021991967
 30
0.0
 40
16.4537350136385996
 50
1.3123452449491899
 51
4.7878814338595781
  0
ARC
  5
1E831
  8
0
 10
3403.9017053758730071
 20
133.388923834961787
 30
0.0
 40
1.5984609751638521
 50
291.2930912050210281
 51
302.7724660615223229
  0
ARC
  5
1E832
  8
0
 10
3405.1582879550560392
 20
130.2026777019817132
 30
0.0
 40
1.826641898778596
 50
111.7244547356575026
 51
132.7480994723819947
  0
ARC
  5
1E833
  8
0
 10
3404.6570823775678036
 20
130.7344679998427921
 30
0.0
 40
1.0959407691969281
 50
132.3773728848927078
 51
177.4750116458988884
  0
ARC
  5
1E834
  8
0
 10
3404.554671919142038
 20
130.8034493358269117
 30
0.0
 40
0.9926821036888378
 50
181.1948269479709097
 51
221.2870811708372116
  0
ARC
  5
1E835
  8
0
 10
3405.0785815603730953
 20
131.293307947879498
 30
0.0
 40
1.7097257559587951
 50
222.0375501625906907
 51
253.2311933939137987
  0
ARC
  5
1E836
  8
0
 10
3404.9245600632639253
 20
130.6667015905645997
 30
0.0
 40
1.467314751575602
 50
211.4141683135426035
 51
245.8116439624895122
  0
ARC
  5
1E837
  8
0
 10
3404.5232340413540442
 20
130.3889335356223
 30
0.0
 40
0.9804321772703101
 50
177.8977022474271052
 51
209.7850157727696114
  0
LINE
  5
1E838
  8
0
 10
3403.5434617700011586
 20
130.4248994989098094
 30
0.0
 11
3403.5622056541010352
 21
130.7827497769098102
 31
0.0
  0
LINE
  5
1E839
  8
0
 10
3404.7138601542010292
 20
133.0414044263098106
 30
0.0
 11
3404.7000259166511569
 21
133.1452171272098042
 31
0.0
  0
ARC
  5
1E83A
  8
0
 10
3404.7870079230820011
 20
133.190450115143193
 30
0.0
 40
0.0980402603019769
 50
176.5536429471059989
 51
207.4756472936336991
  0
LINE
  5
1E83C
  8
0
 10
3400.7127822841262059
 20
133.5923311888097942
 30
0.0
 11
3404.4060157932508446
 21
133.8145755147137947
 31
0.0
  0
LINE
  5
1E83D
  8
0
 10
3400.7127822841262059
 20
133.1762794337097944
 30
0.0
 11
3404.4929850288431226
 21
133.4037619833111989
 31
0.0
  0
LINE
  5
1E83E
  8
0
 10
3401.3820736227007728
 20
135.4521759517099042
 30
0.0
 11
3401.3820736227007728
 21
135.3252063589488046
 31
0.0
  0
ARC
  5
1E83F
  8
0
 10
3401.3623885833007989
 20
135.4521759517099042
 30
0.0
 40
0.0196850393999846
 50
359.9999999999575948
 51
89.9942247829432063
  0
ARC
  5
1E840
  8
0
 10
3401.184959696531223
 20
135.330342111974204
 30
0.0
 40
0.1971808201860411
 50
308.0221655061670845
 51
358.5075107559446224
  0
ARC
  5
1E841
  8
0
 10
2788.5653685307488558
 20
918.8227090932449528
 30
0.0
 40
994.7639471049059239
 50
307.9778309162107917
 51
308.0221655061670845
  0
ARC
  5
1E842
  8
0
 10
3400.6514298524011792
 20
134.7631995737098123
 30
0.0
 40
0.0787401574999436
 50
270.0
 51
307.9551596743872892
  0
LINE
  5
1E843
  8
0
 10
3400.6514298524011792
 20
134.6844594162097906
 30
0.0
 11
3399.5142921962010405
 21
134.6844594162097906
 31
0.0
  0
LINE
  5
1E844
  8
0
 10
3401.3064164328011429
 20
135.1750084805098027
 30
0.0
 11
3398.8593056158010768
 21
135.1750084805098027
 31
0.0
  0
LINE
  5
1E845
  8
0
 10
3399.5008552401877751
 20
133.9915536989990983
 30
0.0
 11
3394.7593549973639711
 21
133.9915536989990983
 31
0.0
  0
LINE
  5
1E846
  8
0
 10
3400.7127822841262059
 20
133.9718609648064955
 30
0.0
 11
3399.5225599361110653
 21
133.9718609648064955
 31
0.0
  0
ARC
  5
1E847
  8
0
 10
3399.500619793048827
 20
133.9694867220686092
 30
0.0
 40
0.0220682329651447
 50
6.1762019148141754
 51
89.3886967145926121
  0
LINE
  5
1E848
  8
0
 10
3400.5986090558008073
 20
134.6844594162097906
 30
0.0
 11
3400.5986090558008073
 21
134.6293413060097919
 31
0.0
  0
LINE
  5
1E849
  8
0
 10
3400.6537271660008628
 20
134.6293413060097919
 30
0.0
 11
3399.5119948826009022
 21
134.6293413060097919
 31
0.0
  0
LINE
  5
1E84A
  8
0
 10
3400.7127822841011948
 20
134.5702861879098009
 30
0.0
 11
3400.7127822841011948
 21
134.0978452430098002
 31
0.0
  0
LINE
  5
1E84B
  8
0
 10
3400.6537271660008628
 20
134.6293413060097919
 30
0.0
 11
3400.7127822841011948
 21
134.5702861879098009
 31
0.0
  0
LINE
  5
1E84C
  8
0
 10
3400.7127822841011948
 20
134.5702861879098009
 30
0.0
 11
3400.70389501010186
 21
134.5702861879098009
 31
0.0
  0
ARC
  5
1E84D
  8
0
 10
3400.5942933494011413
 20
134.4375509442982093
 30
0.0
 40
0.1721370643552187
 50
50.4529555924346624
 51
129.5470444075652949
  0
LINE
  5
1E84E
  8
0
 10
3400.4846916887008774
 20
134.5702861879098009
 30
0.0
 11
3400.3024320298350176
 21
134.5702861879098009
 31
0.0
  0
LINE
  5
1E84F
  8
0
 10
3400.4962468511012048
 20
133.9718609648064955
 30
0.0
 11
3400.4962468511012048
 21
134.0387901249098093
 31
0.0
  0
LINE
  5
1E850
  8
0
 10
3400.6537271660008628
 20
134.0387901249098093
 30
0.0
 11
3400.7127822841011948
 21
134.0978452430098002
 31
0.0
  0
LINE
  5
1E851
  8
0
 10
3400.7127822841011948
 20
134.0978452430098002
 30
0.0
 11
3400.70389501010186
 21
134.0978452430098002
 31
0.0
  0
ARC
  5
1E852
  8
0
 10
3400.5942933494011413
 20
134.2305804866215055
 30
0.0
 40
0.1721370643552187
 50
230.4529555924345914
 51
309.5470444075654086
  0
LINE
  5
1E853
  8
0
 10
3400.4846916887008774
 20
134.0978452430098002
 30
0.0
 11
3400.3024320298350176
 21
134.0978452430098002
 31
0.0
  0
LINE
  5
1E854
  8
0
 10
3400.6537271660008628
 20
134.0387901249098093
 30
0.0
 11
3399.5119948826009022
 21
134.0387901249098093
 31
0.0
  0
LINE
  5
1E855
  8
0
 10
3400.7038950101009505
 20
134.5702861879098009
 30
0.0
 11
3400.70389501010186
 21
134.0978452430098002
 31
0.0
  0
LINE
  5
1E856
  8
0
 10
3400.4846916887008774
 20
134.0978452430098002
 30
0.0
 11
3400.4846916887008774
 21
134.5702861879098009
 31
0.0
  0
LINE
  5
1E857
  8
0
 10
3400.3024320298350176
 20
134.0978452430098002
 30
0.0
 11
3400.3024320298350176
 21
134.5702861879098009
 31
0.0
  0
LINE
  5
1E858
  8
0
 10
3400.7127822841262059
 20
133.9718609648064955
 30
0.0
 11
3400.7127822841262059
 21
133.1016546608597935
 31
0.0
  0
ARC
  5
1E85A
  8
0
 10
3400.6929909946188673
 20
133.1028987852488967
 30
0.0
 40
0.0198303551620062
 50
279.3276921672878075
 51
356.4029931857112956
  0
ARC
  5
1E85B
  8
0
 10
3400.0698761433250183
 20
140.3790272069942091
 30
0.0
 40
7.3225321043915637
 50
270.101601366202317
 51
274.9067602110553139
  0
ARC
  5
1E85C
  8
0
 10
3398.9752303620730345
 20
1840378.0429526111111045
 30
0.0
 40
1840244.9864463289268315
 50
269.9999885047225803
 51
270.0000344859362826
  0
ARC
  5
1E85D
  8
0
 10
3398.5965262003878706
 20
132.4801129218552092
 30
0.0
 40
0.5764715947913316
 50
89.0562654779644873
 51
166.6582543821589013
  0
LINE
  5
1E85E
  8
0
 10
3398.7836484259009922
 20
135.4521759517099042
 30
0.0
 11
3398.7836484259009922
 21
135.3252063589488046
 31
0.0
  0
ARC
  5
1E85F
  8
0
 10
3398.8033334653009661
 20
135.4521759517099042
 30
0.0
 40
0.0196850393999846
 50
90.0057752170567937
 51
180.0000000000406999
  0
ARC
  5
1E860
  8
0
 10
3398.9807623520709967
 20
135.330342111974204
 30
0.0
 40
0.1971808201860411
 50
181.4924892440552924
 51
231.9778344938328019
  0
ARC
  5
1E861
  8
0
 10
4011.6003535178529091
 20
918.8227090932449528
 30
0.0
 40
994.7639471049059239
 50
231.9778344938328019
 51
232.0221690837892936
  0
ARC
  5
1E862
  8
0
 10
3399.5142921962010405
 20
134.7631995737098123
 30
0.0
 40
0.0787401574999436
 50
232.0448403256125971
 51
270.0
  0
LINE
  5
1E863
  8
0
 10
3399.5671129928009577
 20
134.6844594162097906
 30
0.0
 11
3399.5671129928009577
 21
134.6293413060097919
 31
0.0
  0
LINE
  5
1E864
  8
0
 10
3399.4529397645010249
 20
134.5702861879098009
 30
0.0
 11
3399.4529397645010249
 21
134.0978452430098002
 31
0.0
  0
LINE
  5
1E865
  8
0
 10
3399.5119948826009022
 20
134.6293413060097919
 30
0.0
 11
3399.4529397645010249
 21
134.5702861879098009
 31
0.0
  0
LINE
  5
1E866
  8
0
 10
3399.4529397645010249
 20
134.5702861879098009
 30
0.0
 11
3399.4618270385008145
 21
134.5702861879098009
 31
0.0
  0
ARC
  5
1E867
  8
0
 10
3399.5714286992001689
 20
134.4375509442982093
 30
0.0
 40
0.1721370643552187
 50
50.4529555924346624
 51
129.5470444075652949
  0
LINE
  5
1E868
  8
0
 10
3399.6810303599008876
 20
134.5702861879098009
 30
0.0
 11
3399.8632900187672021
 21
134.5702861879098009
 31
0.0
  0
LINE
  5
1E869
  8
0
 10
3399.6694751975010149
 20
133.9718609648064955
 30
0.0
 11
3399.6694751975010149
 21
134.0387901249098093
 31
0.0
  0
LINE
  5
1E86A
  8
0
 10
3399.5119948826009022
 20
134.0387901249098093
 30
0.0
 11
3399.4529397645010249
 21
134.0978452430098002
 31
0.0
  0
LINE
  5
1E86B
  8
0
 10
3399.4529397645010249
 20
134.0978452430098002
 30
0.0
 11
3399.4618270385008145
 21
134.0978452430098002
 31
0.0
  0
ARC
  5
1E86C
  8
0
 10
3399.5714286992001689
 20
134.2305804866215055
 30
0.0
 40
0.1721370643552187
 50
230.4529555924345914
 51
309.5470444075654086
  0
LINE
  5
1E86D
  8
0
 10
3399.6810303599008876
 20
134.0978452430098002
 30
0.0
 11
3399.8632900187672021
 21
134.0978452430098002
 31
0.0
  0
LINE
  5
1E86E
  8
0
 10
3399.4618270385008145
 20
134.5702861879098009
 30
0.0
 11
3399.4618270385008145
 21
134.0978452430098002
 31
0.0
  0
LINE
  5
1E86F
  8
0
 10
3399.6810303599008876
 20
134.0978452430098002
 30
0.0
 11
3399.6810303599008876
 21
134.5702861879098009
 31
0.0
  0
LINE
  5
1E870
  8
0
 10
3399.8632900187672021
 20
134.0978452430098002
 30
0.0
 11
3399.8632900187672021
 21
134.5702861879098009
 31
0.0
  0
ARC
  5
1E871
  8
0
 10
3400.0828610243011099
 20
133.9776815727308872
 30
0.0
 40
0.6319744111929976
 50
69.6693973592836784
 51
110.3306026407162932
  0
ARC
  5
1E872
  8
0
 10
3400.0828610243011099
 20
134.6904497455122964
 30
0.0
 40
0.6319743055358693
 50
249.6693938100582955
 51
290.3306061899415909
  0
LINE
  5
1E874
  8
0
 10
3398.0356129971250994
 20
130.1438183611745103
 30
0.0
 11
3398.0356129971250994
 21
131.3143806760097902
 31
0.0
  0
LINE
  5
1E875
  8
0
 10
3398.0356129971250994
 20
131.6733323652443914
 30
0.0
 11
3398.0356129971250994
 21
132.6131387765130967
 31
0.0
  0
ARC
  5
1E876
  8
0
 10
3398.0158895773038239
 20
130.1439323583475982
 30
0.0
 40
0.0197237492579939
 50
278.4875675301897786
 51
359.6688462624928775
  0
LINE
  5
1E877
  8
0
 10
3398.0356129971250994
 20
131.3143806760097902
 30
0.0
 11
3396.2245972404271015
 21
131.3143806760097902
 31
0.0
  0
ARC
  5
1E878
  8
0
 10
3397.1301051188011115
 20
131.6760011015097973
 30
0.0
 40
0.9055118109999659
 50
336.4621542190898253
 51
359.8311368839645752
  0
LINE
  5
1E879
  8
0
 10
3392.8978196700668377
 20
135.4718609910098053
 30
0.0
 11
3395.4568787564230661
 21
135.4718609910098053
 31
0.0
  0
LINE
  5
1E87A
  8
0
 10
3392.8781366148509733
 20
135.4521759517099042
 30
0.0
 11
3392.8781366148509733
 21
135.3252063589488046
 31
0.0
  0
ARC
  5
1E87B
  8
0
 10
3392.8978216542509472
 20
135.4521759517099042
 30
0.0
 40
0.0196850393999846
 50
90.0057752170567937
 51
180.0000000000406999
  0
ARC
  5
1E87C
  8
0
 10
3393.0752505410200683
 20
135.330342111974204
 30
0.0
 40
0.1971808201860411
 50
181.4924892440552924
 51
231.9778344938328019
  0
ARC
  5
1E87D
  8
0
 10
4005.6948417068028903
 20
918.8227090932449528
 30
0.0
 40
994.7639471049059239
 50
231.9778344938328019
 51
232.0221690837892936
  0
ARC
  5
1E87E
  8
0
 10
3393.6087803851510216
 20
134.7631995737098123
 30
0.0
 40
0.0787401574999436
 50
232.0448403256125971
 51
270.0
  0
LINE
  5
1E87F
  8
0
 10
3393.6087803851510216
 20
134.6844594162097906
 30
0.0
 11
3394.7459180413511604
 21
134.6844594162097906
 31
0.0
  0
LINE
  5
1E880
  8
0
 10
3392.9537938047510579
 20
135.1750084805098027
 30
0.0
 11
3395.4009046217511241
 21
135.1750084805098027
 31
0.0
  0
LINE
  5
1E881
  8
0
 10
3393.5474279534250854
 20
133.9718609648064955
 30
0.0
 11
3394.737650301440226
 21
133.9718609648064955
 31
0.0
  0
ARC
  5
1E882
  8
0
 10
3394.7595904445029191
 20
133.9694867220686092
 30
0.0
 40
0.0220682329651447
 50
90.6113032854073879
 51
173.823798085185814
  0
LINE
  5
1E883
  8
0
 10
3393.6616011817509388
 20
134.6844594162097906
 30
0.0
 11
3393.6616011817509388
 21
134.6293413060097919
 31
0.0
  0
LINE
  5
1E884
  8
0
 10
3393.6064830715508833
 20
134.6293413060097919
 30
0.0
 11
3394.7482153549508439
 21
134.6293413060097919
 31
0.0
  0
LINE
  5
1E885
  8
0
 10
3393.5474279534500965
 20
134.5702861879098009
 30
0.0
 11
3393.5474279534500965
 21
134.0978452430098002
 31
0.0
  0
LINE
  5
1E886
  8
0
 10
3393.6064830715508833
 20
134.6293413060097919
 30
0.0
 11
3393.5474279534500965
 21
134.5702861879098009
 31
0.0
  0
LINE
  5
1E887
  8
0
 10
3393.5474279534500965
 20
134.5702861879098009
 30
0.0
 11
3393.5563152274507956
 21
134.5702861879098009
 31
0.0
  0
ARC
  5
1E888
  8
0
 10
3393.6659168881510595
 20
134.4375509442982093
 30
0.0
 40
0.1721370643552187
 50
50.4529555924346624
 51
129.5470444075652949
  0
LINE
  5
1E889
  8
0
 10
3393.7755185488517782
 20
134.5702861879098009
 30
0.0
 11
3393.9577782077171832
 21
134.5702861879098009
 31
0.0
  0
LINE
  5
1E88A
  8
0
 10
3393.763963386450996
 20
133.9718609648064955
 30
0.0
 11
3393.763963386450996
 21
134.0387901249098093
 31
0.0
  0
LINE
  5
1E88B
  8
0
 10
3393.6064830715508833
 20
134.0387901249098093
 30
0.0
 11
3393.5474279534500965
 21
134.0978452430098002
 31
0.0
  0
LINE
  5
1E88C
  8
0
 10
3393.5474279534500965
 20
134.0978452430098002
 30
0.0
 11
3393.5563152274507956
 21
134.0978452430098002
 31
0.0
  0
ARC
  5
1E88D
  8
0
 10
3393.6659168881510595
 20
134.2305804866215055
 30
0.0
 40
0.1721370643552187
 50
230.4529555924345914
 51
309.5470444075654086
  0
LINE
  5
1E88E
  8
0
 10
3393.7755185488517782
 20
134.0978452430098002
 30
0.0
 11
3393.9577782077171832
 21
134.0978452430098002
 31
0.0
  0
LINE
  5
1E88F
  8
0
 10
3393.6064830715508833
 20
134.0387901249098093
 30
0.0
 11
3394.7482153549508439
 21
134.0387901249098093
 31
0.0
  0
LINE
  5
1E890
  8
0
 10
3393.5563152274507956
 20
134.5702861879098009
 30
0.0
 11
3393.5563152274507956
 21
134.0978452430098002
 31
0.0
  0
LINE
  5
1E891
  8
0
 10
3393.7755185488517782
 20
134.0978452430098002
 30
0.0
 11
3393.7755185488517782
 21
134.5702861879098009
 31
0.0
  0
LINE
  5
1E892
  8
0
 10
3393.9577782077171832
 20
134.0978452430098002
 30
0.0
 11
3393.9577782077171832
 21
134.5702861879098009
 31
0.0
  0
LINE
  5
1E893
  8
0
 10
3395.4765618116512087
 20
135.4521759517099042
 30
0.0
 11
3395.4765618116512087
 21
135.3252063589488046
 31
0.0
  0
ARC
  5
1E894
  8
0
 10
3395.45687677225078
 20
135.4521759517099042
 30
0.0
 40
0.0196850393999846
 50
359.9999999999575948
 51
89.9942247829432063
  0
ARC
  5
1E895
  8
0
 10
3395.2794478854812041
 20
135.330342111974204
 30
0.0
 40
0.1971808201860411
 50
308.0221655061670845
 51
358.5075107559446224
  0
ARC
  5
1E896
  8
0
 10
2782.6598567196979275
 20
918.8227090932449528
 30
0.0
 40
994.7639471049059239
 50
307.9778309162107917
 51
308.0221655061670845
  0
ARC
  5
1E897
  8
0
 10
3394.7459180413511604
 20
134.7631995737098123
 30
0.0
 40
0.0787401574999436
 50
270.0
 51
307.9551596743872892
  0
LINE
  5
1E898
  8
0
 10
3394.6930972447507884
 20
134.6844594162097906
 30
0.0
 11
3394.6930972447507884
 21
134.6293413060097919
 31
0.0
  0
LINE
  5
1E899
  8
0
 10
3394.8072704730511759
 20
134.5702861879098009
 30
0.0
 11
3394.8072704730511759
 21
134.0978452430098002
 31
0.0
  0
LINE
  5
1E89A
  8
0
 10
3394.7482153549508439
 20
134.6293413060097919
 30
0.0
 11
3394.8072704730511759
 21
134.5702861879098009
 31
0.0
  0
LINE
  5
1E89B
  8
0
 10
3394.8072704730511759
 20
134.5702861879098009
 30
0.0
 11
3394.7983831990509316
 21
134.5702861879098009
 31
0.0
  0
ARC
  5
1E89C
  8
0
 10
3394.6887815383511224
 20
134.4375509442982093
 30
0.0
 40
0.1721370643552187
 50
50.4529555924346624
 51
129.5470444075652949
  0
LINE
  5
1E89D
  8
0
 10
3394.5791798776508585
 20
134.5702861879098009
 30
0.0
 11
3394.3969202187849987
 21
134.5702861879098009
 31
0.0
  0
LINE
  5
1E89E
  8
0
 10
3394.5907350400511859
 20
133.9718609648064955
 30
0.0
 11
3394.5907350400511859
 21
134.0387901249098093
 31
0.0
  0
LINE
  5
1E89F
  8
0
 10
3394.7482153549508439
 20
134.0387901249098093
 30
0.0
 11
3394.8072704730511759
 21
134.0978452430098002
 31
0.0
  0
LINE
  5
1E8A0
  8
0
 10
3394.8072704730511759
 20
134.0978452430098002
 30
0.0
 11
3394.7983831990509316
 21
134.0978452430098002
 31
0.0
  0
ARC
  5
1E8A1
  8
0
 10
3394.6887815383511224
 20
134.2305804866215055
 30
0.0
 40
0.1721370643552187
 50
230.4529555924345914
 51
309.5470444075654086
  0
LINE
  5
1E8A2
  8
0
 10
3394.5791798776508585
 20
134.0978452430098002
 30
0.0
 11
3394.3969202187849987
 21
134.0978452430098002
 31
0.0
  0
LINE
  5
1E8A3
  8
0
 10
3394.7983831990509316
 20
134.5702861879098009
 30
0.0
 11
3394.7983831990509316
 21
134.0978452430098002
 31
0.0
  0
LINE
  5
1E8A4
  8
0
 10
3394.5791798776508585
 20
134.0978452430098002
 30
0.0
 11
3394.5791798776508585
 21
134.5702861879098009
 31
0.0
  0
LINE
  5
1E8A5
  8
0
 10
3394.3969202187849987
 20
134.0978452430098002
 30
0.0
 11
3394.3969202187849987
 21
134.5702861879098009
 31
0.0
  0
ARC
  5
1E8A6
  8
0
 10
3394.177349213251091
 20
133.9776815727308872
 30
0.0
 40
0.6319744111929976
 50
69.6693973592836784
 51
110.3306026407162932
  0
ARC
  5
1E8A7
  8
0
 10
3394.177349213251091
 20
134.6904497455122964
 30
0.0
 40
0.6319743055358693
 50
249.6693938100582955
 51
290.3306061899415909
  0
LINE
  5
1E8A8
  8
0
 10
3396.2245972404271015
 20
130.1438183611745103
 30
0.0
 11
3396.2245972404271015
 21
131.3143806760097902
 31
0.0
  0
LINE
  5
1E8A9
  8
0
 10
3396.2245972404271015
 20
131.6733323652443914
 30
0.0
 11
3396.2245972404271015
 21
132.6131387765130114
 31
0.0
  0
ARC
  5
1E8AA
  8
0
 10
3396.2443206602470127
 20
130.1439323583475982
 30
0.0
 40
0.0197237492579939
 50
180.3311537375053888
 51
261.5124324698101077
  0
ARC
  5
1E8AB
  8
0
 10
3397.1301051187510893
 20
131.6760011015097973
 30
0.0
 40
0.9055118109999659
 50
180.1688631160336911
 51
203.5378457809088104
  0
ARC
  5
1E8AC
  8
0
 10
3397.1301051187761004
 20
142.8347842062204052
 30
0.0
 40
12.7413900541694698
 50
266.0004456384659193
 51
273.9995543615340807
  0
CIRCLE
  5
1E8AD
  8
0
 10
3397.1301051187761004
 20
131.0028618774427969
 30
0.0
 40
0.1475401511052994
  0
LINE
  5
1E8AE
  8
0
 10
3393.5474279534250854
 20
133.9718609648064955
 30
0.0
 11
3393.5474279534250854
 21
133.1016546608597935
 31
0.0
  0
ARC
  5
1E8B0
  8
0
 10
3393.5672192429328788
 20
133.1028987852488967
 30
0.0
 40
0.0198303551620062
 50
183.5970068142887044
 51
260.6723078327121925
  0
ARC
  5
1E8B1
  8
0
 10
3394.1903340942271825
 20
140.3790272069942091
 30
0.0
 40
7.3225321043915637
 50
265.0932397889447998
 51
269.898398633797683
  0
ARC
  5
1E8B2
  8
0
 10
3395.2849798754791664
 20
1840378.0429526111111045
 30
0.0
 40
1840244.9864463289268315
 50
269.9999655140636037
 51
270.0000114952774197
  0
ARC
  5
1E8B3
  8
0
 10
3395.663684037164785
 20
132.4801129218552092
 30
0.0
 40
0.5764715947913316
 50
13.3417456178410596
 51
90.9437345220354985
  0
ARC
  5
1E906
  8
0
 10
3405.3081120526007908
 20
131.482024895930607
 30
0.0
 40
2.3682639049206098
 50
245.4291771318258952
 51
294.5708228681735932
  0
ENDSEC
  0
EOF
