  0
SECTION
  2
HEADER
  9
$ACADVER
  1
AC1009
  9
$INSBASE
 10
232.4789081343475061
 20
10.9044535827836704
 30
0.0
  9
$EXTMIN
 10
127.8556887393520043
 20
-18.1715817142121487
 30
0.0
  9
$EXTMAX
 10
262.0010585120010091
 20
15.4436639623418905
 30
0.0
  9
$LIMMIN
 10
0.0
 20
0.0
  9
$LIMMAX
 10
22.0
 20
17.0
  9
$ORTHOMODE
 70
     0
  9
$REGENMODE
 70
     1
  9
$FILLMODE
 70
     1
  9
$QTEXTMODE
 70
     0
  9
$MIRRTEXT
 70
     0
  9
$DRAGMODE
 70
     2
  9
$LTSCALE
 40
1.2099999999999991
  9
$OSMODE
 70
  4095
  9
$ATTMODE
 70
     1
  9
$TEXTSIZE
 40
0.2
  9
$TRACEWID
 40
0.05
  9
$TEXTSTYLE
  7
STANDARD
  9
$CLAYER
  8
0
  9
$CELTYPE
  6
BYLAYER
  9
$CECOLOR
 62
   256
  9
$DIMSCALE
 40
1.0
  9
$DIMASZ
 40
0.1875
  9
$DIMEXO
 40
0.0625
  9
$DIMDLI
 40
0.8359999999999999
  9
$DIMRND
 40
0.0
  9
$DIMDLE
 40
0.0
  9
$DIMEXE
 40
0.125
  9
$DIMTP
 40
0.01
  9
$DIMTM
 40
0.01
  9
$DIMTXT
 40
0.15625
  9
$DIMCEN
 40
0.198
  9
$DIMTSZ
 40
0.0
  9
$DIMTOL
 70
     1
  9
$DIMLIM
 70
     0
  9
$DIMTIH
 70
     1
  9
$DIMTOH
 70
     1
  9
$DIMSE1
 70
     0
  9
$DIMSE2
 70
     0
  9
$DIMTAD
 70
     0
  9
$DIMZIN
 70
     0
  9
$DIMBLK
  1

  9
$DIMASO
 70
     1
  9
$DIMSHO
 70
     1
  9
$DIMPOST
  1

  9
$DIMAPOST
  1

  9
$DIMALT
 70
     0
  9
$DIMALTD
 70
     2
  9
$DIMALTF
 40
25.3999999999999986
  9
$DIMLFAC
 40
1.0
  9
$DIMTOFL
 70
     0
  9
$DIMTVP
 40
0.0
  9
$DIMTIX
 70
     0
  9
$DIMSOXD
 70
     0
  9
$DIMSAH
 70
     0
  9
$DIMBLK1
  1

  9
$DIMBLK2
  1

  9
$DIMSTYLE
  2
STANDARD
  9
$DIMCLRD
 70
     0
  9
$DIMCLRE
 70
     0
  9
$DIMCLRT
 70
     0
  9
$DIMTFAC
 40
1.0
  9
$DIMGAP
 40
0.09
  9
$LUNITS
 70
     2
  9
$LUPREC
 70
     4
  9
$SKETCHINC
 40
0.1
  9
$FILLETRAD
 40
0.0
  9
$AUNITS
 70
     0
  9
$AUPREC
 70
     0
  9
$MENU
  1
.
  9
$ELEVATION
 40
0.0
  9
$PELEVATION
 40
0.0
  9
$THICKNESS
 40
0.0
  9
$LIMCHECK
 70
     0
  9
$BLIPMODE
 70
     0
  9
$CHAMFERA
 40
0.0
  9
$CHAMFERB
 40
0.0
  9
$SKPOLY
 70
     0
  9
$TDCREATE
 40
2457413.4551851851865649
  9
$TDUPDATE
 40
2459123.0021643522195518
  9
$TDINDWG
 40
0.170351956
  9
$TDUSRTIMER
 40
0.170351956
  9
$USRTIMER
 70
     1
  9
$ANGBASE
 50
0.0
  9
$ANGDIR
 70
     0
  9
$PDMODE
 70
     0
  9
$PDSIZE
 40
0.3125
  9
$PLINEWID
 40
0.0
  9
$COORDS
 70
     1
  9
$SPLFRAME
 70
     0
  9
$SPLINETYPE
 70
     6
  9
$SPLINESEGS
 70
     8
  9
$ATTDIA
 70
     1
  9
$ATTREQ
 70
     1
  9
$HANDLING
 70
     1
  9
$HANDSEED
  5
1CE6
  9
$SURFTAB1
 70
     6
  9
$SURFTAB2
 70
     6
  9
$SURFTYPE
 70
     6
  9
$SURFU
 70
     6
  9
$SURFV
 70
     6
  9
$UCSNAME
  2

  9
$UCSORG
 10
0.0
 20
0.0
 30
0.0
  9
$UCSXDIR
 10
1.0
 20
0.0
 30
0.0
  9
$UCSYDIR
 10
0.0
 20
1.0
 30
0.0
  9
$PUCSNAME
  2

  9
$PUCSORG
 10
0.0
 20
0.0
 30
0.0
  9
$PUCSXDIR
 10
1.0
 20
0.0
 30
0.0
  9
$PUCSYDIR
 10
0.0
 20
1.0
 30
0.0
  9
$USERI1
 70
     0
  9
$USERI2
 70
     0
  9
$USERI3
 70
     0
  9
$USERI4
 70
     0
  9
$USERI5
 70
     0
  9
$USERR1
 40
0.0
  9
$USERR2
 40
0.0
  9
$USERR3
 40
0.0
  9
$USERR4
 40
0.0
  9
$USERR5
 40
0.0
  9
$WORLDVIEW
 70
     1
  9
$SHADEDGE
 70
     3
  9
$SHADEDIF
 70
    70
  9
$TILEMODE
 70
     1
  9
$MAXACTVP
 70
    64
  9
$PLIMCHECK
 70
     0
  9
$PEXTMIN
 10
1.0000000000000000E+20
 20
1.0000000000000000E+20
 30
1.0000000000000000E+20
  9
$PEXTMAX
 10
-1.0000000000000000E+20
 20
-1.0000000000000000E+20
 30
-1.0000000000000000E+20
  9
$PLIMMIN
 10
0.0
 20
0.0
  9
$PLIMMAX
 10
12.0
 20
9.0
  9
$UNITMODE
 70
     0
  9
$VISRETAIN
 70
     1
  9
$PLINEGEN
 70
     0
  9
$PSLTSCALE
 70
     1
  0
ENDSEC
  0
SECTION
  2
TABLES
  0
TABLE
  2
VPORT
 70
     1
  0
VPORT
  2
*ACTIVE
 70
     0
 10
0.0
 20
0.0
 11
1.0
 21
1.0
 12
212.3383462818945873
 22
3.5386493154134082
 13
0.0
 23
0.0
 14
1.0
 24
1.0
 15
0.0
 25
0.0
 16
-0.0000000000000053
 26
0.0
 36
23.7775983911410194
 17
7.7199220657348633
 27
10.9499638080596906
 37
0.0
 40
173.1062293819095999
 41
2.005224660397074
 42
50.0
 43
0.0
 44
0.0
 50
0.0
 51
0.0
 71
     0
 72
   100
 73
     1
 74
     1
 75
     0
 76
     0
 77
     0
 78
     0
  0
ENDTAB
  0
TABLE
  2
LTYPE
 70
     1
  0
LTYPE
  2
CONTINUOUS
 70
     0
  3
Solid line
 72
    65
 73
     0
 40
0.0
  0
ENDTAB
  0
TABLE
  2
LAYER
 70
     2
  0
LAYER
  2
0
 70
     0
 62
     7
  6
CONTINUOUS
  0
LAYER
  2
DEFPOINTS
 70
     0
 62
     7
  6
CONTINUOUS
  0
ENDTAB
  0
TABLE
  2
STYLE
 70
     1
  0
STYLE
  2
STANDARD
 70
     0
 40
0.0
 41
0.8
 50
0.0
 71
     0
 42
0.2
  3
txt
  4

  0
ENDTAB
  0
TABLE
  2
VIEW
 70
     0
  0
ENDTAB
  0
TABLE
  2
UCS
 70
     0
  0
ENDTAB
  0
TABLE
  2
APPID
 70
     4
  0
APPID
  2
ACAD
 70
     0
  0
APPID
  2
ACAD_MLEADERVER
 70
     0
  0
APPID
  2
ACAD_NAV_VCDISPLAY
 70
     0
  0
APPID
  2
ACDBATTR
 70
     0
  0
ENDTAB
  0
TABLE
  2
DIMSTYLE
 70
     1
  0
DIMSTYLE
  2
STANDARD
 70
     0
  3

  4

  5

  6

  7

 40
1.0
 41
0.1875
 42
0.0625
 43
0.38
 44
0.125
 45
0.0
 46
0.0
 47
0.01
 48
0.01
140
0.15625
141
0.09
142
0.0
143
25.3999999999999986
144
1.0
145
0.0
146
1.0
147
0.09
 71
     1
 72
     0
 73
     1
 74
     1
 75
     0
 76
     0
 77
     0
 78
     4
170
     0
171
     2
172
     0
173
     0
174
     0
175
     0
176
     0
177
     0
178
     0
  0
ENDTAB
  0
ENDSEC
  0
SECTION
  2
BLOCKS
  0
BLOCK
  8
0
  2
$MODEL_SPACE
 70
     0
 10
0.0
 20
0.0
 30
0.0
  3
$MODEL_SPACE
  1

  0
ENDBLK
  5
21
  8
0
  0
BLOCK
 67
     1
  8
0
  2
$PAPER_SPACE
 70
     0
 10
0.0
 20
0.0
 30
0.0
  3
$PAPER_SPACE
  1

  0
ENDBLK
  5
1D
 67
     1
  8
0
  0
BLOCK
  8
0
  2
_FILLED
 70
     0
 10
0.0
 20
0.0
 30
0.0
  3
_FILLED
  1

  0
SOLID
  5
BDD
  8
0
  6
BYBLOCK
 62
     0
 10
0.0
 20
0.0
 30
0.0
 11
-1.0
 21
0.1666666667
 31
0.0
 12
-1.0
 22
-0.1666666667
 32
0.0
 13
-1.0
 23
-0.1666666667
 33
0.0
  0
ENDBLK
  5
BDE
  8
0
  6
BYBLOCK
 62
     0
  0
BLOCK
  8
0
  2
A$C7F95F54A
 70
     0
 10
0.0
 20
0.0
 30
0.0
  3
A$C7F95F54A
  1

  0
ARC
  5
192A
  8
0
 10
175.23664972997679
 20
64.939153363645957
 30
0.0
 40
0.3937007874000089
 50
87.9999999262008004
 51
174.999999999999801
  0
ARC
  5
192B
  8
0
 10
175.4898050838141046
 20
110.5791915037402049
 30
0.0
 40
45.2472105952657486
 50
269.6968309105383241
 51
270.3311896992108245
  0
LINE
  5
192C
  8
0
 10
174.8502199426768016
 20
64.9733523824459667
 30
0.0
 11
174.7725307309233074
 21
64.1514588689459515
 31
0.0
  0
LINE
  5
192D
  8
0
 10
177.9542459657768063
 20
64.1514588689459657
 30
0.0
 11
179.1399664195743924
 21
50.5986190006906611
 31
0.0
  0
ARC
  5
192E
  8
0
 10
182.4736898875275983
 20
50.8902825284642688
 30
0.0
 40
3.346457795074572
 50
185.0000088179949955
 51
267.9999728775741232
  0
LINE
  5
192F
  8
0
 10
182.3568986115768098
 20
47.5458633603459617
 30
0.0
 11
183.746724714976807
 21
47.4973295633459571
 31
0.0
  0
ARC
  5
1930
  8
0
 10
183.7041308408805094
 20
46.2776006008391505
 30
0.0
 40
1.220472441347388
 50
56.3180662958223834
 51
87.999999992764927
  0
LINE
  5
1931
  8
0
 10
184.9454038498882937
 20
47.4973295633459571
 30
0.0
 11
183.746724714976807
 21
47.4973295633459571
 31
0.0
  0
LINE
  5
1932
  8
0
 10
184.3808083651771881
 20
47.2933075015738922
 30
0.0
 11
184.9704703955281104
 21
47.293191152759043
 31
0.0
  0
ARC
  5
1933
  8
0
 10
185.0344958919739042
 20
49.2523868788686272
 30
0.0
 40
0.3573648133579406
 50
171.5842902819742903
 51
187.1967878969782078
  0
ARC
  5
1934
  8
0
 10
184.9290489734937921
 20
49.2698688754418086
 30
0.0
 40
0.2505016709521271
 50
154.8389856894764876
 51
172.0099836978193082
  0
ARC
  5
1935
  8
0
 10
184.7941003909338917
 20
49.3374111345314077
 30
0.0
 40
0.0997118271633269
 50
120.5948481217150032
 51
156.9991266577027886
  0
ARC
  5
1936
  8
0
 10
184.7700805957258865
 20
49.3733147589191717
 30
0.0
 40
0.0566321886650321
 50
89.7163808714273188
 51
118.1636760126610994
  0
ARC
  5
1937
  8
0
 10
184.8733498563159969
 20
48.6022515070809575
 30
0.0
 40
0.1168306067355792
 50
188.7568417273137982
 51
244.2825808822144893
  0
ARC
  5
1938
  8
0
 10
185.0555909935548016
 20
47.0845297339889015
 30
0.0
 40
0.0590551170429418
 50
186.9999989551652959
 51
270.0000008945611967
  0
ARC
  5
1939
  8
0
 10
185.6661233672892877
 20
47.0845297350148471
 30
0.0
 40
0.059055118068899
 50
269.9999999879591996
 51
357.0000001032523187
  0
ARC
  5
193A
  8
0
 10
186.3830412876986884
 20
49.5962230347647477
 30
0.0
 40
0.7365571912478397
 50
168.7325432601533919
 51
182.9489038984926879
  0
ARC
  5
193B
  8
0
 10
185.9821765418242876
 20
49.6875085340546434
 30
0.0
 40
0.325775231119647
 50
145.8638683663781137
 51
170.7029847891722056
  0
ARC
  5
193C
  8
0
 10
185.7517029995086091
 20
49.8399833905082517
 30
0.0
 40
0.0495466587968028
 50
94.5977493278475237
 51
142.243856298516107
  0
LINE
  5
193D
  8
0
 10
185.7134393999066049
 20
49.4020246333348112
 30
0.0
 11
185.7954533048464896
 21
47.8371061067376502
 31
0.0
  0
ARC
  5
193E
  8
0
 10
185.6606382327290135
 20
49.3235380236234278
 30
0.0
 40
0.1028441072715713
 50
71.5196747635891228
 51
93.4160040408358014
  0
ARC
  5
193F
  8
0
 10
185.6872186751267861
 20
49.3944609042721581
 30
0.0
 40
0.0272898590196851
 50
16.0909342647321303
 51
77.2582285505365576
  0
ARC
  5
1940
  8
0
 10
185.8544276994047095
 20
47.8401973193548784
 30
0.0
 40
0.0590553537704137
 50
183.0004801394645142
 51
296.8072131836318022
  0
ARC
  5
1941
  8
0
 10
186.0005508521311981
 20
235.4005176785925926
 30
0.0
 40
185.9746402156251861
 50
269.6209956123543066
 51
269.8933904229962764
  0
LINE
  5
1942
  8
0
 10
185.6545102457396013
 20
49.426199399885121
 30
0.0
 11
185.6474594376767868
 21
49.5583305830455672
 31
0.0
  0
LINE
  5
1943
  8
0
 10
184.8226531993767878
 20
48.4969935399459615
 30
0.0
 11
184.9969760642678978
 21
47.0773327267190425
 31
0.0
  0
LINE
  5
1944
  8
0
 10
184.6799464964767878
 20
49.2076170678459519
 30
0.0
 11
184.7578811044432996
 21
48.5844650512461271
 31
0.0
  0
LINE
  5
1945
  8
0
 10
185.0555909944768018
 20
47.0254746169459494
 30
0.0
 11
185.6661233672768105
 21
47.0254746169459494
 31
0.0
  0
LINE
  5
1946
  8
0
 10
185.7516984876704953
 20
47.5890151107964599
 30
0.0
 11
185.7250975523768091
 21
47.0814390290459599
 31
0.0
  0
ARC
  5
1947
  8
0
 10
188.2710599632731032
 20
46.2776006008391505
 30
0.0
 40
1.220472441347388
 50
92.0000000072351156
 51
123.6819337041775952
  0
LINE
  5
1948
  8
0
 10
187.0297869542652904
 20
47.4973295633459571
 30
0.0
 11
188.2284660891768056
 21
47.4973295633459571
 31
0.0
  0
LINE
  5
1949
  8
0
 10
187.5943824389763961
 20
47.2933075015738922
 30
0.0
 11
187.0047204086255022
 21
47.293191152759043
 31
0.0
  0
ARC
  5
194A
  8
0
 10
186.9406949121797084
 20
49.2523868788686272
 30
0.0
 40
0.3573648133579406
 50
352.8032121030216786
 51
8.4157097180256972
  0
ARC
  5
194B
  8
0
 10
187.046141830659792
 20
49.2698688754418086
 30
0.0
 40
0.2505016709521271
 50
7.9900163021806927
 51
25.1610143105234805
  0
ARC
  5
194C
  8
0
 10
187.1810904132198061
 20
49.3374111345314077
 30
0.0
 40
0.0997118271633269
 50
23.0008733422971687
 51
59.4051518782849826
  0
ARC
  5
194D
  8
0
 10
187.2051102084276977
 20
49.3733147589191717
 30
0.0
 40
0.0566321886650321
 50
61.8363239873388792
 51
90.2836191285726954
  0
ARC
  5
194E
  8
0
 10
187.1018409478375872
 20
48.6022515070809575
 30
0.0
 40
0.1168306067355792
 50
295.7174191177854823
 51
351.2431582726861734
  0
ARC
  5
194F
  8
0
 10
186.919599810598811
 20
47.0845297339889015
 30
0.0
 40
0.0590551170429418
 50
269.9999991054386896
 51
353.0000010448346757
  0
ARC
  5
1950
  8
0
 10
186.3090674368644102
 20
47.0845297350148471
 30
0.0
 40
0.059055118068899
 50
182.9999998967473118
 51
270.0000000120390951
  0
ARC
  5
1951
  8
0
 10
185.5921495164548958
 20
49.5962230347647477
 30
0.0
 40
0.7365571912478397
 50
357.0510961015071985
 51
11.2674567398465904
  0
ARC
  5
1952
  8
0
 10
185.9930142623294103
 20
49.6875085340546434
 30
0.0
 40
0.325775231119647
 50
9.2970152108274267
 51
34.1361316336218223
  0
ARC
  5
1953
  8
0
 10
186.223483914598603
 20
49.8399788087663325
 30
0.0
 40
0.049552539786154
 50
37.7575781053243276
 51
85.3989526475470058
  0
LINE
  5
1954
  8
0
 10
186.261751404247093
 20
49.4020246333348112
 30
0.0
 11
186.1797374993070946
 21
47.8371061067376502
 31
0.0
  0
ARC
  5
1955
  8
0
 10
186.3145525714247128
 20
49.3235380236234278
 30
0.0
 40
0.1028441072715713
 50
86.5839959591641843
 51
108.4803252364109056
  0
ARC
  5
1956
  8
0
 10
186.2879721290269117
 20
49.3944609042721581
 30
0.0
 40
0.0272898590196851
 50
102.7417714494634993
 51
163.9090657352678875
  0
ARC
  5
1957
  8
0
 10
186.1207631047489031
 20
47.8401973193548784
 30
0.0
 40
0.0590553537704137
 50
243.1927868163683115
 51
356.9995198605353721
  0
ARC
  5
1958
  8
0
 10
185.9746399520224998
 20
235.4005176785925926
 30
0.0
 40
185.9746402156251861
 50
270.1066095770037236
 51
270.3790043876456934
  0
LINE
  5
1959
  8
0
 10
186.3206805584140966
 20
49.426199399885121
 30
0.0
 11
186.3277313664767973
 21
49.5583305830455672
 31
0.0
  0
LINE
  5
195A
  8
0
 10
187.1525376047767963
 20
48.4969935399459615
 30
0.0
 11
186.9782147398858001
 21
47.0773327267190425
 31
0.0
  0
LINE
  5
195B
  8
0
 10
187.2952443076767963
 20
49.2076170678459519
 30
0.0
 11
187.217309699710313
 21
48.5844650512461271
 31
0.0
  0
LINE
  5
195C
  8
0
 10
186.9195998096768108
 20
47.0254746169459494
 30
0.0
 11
186.309067436876802
 21
47.0254746169459494
 31
0.0
  0
LINE
  5
195D
  8
0
 10
186.2234923164832026
 20
47.5890151107964599
 30
0.0
 11
186.2500932517768035
 21
47.0814390290459599
 31
0.0
  0
LINE
  5
195E
  8
0
 10
185.7477313507768031
 20
49.8893706095459635
 30
0.0
 11
186.2274588778768134
 21
49.889371661145951
 31
0.0
  0
ARC
  5
195F
  8
0
 10
185.9875954020768063
 20
47.5766557255941294
 30
0.0
 40
0.2362204661519017
 50
2.9991647727376218
 51
177.0008352272623995
  0
LINE
  5
1960
  8
0
 10
188.2284661010500884
 20
47.4973295633110268
 30
0.0
 11
216.3210166197769126
 21
48.4783430444459569
 31
0.0
  0
ARC
  5
1961
  8
0
 10
216.3989056098413073
 20
50.0586310300667634
 30
0.0
 40
0.3259873419773478
 50
169.1541622480056901
 51
187.1565786604651862
  0
ARC
  5
1962
  8
0
 10
216.3024557390145048
 20
50.0782948427493793
 30
0.0
 40
0.2275632461442334
 50
153.1358608418711924
 51
169.4472011467690891
  0
ARC
  5
1963
  8
0
 10
216.1995541905469906
 20
50.1321030728904589
 30
0.0
 40
0.1114622331843722
 50
125.4341215609475029
 51
153.9082193658701101
  0
ARC
  5
1964
  8
0
 10
216.1692534536443873
 20
50.1716263264025315
 30
0.0
 40
0.0617175272739474
 50
92.149301769018507
 51
123.7867543585879986
  0
ARC
  5
1965
  8
0
 10
216.2601377358197112
 20
49.360215086004132
 30
0.0
 40
0.1022332105554204
 50
189.7168515698905082
 51
249.5943855431617919
  0
ARC
  5
1966
  8
0
 10
217.7301106870756939
 20
50.419366251252562
 30
0.0
 40
0.6315621763889857
 50
167.4113371640983985
 51
182.9258714317936096
  0
ARC
  5
1967
  8
0
 10
217.3973016065627917
 20
50.5037791662041897
 30
0.0
 40
0.2885241621855989
 50
144.8168255426236044
 51
169.3673229153505133
  0
ARC
  5
1968
  8
0
 10
217.206985539547702
 20
50.6373384911487321
 30
0.0
 40
0.0560225114306788
 50
95.9301896672890138
 51
144.3067506074262099
  0
ARC
  5
1969
  8
0
 10
217.1118845130012005
 20
50.1566296566903276
 30
0.0
 40
0.1068115305970676
 50
74.4020741993373065
 51
93.2124812016939757
  0
ARC
  5
196A
  8
0
 10
217.1355048316032992
 20
50.2281821265831994
 30
0.0
 40
0.0317378314162809
 50
18.1157433326036283
 51
80.7535222350139321
  0
ARC
  5
196B
  8
0
 10
231.1858654999988119
 20
-405.5416606784722831
 30
0.0
 40
456.0223496018836045
 50
91.7693231323063543
 51
91.8873565176432976
  0
LINE
  5
196C
  8
0
 10
217.1058989014169924
 20
50.2632733415593833
 30
0.0
 11
217.0993718084768886
 21
50.3871288557459707
 31
0.0
  0
LINE
  5
196D
  8
0
 10
216.0754579049767869
 20
50.018019094045961
 30
0.0
 11
216.1593711760768883
 21
49.3429602380459613
 31
0.0
  0
LINE
  5
196E
  8
0
 10
216.2244927068769016
 20
49.2643972314459617
 30
0.0
 11
216.4930394453566009
 21
47.0773295600745101
 31
0.0
  0
ARC
  5
196F
  8
0
 10
216.5516539866767971
 20
47.0845297350459475
 30
0.0
 40
0.059055118099995
 50
187.0030952508132032
 51
270.0000000000032969
  0
LINE
  5
1970
  8
0
 10
217.1656921353767871
 20
50.2379741335459613
 30
0.0
 11
217.2915162970130041
 21
47.837106106734808
 31
0.0
  0
ARC
  5
1971
  8
0
 10
217.3504904751681011
 20
47.8401969459135614
 30
0.0
 40
0.0590551181177356
 50
183.0001293129730016
 51
296.8068167731374274
  0
ARC
  5
1972
  8
0
 10
217.1621863738097034
 20
47.0845297198189101
 30
0.0
 40
0.0590551028729611
 50
269.9999859971501905
 51
357.0000140940591109
  0
LINE
  5
1973
  8
0
 10
217.2477616996768859
 20
47.5890185415459612
 30
0.0
 11
217.2211605444767883
 21
47.0814390290459599
 31
0.0
  0
LINE
  5
1974
  8
0
 10
216.5516539866767971
 20
47.0254746169459494
 30
0.0
 11
217.1621863593767898
 21
47.0254746169459494
 31
0.0
  0
ARC
  5
1975
  8
0
 10
217.2484914213025036
 20
50.4443093125829733
 30
0.0
 40
0.6201145160965462
 50
356.9636940907378744
 51
12.1883343336199506
  0
ARC
  5
1976
  8
0
 10
217.5799614595159142
 20
50.5260848413857104
 30
0.0
 40
0.2790287284989023
 50
10.14469623294314
 51
35.7340283758479984
  0
ARC
  5
1977
  8
0
 10
217.7638024894941964
 20
50.6572316996663972
 30
0.0
 40
0.053213155065883
 50
36.7146820569603918
 51
87.7157922304690345
  0
ARC
  5
1978
  8
0
 10
217.8283169459116948
 20
50.256190190668633
 30
0.0
 40
0.0261009526230221
 50
104.0310797106548932
 51
166.973801203471794
  0
ARC
  5
1979
  8
0
 10
217.8560706446324957
 20
50.1879770072734814
 30
0.0
 40
0.0995512004019592
 50
87.1318688166930571
 51
110.0204039498426027
  0
ARC
  5
197A
  8
0
 10
218.810482185859712
 20
50.255231342061542
 30
0.0
 40
0.0625134421167714
 50
47.5405404939779217
 51
91.2750469537524793
  0
ARC
  5
197B
  8
0
 10
218.7293504402722988
 20
50.1824047372169488
 30
0.0
 40
0.1713450664541771
 50
6.2883691448413943
 51
43.9627934234381925
  0
ARC
  5
197C
  8
0
 10
218.5823027078882035
 20
50.1501086630581625
 30
0.0
 40
0.3214437279982008
 50
352.7278834780161105
 51
9.1406214521939102
  0
ARC
  5
197D
  8
0
 10
218.7072988184945075
 20
49.4429040427122928
 30
0.0
 40
0.1094507792692885
 50
294.3945267531983063
 51
349.792084282860003
  0
LINE
  5
197E
  8
0
 10
218.9011607946769118
 20
50.1094197117459501
 30
0.0
 11
218.8150171159767865
 21
49.4235070978459632
 31
0.0
  0
LINE
  5
197F
  8
0
 10
217.861051930735897
 20
50.2874035041957086
 30
0.0
 11
218.8090911410768058
 21
50.3177293055459529
 31
0.0
  0
LINE
  5
1980
  8
0
 10
217.8677354027767876
 20
50.4114626311459588
 30
0.0
 11
217.8610410519769118
 21
50.2874040672459586
 31
0.0
  0
LINE
  5
1981
  8
0
 10
218.7524936487619129
 20
49.3432194376932216
 30
0.0
 11
218.4742777442768045
 21
47.0773327298459634
 31
0.0
  0
ARC
  5
1982
  8
0
 10
218.4156628267604958
 20
47.0845297202507425
 30
0.0
 40
0.0590551033047874
 50
269.9999873061667017
 51
353.0000158937651236
  0
ARC
  5
1983
  8
0
 10
217.8051304410369937
 20
47.0845297351966678
 30
0.0
 40
0.0590551182507138
 50
183.0000000641450129
 51
269.9999999416659193
  0
LINE
  5
1984
  8
0
 10
217.8051304410369937
 20
47.0254746169459494
 30
0.0
 11
218.4156628136769029
 21
47.0254746169459494
 31
0.0
  0
LINE
  5
1985
  8
0
 10
217.7195566395685091
 20
47.5890036279176627
 30
0.0
 11
217.7461562558638093
 21
47.0814390289677078
 31
0.0
  0
ARC
  5
1986
  8
0
 10
217.483658779053286
 20
47.5766553623108805
 30
0.0
 40
0.2362208294353759
 50
2.9964593826496548
 51
176.9999183319634142
  0
ARC
  5
1987
  8
0
 10
217.6168272259986907
 20
47.8401668171949765
 30
0.0
 40
0.0590286011897061
 50
243.3150332407070096
 51
356.9435626117199263
  0
LINE
  5
1988
  8
0
 10
217.6757718589103092
 20
47.8370194358495695
 30
0.0
 11
217.8028876464173038
 21
50.2620732557761229
 31
0.0
  0
LINE
  5
1989
  8
0
 10
217.2011974818769033
 20
50.6930611990459496
 30
0.0
 11
217.7659233735768112
 21
50.7104025725459593
 31
0.0
  0
LINE
  5
198A
  8
0
 10
218.6563133053768127
 20
48.559893401645958
 30
0.0
 11
220.8658984212767962
 21
48.6370538141459576
 31
0.0
  0
ARC
  5
198B
  8
0
 10
220.7491081255629979
 20
51.9814744942365579
 30
0.0
 40
3.3464579204673361
 50
272.0515097641443276
 51
352.9505671901134178
  0
ARC
  5
198C
  8
0
 10
186.9971580177763997
 20
79.6178302883481024
 30
0.0
 40
45.3813019655941901
 50
336.4373410502269053
 51
340.0738365148151274
  0
ARC
  5
198D
  8
0
 10
210.8504651594604979
 20
69.8209120282046456
 30
0.0
 40
19.6083311492097891
 50
326.3569662049599742
 51
334.8144846128921017
  0
ARC
  5
198E
  8
0
 10
258.6517381136338827
 20
37.8815722482427191
 30
0.0
 40
37.8815726848794228
 50
146.1951974821643034
 51
151.1381624848370109
  0
ARC
  5
198F
  8
0
 10
237.0834789701430054
 20
50.1071355495921722
 30
0.0
 40
13.0944651293173298
 50
152.4334392959713966
 51
172.9712545757668067
  0
LINE
  5
1990
  8
0
 10
224.0702689578768059
 20
51.5707783299459592
 30
0.0
 11
224.0874202573768059
 21
51.7094697710459599
 31
0.0
  0
LINE
  5
1991
  8
0
 10
227.6050347711789072
 20
59.6341045016459574
 30
0.0
 11
178.349463262047891
 21
59.6341045016459574
 31
0.0
  0
ARC
  5
1992
  8
0
 10
233.3527124871768876
 20
64.939153363645957
 30
0.0
 40
0.3937007874000089
 50
5.0000000000001483
 51
92.0000000737992139
  0
ARC
  5
1993
  8
0
 10
233.0995571333394878
 20
110.5791915037402049
 30
0.0
 40
45.2472105952657486
 50
269.6688103007891755
 51
270.3031690894616759
  0
LINE
  5
1994
  8
0
 10
233.7391422744769045
 20
64.9733523824459667
 30
0.0
 11
233.8168314862303987
 21
64.1514588689459515
 31
0.0
  0
LINE
  5
1995
  8
0
 10
174.7725307309233074
 20
64.1514588689459515
 30
0.0
 11
233.8168314862303987
 21
64.1514588689459515
 31
0.0
  0
LINE
  5
1996
  8
0
 10
232.8380138443787928
 20
65.3327368165459461
 30
0.0
 11
175.7513483727747996
 21
65.3327368165459461
 31
0.0
  0
LINE
  5
1997
  8
0
 62
     1
 10
204.2946811085768104
 20
47.0254746169459494
 30
0.0
 11
158.0032785341670092
 21
7.229446922651845
 31
0.0
  0
ENDBLK
  5
1999
  8
0
  0
ENDSEC
  0
SECTION
  2
ENTITIES
  0
ATTDEF
  5
B55
  8
DEFPOINTS
 10
232.494742234921091
 20
10.9161662788397607
 30
0.0
 40
0.001
  1
K-45592T-GR1
  3

  2
MODELNUMBER
 70
     0
1001
ACDBATTR
1070
     0
1070
     1
  0
ATTDEF
  5
B56
  8
DEFPOINTS
 10
232.494742234921091
 20
10.9145598668342991
 30
0.0
 40
0.001
  1
ARCHER
  3

  2
TRADENAME
 70
     0
1001
ACDBATTR
1070
     0
1070
     1
  0
ATTDEF
  5
B57
  8
DEFPOINTS
 10
232.494742234921091
 20
10.9129534548288394
 30
0.0
 40
0.001
  1
BATH
  3

  2
PRODUCT
 70
     0
1001
ACDBATTR
1070
     0
1070
     1
  0
ARC
  5
1BED
  8
0
 10
203.4208767557474005
 20
11.6921480774836795
 30
0.0
 40
0.3937007874000089
 50
87.9999999262008004
 51
174.999999999999801
  0
LINE
  5
1BEE
  8
0
 10
203.0286741187049984
 20
11.7264613620298608
 30
0.0
 11
202.9567577566938894
 21
10.9044535827836704
 31
0.0
  0
LINE
  5
1BEF
  8
0
 10
206.138472991547502
 20
10.9044535827836899
 30
0.0
 11
207.3241934453450028
 21
-2.6483862854716231
 31
0.0
  0
ARC
  5
1BF0
  8
0
 10
210.6579169132982088
 20
-2.3567227576980079
 30
0.0
 40
3.346457795074572
 50
185.0000088179949955
 51
267.9999728775741232
  0
LINE
  5
1BF1
  8
0
 10
210.5411256373475055
 20
-5.701141925816315
 30
0.0
 11
211.9309517407473891
 21
-5.7496757228163196
 31
0.0
  0
ARC
  5
1BF2
  8
0
 10
211.8885794038781967
 20
-6.9681376872309073
 30
0.0
 40
1.219198496413451
 50
56.3005368861012627
 51
88.0083267207192108
  0
LINE
  5
1BF3
  8
0
 10
213.1296308756589042
 20
-5.7496757228163196
 30
0.0
 11
211.9309517407473891
 21
-5.7496757228163196
 31
0.0
  0
LINE
  5
1BF4
  8
0
 10
212.5650353909477985
 20
-5.9538141337163211
 30
0.0
 11
213.1546974213372039
 21
-5.9538141337163211
 31
0.0
  0
ARC
  5
1BF5
  8
0
 10
213.2187229177444863
 20
-3.9946184072936499
 30
0.0
 40
0.3573648133579406
 50
171.5842902819742051
 51
187.196787896978293
  0
ARC
  5
1BF6
  8
0
 10
213.1132759992644878
 20
-3.9771364107204681
 30
0.0
 40
0.2505016709521271
 50
154.8389856894766865
 51
172.0099836978193082
  0
ARC
  5
1BF7
  8
0
 10
212.9783274167045022
 20
-3.909594151630869
 30
0.0
 40
0.0997118271633269
 50
120.5948481217150032
 51
156.9991266577029023
  0
ARC
  5
1BF8
  8
0
 10
212.9543076214966106
 20
-3.873690527243105
 30
0.0
 40
0.0566321886650321
 50
89.7163808714273188
 51
118.1636760126610994
  0
ARC
  5
1BF9
  8
0
 10
213.0575768820866926
 20
-4.64475377908132
 30
0.0
 40
0.1168306067355792
 50
188.7568417273137129
 51
244.2825808822144893
  0
ARC
  5
1BFA
  8
0
 10
213.239818019325412
 20
-6.1624755521733761
 30
0.0
 40
0.0590551170429418
 50
186.9999989551652959
 51
270.0000008945611967
  0
ARC
  5
1BFB
  8
0
 10
213.8503503930598981
 20
-6.1624755511474163
 30
0.0
 40
0.059055118068899
 50
269.9999999879591996
 51
357.0000001032523187
  0
ARC
  5
1BFC
  8
0
 10
214.5672683134692988
 20
-3.650782251397529
 30
0.0
 40
0.7365571912478397
 50
168.7325432601533919
 51
182.9489038984926879
  0
ARC
  5
1BFD
  8
0
 10
214.166403567594898
 20
-3.5594967521076342
 30
0.0
 40
0.325775231119647
 50
145.8638683663781137
 51
170.7029847891722056
  0
ARC
  5
1BFE
  8
0
 10
213.9359300252791911
 20
-3.407021895654025
 30
0.0
 40
0.0495466587968028
 50
94.5977493278475237
 51
142.2438562985159933
  0
LINE
  5
1BFF
  8
0
 10
213.8976664256773006
 20
-3.844980652827473
 30
0.0
 11
213.9796803306172137
 21
-5.4098991794246274
 31
0.0
  0
ARC
  5
1C00
  8
0
 10
213.8448652584995955
 20
-3.9234672625388418
 30
0.0
 40
0.1028441072715713
 50
71.5196747635891228
 51
93.4160040408358014
  0
ARC
  5
1C01
  8
0
 10
213.8714457008973966
 20
-3.8525443818901191
 30
0.0
 40
0.0272898590196851
 50
16.0909342647322902
 51
77.2582285505365576
  0
ARC
  5
1C02
  8
0
 10
214.0386547251754052
 20
-5.4068079668073992
 30
0.0
 40
0.0590553537704137
 50
183.0004801394645142
 51
296.8072131836318022
  0
ARC
  5
1C03
  8
0
 10
214.1847778779018086
 20
182.1535123924302866
 30
0.0
 40
185.9746402156251861
 50
269.6209956123543066
 51
269.8933904229962764
  0
LINE
  5
1C04
  8
0
 10
213.8387372715102117
 20
-3.8208058862771561
 30
0.0
 11
213.831686463447511
 21
-3.6886747031167029
 31
0.0
  0
LINE
  5
1C05
  8
0
 10
213.006880225147512
 20
-4.7500117462163161
 30
0.0
 11
213.1812030900385082
 21
-6.169672559443228
 31
0.0
  0
LINE
  5
1C06
  8
0
 10
212.8641735222473983
 20
-4.0393882183163177
 30
0.0
 11
212.9421081302139953
 21
-4.6625402349161433
 31
0.0
  0
LINE
  5
1C07
  8
0
 10
213.2398180202474123
 20
-6.221530669216321
 30
0.0
 11
213.8503503930475063
 21
-6.221530669216321
 31
0.0
  0
LINE
  5
1C08
  8
0
 10
213.9359255134411057
 20
-5.6579901753658097
 30
0.0
 11
213.9093245781475048
 21
-6.1655662571163168
 31
0.0
  0
ARC
  5
1C09
  8
0
 10
216.4550654518166937
 20
-6.9681376872308931
 30
0.0
 40
1.219198496413437
 50
91.9916732792808034
 51
123.6994631138987017
  0
LINE
  5
1C0A
  8
0
 10
215.2140139800359862
 20
-5.7496757228163196
 30
0.0
 11
216.4126931149475013
 21
-5.7496757228163196
 31
0.0
  0
LINE
  5
1C0B
  8
0
 10
215.7786094647470918
 20
-5.9538141337163211
 30
0.0
 11
215.1889474343576865
 21
-5.9538141337163211
 31
0.0
  0
ARC
  5
1C0C
  8
0
 10
215.1249219379504041
 20
-3.9946184072936499
 30
0.0
 40
0.3573648133579406
 50
352.8032121030216217
 51
8.4157097180257274
  0
ARC
  5
1C0D
  8
0
 10
215.2303688564304025
 20
-3.9771364107204681
 30
0.0
 40
0.2505016709521271
 50
7.9900163021806367
 51
25.1610143105232886
  0
ARC
  5
1C0E
  8
0
 10
215.3653174389903882
 20
-3.909594151630869
 30
0.0
 40
0.0997118271633269
 50
23.0008733422970408
 51
59.4051518782849826
  0
ARC
  5
1C0F
  8
0
 10
215.3893372341983081
 20
-3.873690527243105
 30
0.0
 40
0.0566321886650321
 50
61.8363239873388792
 51
90.2836191285726954
  0
ARC
  5
1C10
  8
0
 10
215.2860679736081977
 20
-4.64475377908132
 30
0.0
 40
0.1168306067355792
 50
295.7174191177854823
 51
351.2431582726861734
  0
ARC
  5
1C11
  8
0
 10
215.1038268363695067
 20
-6.1624755521733761
 30
0.0
 40
0.0590551170429418
 50
269.9999991054386896
 51
353.0000010448346757
  0
ARC
  5
1C12
  8
0
 10
214.4932944626351059
 20
-6.1624755511474163
 30
0.0
 40
0.059055118068899
 50
182.9999998967473118
 51
270.0000000120390951
  0
ARC
  5
1C13
  8
0
 10
213.7763765422255915
 20
-3.650782251397529
 30
0.0
 40
0.7365571912478397
 50
357.0510961015073121
 51
11.2674567398465602
  0
ARC
  5
1C14
  8
0
 10
214.1772412880999923
 20
-3.5594967521076342
 30
0.0
 40
0.325775231119647
 50
9.2970152108273592
 51
34.1361316336218223
  0
ARC
  5
1C15
  8
0
 10
214.4077109403692987
 20
-3.4070264773959451
 30
0.0
 40
0.049552539786154
 50
37.7575781053244484
 51
85.3989526475470058
  0
LINE
  5
1C16
  8
0
 10
214.4459784300177034
 20
-3.844980652827473
 30
0.0
 11
214.363964525077705
 21
-5.4098991794246274
 31
0.0
  0
ARC
  5
1C17
  8
0
 10
214.4987795971952949
 20
-3.9234672625388418
 30
0.0
 40
0.1028441072715713
 50
86.5839959591641843
 51
108.4803252364109056
  0
ARC
  5
1C18
  8
0
 10
214.4721991547974937
 20
-3.8525443818901191
 30
0.0
 40
0.0272898590196851
 50
102.7417714494634993
 51
163.9090657352676885
  0
ARC
  5
1C19
  8
0
 10
214.3049901305195988
 20
-5.4068079668073992
 30
0.0
 40
0.0590553537704137
 50
243.1927868163683115
 51
356.9995198605353721
  0
ARC
  5
1C1A
  8
0
 10
214.1588669777931102
 20
182.1535123924302866
 30
0.0
 40
185.9746402156251861
 50
270.1066095770037236
 51
270.3790043876456934
  0
LINE
  5
1C1B
  8
0
 10
214.504907584184707
 20
-3.8208058862771561
 30
0.0
 11
214.5119583922474931
 21
-3.6886747031167029
 31
0.0
  0
LINE
  5
1C1C
  8
0
 10
215.3367646305474921
 20
-4.7500117462163161
 30
0.0
 11
215.1624417656564106
 21
-6.169672559443228
 31
0.0
  0
LINE
  5
1C1D
  8
0
 10
215.4794713334474068
 20
-4.0393882183163177
 30
0.0
 11
215.401536725480895
 21
-4.6625402349161433
 31
0.0
  0
LINE
  5
1C1E
  8
0
 10
215.1038268354473928
 20
-6.221530669216321
 30
0.0
 11
214.4932944626474978
 21
-6.221530669216321
 31
0.0
  0
LINE
  5
1C1F
  8
0
 10
214.407719342253813
 20
-5.6579901753658097
 30
0.0
 11
214.4343202775474992
 21
-6.1655662571163168
 31
0.0
  0
LINE
  5
1C20
  8
0
 10
213.9319583765474988
 20
-3.3576346766163141
 30
0.0
 11
214.4116859036475091
 21
-3.357633625016319
 31
0.0
  0
ARC
  5
1C21
  8
0
 10
214.171822427847502
 20
-5.6703495605681482
 30
0.0
 40
0.2362204661519017
 50
2.9991647727375899
 51
177.0008352272623995
  0
LINE
  5
1C22
  8
0
 10
216.4126931149475013
 20
-5.7496757228163196
 30
0.0
 11
244.5052436455474947
 21
-4.7686622417163198
 31
0.0
  0
ARC
  5
1C23
  8
0
 10
244.5831326356118893
 20
-3.1883742560955142
 30
0.0
 40
0.3259873419773478
 50
169.1541622480056901
 51
187.1565786604651862
  0
ARC
  5
1C24
  8
0
 10
244.4866827647850869
 20
-3.1687104434128979
 30
0.0
 40
0.2275632461442334
 50
153.1358608418711071
 51
169.4472011467690038
  0
ARC
  5
1C25
  8
0
 10
244.3837812163176011
 20
-3.1149022132718112
 30
0.0
 40
0.1114622331843722
 50
125.4341215609476023
 51
153.9082193658699111
  0
ARC
  5
1C26
  8
0
 10
244.3534804794149977
 20
-3.0753789597597461
 30
0.0
 40
0.0617175272739474
 50
92.149301769018507
 51
123.7867543585881975
  0
ARC
  5
1C27
  8
0
 10
244.4443647615902933
 20
-3.8867902001581451
 30
0.0
 40
0.1022332105554204
 50
189.7168515698905082
 51
249.5943855431617919
  0
ARC
  5
1C28
  8
0
 10
245.9143377128463044
 20
-2.8276390349097218
 30
0.0
 40
0.6315621763889857
 50
167.4113371640983985
 51
182.9258714317936096
  0
ARC
  5
1C29
  8
0
 10
245.5815286323334021
 20
-2.743226119958087
 30
0.0
 40
0.2885241621855989
 50
144.8168255426236044
 51
169.3673229153503996
  0
ARC
  5
1C2A
  8
0
 10
245.3912125653183125
 20
-2.609666795013545
 30
0.0
 40
0.0560225114306788
 50
95.9301896672890138
 51
144.3067506074260962
  0
ARC
  5
1C2B
  8
0
 10
245.2961115387718962
 20
-3.090375629471942
 30
0.0
 40
0.1068115305970676
 50
74.4020741993373065
 51
93.2124812016939757
  0
ARC
  5
1C2C
  8
0
 10
245.3197318573739096
 20
-3.0188231595790782
 30
0.0
 40
0.0317378314162809
 50
18.1157433326035715
 51
80.7535222350139321
  0
ARC
  5
1C2D
  8
0
 10
259.3700925257693939
 20
-458.7886659646345038
 30
0.0
 40
456.0223496018836045
 50
91.7693231323063543
 51
91.8873565176432976
  0
LINE
  5
1C2E
  8
0
 10
245.2901259271876029
 20
-2.9837319446028938
 30
0.0
 11
245.2835988342474991
 21
-2.859876430416314
 31
0.0
  0
LINE
  5
1C2F
  8
0
 10
244.2596849307475111
 20
-3.2289861921163161
 30
0.0
 11
244.3435982018474988
 21
-3.9040450481163158
 31
0.0
  0
LINE
  5
1C30
  8
0
 10
244.4087197326473984
 20
-3.982608054716315
 30
0.0
 11
244.6772664711272114
 21
-6.1696757260877666
 31
0.0
  0
ARC
  5
1C31
  8
0
 10
244.7358810124474076
 20
-6.1624755511163221
 30
0.0
 40
0.059055118099995
 50
187.0030952508132032
 51
270.0000000000032969
  0
LINE
  5
1C32
  8
0
 10
245.3499191611475112
 20
-3.0090311526163158
 30
0.0
 11
245.4757433227835861
 21
-5.4098991794274616
 31
0.0
  0
ARC
  5
1C33
  8
0
 10
245.5347175007950113
 20
-5.406808340347105
 30
0.0
 40
0.0590551179690967
 50
183.0001292249347102
 51
269.8762524953964999
  0
ARC
  5
1C34
  8
0
 10
245.3464133995803138
 20
-6.1624755663433604
 30
0.0
 40
0.0590551028729611
 50
269.9999859971501905
 51
357.0000140940591109
  0
LINE
  5
1C35
  8
0
 10
245.4319887254474963
 20
-5.6579867446163163
 30
0.0
 11
245.4053875702475125
 21
-6.1655662571163168
 31
0.0
  0
LINE
  5
1C36
  8
0
 10
244.7358810124474076
 20
-6.221530669216321
 30
0.0
 11
245.346413385147514
 21
-6.221530669216321
 31
0.0
  0
ARC
  5
1C37
  8
0
 10
245.432718447073114
 20
-2.8026959735793038
 30
0.0
 40
0.6201145160965462
 50
356.9636940907378744
 51
12.18833433361986
  0
ARC
  5
1C38
  8
0
 10
245.7641884852864962
 20
-2.7209204447765671
 30
0.0
 40
0.2790287284989023
 50
10.14469623294314
 51
35.7340283758481192
  0
ARC
  5
1C39
  8
0
 10
245.9480295152648068
 20
-2.5897735864958729
 30
0.0
 40
0.053213155065883
 50
36.7146820569604699
 51
87.7157922304690345
  0
ARC
  5
1C3A
  8
0
 10
246.0125439716823053
 20
-2.9908150954936441
 30
0.0
 40
0.0261009526230221
 50
104.0310797106548932
 51
166.9738012034717087
  0
ARC
  5
1C3B
  8
0
 10
246.0402976704031062
 20
-3.0590282788887961
 30
0.0
 40
0.0995512004019592
 50
87.1318688166930571
 51
110.0204039498426027
  0
ARC
  5
1C3C
  8
0
 10
246.994709211630294
 20
-2.9917739441007352
 30
0.0
 40
0.0625134421167714
 50
47.5405404939780567
 51
91.2750469537524793
  0
ARC
  5
1C3D
  8
0
 10
246.9135774660429092
 20
-3.0646005489453279
 30
0.0
 40
0.1713450664541771
 50
6.2883691448413268
 51
43.9627934234381783
  0
ARC
  5
1C3E
  8
0
 10
246.7665297336588139
 20
-3.0968966231041151
 30
0.0
 40
0.3214437279982008
 50
352.7278834780159968
 51
9.1406214521940417
  0
ARC
  5
1C3F
  8
0
 10
246.8915258442650895
 20
-3.8041012434499839
 30
0.0
 40
0.1094507792692885
 50
294.3945267531980789
 51
349.7920842828598893
  0
LINE
  5
1C40
  8
0
 10
247.0853878204474938
 20
-3.137585574416327
 30
0.0
 11
246.999244141747397
 21
-3.8234981883163139
 31
0.0
  0
LINE
  5
1C41
  8
0
 10
246.0452789565065075
 20
-2.959601781966561
 30
0.0
 11
246.9933181668475015
 21
-2.9292759806163242
 31
0.0
  0
LINE
  5
1C42
  8
0
 10
246.0519624285473981
 20
-2.8355426550163179
 30
0.0
 11
246.0452680777474939
 21
-2.9596012189163181
 31
0.0
  0
LINE
  5
1C43
  8
0
 10
246.9367206745324097
 20
-3.9037858484690551
 30
0.0
 11
246.6585047700473865
 21
-6.1696725563163142
 31
0.0
  0
ARC
  5
1C44
  8
0
 10
246.5998898525311063
 20
-6.1624755659115351
 30
0.0
 40
0.0590551033047874
 50
269.9999873061667017
 51
353.0000158937651804
  0
ARC
  5
1C45
  8
0
 10
245.9893574668076042
 20
-6.1624755509656017
 30
0.0
 40
0.0590551182507138
 50
183.0000000641450981
 51
269.9999999416659193
  0
LINE
  5
1C46
  8
0
 10
245.9893574668076042
 20
-6.221530669216321
 30
0.0
 11
246.5998898394475134
 21
-6.221530669216321
 31
0.0
  0
LINE
  5
1C47
  8
0
 10
245.9037836653390912
 20
-5.658001658244614
 30
0.0
 11
245.930383281634505
 21
-6.1655662571945618
 31
0.0
  0
ARC
  5
1C48
  8
0
 10
245.6678858048238965
 20
-5.670349923851397
 30
0.0
 40
0.2362208294353759
 50
2.9964593826496548
 51
176.9999183319634142
  0
ARC
  5
1C49
  8
0
 10
245.8011485461020982
 20
-5.4069339239429857
 30
0.0
 40
0.05892942054194
 50
269.9483898471567045
 51
357.0313510417548173
  0
LINE
  5
1C4A
  8
0
 10
245.8599988846808913
 20
-5.4099858503127001
 30
0.0
 11
245.9871146721879995
 21
-2.9849320303861542
 31
0.0
  0
LINE
  5
1C4B
  8
0
 10
245.3854245076474001
 20
-2.5539440871163199
 30
0.0
 11
245.9501503993473932
 21
-2.5366027136163178
 31
0.0
  0
LINE
  5
1C4C
  8
0
 10
246.8405403311475084
 20
-4.6871118845163187
 30
0.0
 11
249.0531314839907964
 21
-4.60984379344643
 31
0.0
  0
ARC
  5
1C4D
  8
0
 10
248.9333351513336083
 20
-1.265530791925719
 30
0.0
 40
3.3464579204673361
 50
272.0515097641443276
 51
352.9505671901134178
  0
ARC
  5
1C4E
  8
0
 10
215.1813850435470101
 20
26.3708250021858213
 30
0.0
 40
45.3813019655941901
 50
336.4373410502266779
 51
340.0738365148151843
  0
ARC
  5
1C4F
  8
0
 10
239.0346921852311084
 20
16.5739067420423609
 30
0.0
 40
19.6083311492097891
 50
326.3569662049599742
 51
334.8144846128922154
  0
ARC
  5
1C50
  8
0
 10
286.8359651394044931
 20
-15.3654330379195603
 30
0.0
 40
37.8815726848794228
 50
146.1951974821643887
 51
151.1381624848368972
  0
ARC
  5
1C51
  8
0
 10
265.2677059959136159
 20
-3.139869736570112
 30
0.0
 40
13.0944651293173298
 50
152.4334392959713966
 51
172.9712545757666931
  0
LINE
  5
1C52
  8
0
 10
252.2544959836475016
 20
-1.6762269562163179
 30
0.0
 11
252.271647283147388
 21
-1.537535515116317
 31
0.0
  0
LINE
  5
1C53
  8
0
 10
255.7892617969494893
 20
6.3870992154836861
 30
0.0
 11
206.5336902878185015
 21
6.3870992154836861
 31
0.0
  0
ARC
  5
1C54
  8
0
 10
261.5369395129475265
 20
11.6921480774836795
 30
0.0
 40
0.3937007874000089
 50
5.0000000000002007
 51
92.0000000737992139
  0
LINE
  5
1C55
  8
0
 10
261.9291421499899002
 20
11.7264613620298608
 30
0.0
 11
262.0010585120010091
 21
10.9044535827836704
 31
0.0
  0
LINE
  5
1C56
  8
0
 10
202.9567577566938894
 20
10.9044535827836704
 30
0.0
 11
262.0010585120010091
 21
10.9044535827836704
 31
0.0
  0
LINE
  5
1C57
  8
0
 10
261.5231995531090092
 20
12.08560903298374
 30
0.0
 11
203.4346167155858893
 21
12.08560903298374
 31
0.0
  0
ARC
  5
1C58
  8
0
 10
245.7987030430084872
 20
-5.4167381921250941
 30
0.0
 40
0.0491833500865481
 50
240.5821679764167982
 51
272.7881338702870835
  0
ARC
  5
1C59
  8
0
 10
245.5347171374816924
 20
-5.4068055597212767
 30
0.0
 40
0.0590578964682412
 50
269.6719911552328881
 51
296.8027481432113746
  0
ENDSEC
  0
EOF
