  0
SECTION
  2
HEADER
  9
$ACADVER
  1
AC1009
  9
$INSBASE
 10
284.4692040375621218
 20
-17.3592162812353692
 30
0.0
  9
$EXTMIN
 10
187.3228279244856935
 20
-32.1175880447493824
 30
0.0
  9
$EXTMAX
 10
313.9913544153084786
 20
21.5725402968506117
 30
0.0
  9
$LIMMIN
 10
0.0
 20
0.0
  9
$LIMMAX
 10
22.0
 20
17.0
  9
$ORTHOMODE
 70
     0
  9
$REGENMODE
 70
     1
  9
$FILLMODE
 70
     1
  9
$QTEXTMODE
 70
     0
  9
$MIRRTEXT
 70
     0
  9
$DRAGMODE
 70
     2
  9
$LTSCALE
 40
1.2099999999999991
  9
$OSMODE
 70
  4095
  9
$ATTMODE
 70
     1
  9
$TEXTSIZE
 40
0.2
  9
$TRACEWID
 40
0.05
  9
$TEXTSTYLE
  7
STANDARD
  9
$CLAYER
  8
0
  9
$CELTYPE
  6
BYLAYER
  9
$CECOLOR
 62
   256
  9
$DIMSCALE
 40
1.0
  9
$DIMASZ
 40
0.1875
  9
$DIMEXO
 40
0.0625
  9
$DIMDLI
 40
0.8359999999999999
  9
$DIMRND
 40
0.0
  9
$DIMDLE
 40
0.0
  9
$DIMEXE
 40
0.125
  9
$DIMTP
 40
0.01
  9
$DIMTM
 40
0.01
  9
$DIMTXT
 40
0.15625
  9
$DIMCEN
 40
0.198
  9
$DIMTSZ
 40
0.0
  9
$DIMTOL
 70
     1
  9
$DIMLIM
 70
     0
  9
$DIMTIH
 70
     1
  9
$DIMTOH
 70
     1
  9
$DIMSE1
 70
     0
  9
$DIMSE2
 70
     0
  9
$DIMTAD
 70
     0
  9
$DIMZIN
 70
     0
  9
$DIMBLK
  1

  9
$DIMASO
 70
     1
  9
$DIMSHO
 70
     1
  9
$DIMPOST
  1

  9
$DIMAPOST
  1

  9
$DIMALT
 70
     0
  9
$DIMALTD
 70
     2
  9
$DIMALTF
 40
25.3999999999999986
  9
$DIMLFAC
 40
1.0
  9
$DIMTOFL
 70
     0
  9
$DIMTVP
 40
0.0
  9
$DIMTIX
 70
     0
  9
$DIMSOXD
 70
     0
  9
$DIMSAH
 70
     0
  9
$DIMBLK1
  1

  9
$DIMBLK2
  1

  9
$DIMSTYLE
  2
STANDARD
  9
$DIMCLRD
 70
     0
  9
$DIMCLRE
 70
     0
  9
$DIMCLRT
 70
     0
  9
$DIMTFAC
 40
1.0
  9
$DIMGAP
 40
0.09
  9
$LUNITS
 70
     2
  9
$LUPREC
 70
     4
  9
$SKETCHINC
 40
0.1
  9
$FILLETRAD
 40
0.0
  9
$AUNITS
 70
     0
  9
$AUPREC
 70
     0
  9
$MENU
  1
.
  9
$ELEVATION
 40
0.0
  9
$PELEVATION
 40
0.0
  9
$THICKNESS
 40
0.0
  9
$LIMCHECK
 70
     0
  9
$BLIPMODE
 70
     0
  9
$CHAMFERA
 40
0.0
  9
$CHAMFERB
 40
0.0
  9
$SKPOLY
 70
     0
  9
$TDCREATE
 40
2457413.4551851851865649
  9
$TDUPDATE
 40
2459123.0020601851865649
  9
$TDINDWG
 40
0.1711621412
  9
$TDUSRTIMER
 40
0.1711621412
  9
$USRTIMER
 70
     1
  9
$ANGBASE
 50
0.0
  9
$ANGDIR
 70
     0
  9
$PDMODE
 70
     0
  9
$PDSIZE
 40
0.3125
  9
$PLINEWID
 40
0.0
  9
$COORDS
 70
     1
  9
$SPLFRAME
 70
     0
  9
$SPLINETYPE
 70
     6
  9
$SPLINESEGS
 70
     8
  9
$ATTDIA
 70
     1
  9
$ATTREQ
 70
     1
  9
$HANDLING
 70
     1
  9
$HANDSEED
  5
1D3B
  9
$SURFTAB1
 70
     6
  9
$SURFTAB2
 70
     6
  9
$SURFTYPE
 70
     6
  9
$SURFU
 70
     6
  9
$SURFV
 70
     6
  9
$UCSNAME
  2

  9
$UCSORG
 10
0.0
 20
0.0
 30
0.0
  9
$UCSXDIR
 10
1.0
 20
0.0
 30
0.0
  9
$UCSYDIR
 10
0.0
 20
1.0
 30
0.0
  9
$PUCSNAME
  2

  9
$PUCSORG
 10
0.0
 20
0.0
 30
0.0
  9
$PUCSXDIR
 10
1.0
 20
0.0
 30
0.0
  9
$PUCSYDIR
 10
0.0
 20
1.0
 30
0.0
  9
$USERI1
 70
     0
  9
$USERI2
 70
     0
  9
$USERI3
 70
     0
  9
$USERI4
 70
     0
  9
$USERI5
 70
     0
  9
$USERR1
 40
0.0
  9
$USERR2
 40
0.0
  9
$USERR3
 40
0.0
  9
$USERR4
 40
0.0
  9
$USERR5
 40
0.0
  9
$WORLDVIEW
 70
     1
  9
$SHADEDGE
 70
     3
  9
$SHADEDIF
 70
    70
  9
$TILEMODE
 70
     1
  9
$MAXACTVP
 70
    64
  9
$PLIMCHECK
 70
     0
  9
$PEXTMIN
 10
1.0000000000000000E+20
 20
1.0000000000000000E+20
 30
1.0000000000000000E+20
  9
$PEXTMAX
 10
-1.0000000000000000E+20
 20
-1.0000000000000000E+20
 30
-1.0000000000000000E+20
  9
$PLIMMIN
 10
0.0
 20
0.0
  9
$PLIMMAX
 10
12.0
 20
9.0
  9
$UNITMODE
 70
     0
  9
$VISRETAIN
 70
     1
  9
$PLINEGEN
 70
     0
  9
$PSLTSCALE
 70
     1
  0
ENDSEC
  0
SECTION
  2
TABLES
  0
TABLE
  2
VPORT
 70
     1
  0
VPORT
  2
*ACTIVE
 70
     0
 10
0.0
 20
0.0
 11
1.0
 21
1.0
 12
284.4338736676691042
 22
-27.7781110660398305
 13
0.0
 23
0.0
 14
1.0
 24
1.0
 15
0.0
 25
0.0
 16
-0.0000000000000053
 26
0.0
 36
23.7775983911410194
 17
7.7199220657348633
 27
10.9499638080596906
 37
0.0
 40
146.0272649205292907
 41
2.005224660397074
 42
50.0
 43
0.0
 44
0.0
 50
0.0
 51
0.0
 71
     0
 72
   100
 73
     1
 74
     1
 75
     0
 76
     0
 77
     0
 78
     0
  0
ENDTAB
  0
TABLE
  2
LTYPE
 70
     1
  0
LTYPE
  2
CONTINUOUS
 70
     0
  3
Solid line
 72
    65
 73
     0
 40
0.0
  0
ENDTAB
  0
TABLE
  2
LAYER
 70
     2
  0
LAYER
  2
0
 70
     0
 62
     7
  6
CONTINUOUS
  0
LAYER
  2
DEFPOINTS
 70
     0
 62
     7
  6
CONTINUOUS
  0
ENDTAB
  0
TABLE
  2
STYLE
 70
     1
  0
STYLE
  2
STANDARD
 70
     0
 40
0.0
 41
0.8
 50
0.0
 71
     0
 42
0.2
  3
txt
  4

  0
ENDTAB
  0
TABLE
  2
VIEW
 70
     0
  0
ENDTAB
  0
TABLE
  2
UCS
 70
     0
  0
ENDTAB
  0
TABLE
  2
APPID
 70
     4
  0
APPID
  2
ACAD
 70
     0
  0
APPID
  2
ACAD_MLEADERVER
 70
     0
  0
APPID
  2
ACAD_NAV_VCDISPLAY
 70
     0
  0
APPID
  2
ACDBATTR
 70
     0
  0
ENDTAB
  0
TABLE
  2
DIMSTYLE
 70
     1
  0
DIMSTYLE
  2
STANDARD
 70
     0
  3

  4

  5

  6

  7

 40
1.0
 41
0.1875
 42
0.0625
 43
0.38
 44
0.125
 45
0.0
 46
0.0
 47
0.01
 48
0.01
140
0.15625
141
0.09
142
0.0
143
25.3999999999999986
144
1.0
145
0.0
146
1.0
147
0.09
 71
     1
 72
     0
 73
     1
 74
     1
 75
     0
 76
     0
 77
     0
 78
     4
170
     0
171
     2
172
     0
173
     0
174
     0
175
     0
176
     0
177
     0
178
     0
  0
ENDTAB
  0
ENDSEC
  0
SECTION
  2
BLOCKS
  0
BLOCK
  8
0
  2
$MODEL_SPACE
 70
     0
 10
0.0
 20
0.0
 30
0.0
  3
$MODEL_SPACE
  1

  0
ENDBLK
  5
21
  8
0
  0
BLOCK
 67
     1
  8
0
  2
$PAPER_SPACE
 70
     0
 10
0.0
 20
0.0
 30
0.0
  3
$PAPER_SPACE
  1

  0
ENDBLK
  5
1D
 67
     1
  8
0
  0
BLOCK
  8
0
  2
_FILLED
 70
     0
 10
0.0
 20
0.0
 30
0.0
  3
_FILLED
  1

  0
SOLID
  5
BDD
  8
0
  6
BYBLOCK
 62
     0
 10
0.0
 20
0.0
 30
0.0
 11
-1.0
 21
0.1666666667
 31
0.0
 12
-1.0
 22
-0.1666666667
 32
0.0
 13
-1.0
 23
-0.1666666667
 33
0.0
  0
ENDBLK
  5
BDE
  8
0
  6
BYBLOCK
 62
     0
  0
BLOCK
  8
0
  2
A$C7F95F54A
 70
     0
 10
0.0
 20
0.0
 30
0.0
  3
A$C7F95F54A
  1

  0
ARC
  5
192A
  8
0
 10
175.23664972997679
 20
64.939153363645957
 30
0.0
 40
0.3937007874000089
 50
87.9999999262008004
 51
174.999999999999801
  0
ARC
  5
192B
  8
0
 10
175.4898050838141046
 20
110.5791915037402049
 30
0.0
 40
45.2472105952657486
 50
269.6968309105383241
 51
270.3311896992108245
  0
LINE
  5
192C
  8
0
 10
174.8502199426768016
 20
64.9733523824459667
 30
0.0
 11
174.7725307309233074
 21
64.1514588689459515
 31
0.0
  0
LINE
  5
192D
  8
0
 10
177.9542459657768063
 20
64.1514588689459657
 30
0.0
 11
179.1399664195743924
 21
50.5986190006906611
 31
0.0
  0
ARC
  5
192E
  8
0
 10
182.4736898875275983
 20
50.8902825284642688
 30
0.0
 40
3.346457795074572
 50
185.0000088179949955
 51
267.9999728775741232
  0
LINE
  5
192F
  8
0
 10
182.3568986115768098
 20
47.5458633603459617
 30
0.0
 11
183.746724714976807
 21
47.4973295633459571
 31
0.0
  0
ARC
  5
1930
  8
0
 10
183.7041308408805094
 20
46.2776006008391505
 30
0.0
 40
1.220472441347388
 50
56.3180662958223834
 51
87.999999992764927
  0
LINE
  5
1931
  8
0
 10
184.9454038498882937
 20
47.4973295633459571
 30
0.0
 11
183.746724714976807
 21
47.4973295633459571
 31
0.0
  0
LINE
  5
1932
  8
0
 10
184.3808083651771881
 20
47.2933075015738922
 30
0.0
 11
184.9704703955281104
 21
47.293191152759043
 31
0.0
  0
ARC
  5
1933
  8
0
 10
185.0344958919739042
 20
49.2523868788686272
 30
0.0
 40
0.3573648133579406
 50
171.5842902819742903
 51
187.1967878969782078
  0
ARC
  5
1934
  8
0
 10
184.9290489734937921
 20
49.2698688754418086
 30
0.0
 40
0.2505016709521271
 50
154.8389856894764876
 51
172.0099836978193082
  0
ARC
  5
1935
  8
0
 10
184.7941003909338917
 20
49.3374111345314077
 30
0.0
 40
0.0997118271633269
 50
120.5948481217150032
 51
156.9991266577027886
  0
ARC
  5
1936
  8
0
 10
184.7700805957258865
 20
49.3733147589191717
 30
0.0
 40
0.0566321886650321
 50
89.7163808714273188
 51
118.1636760126610994
  0
ARC
  5
1937
  8
0
 10
184.8733498563159969
 20
48.6022515070809575
 30
0.0
 40
0.1168306067355792
 50
188.7568417273137982
 51
244.2825808822144893
  0
ARC
  5
1938
  8
0
 10
185.0555909935548016
 20
47.0845297339889015
 30
0.0
 40
0.0590551170429418
 50
186.9999989551652959
 51
270.0000008945611967
  0
ARC
  5
1939
  8
0
 10
185.6661233672892877
 20
47.0845297350148471
 30
0.0
 40
0.059055118068899
 50
269.9999999879591996
 51
357.0000001032523187
  0
ARC
  5
193A
  8
0
 10
186.3830412876986884
 20
49.5962230347647477
 30
0.0
 40
0.7365571912478397
 50
168.7325432601533919
 51
182.9489038984926879
  0
ARC
  5
193B
  8
0
 10
185.9821765418242876
 20
49.6875085340546434
 30
0.0
 40
0.325775231119647
 50
145.8638683663781137
 51
170.7029847891722056
  0
ARC
  5
193C
  8
0
 10
185.7517029995086091
 20
49.8399833905082517
 30
0.0
 40
0.0495466587968028
 50
94.5977493278475237
 51
142.243856298516107
  0
LINE
  5
193D
  8
0
 10
185.7134393999066049
 20
49.4020246333348112
 30
0.0
 11
185.7954533048464896
 21
47.8371061067376502
 31
0.0
  0
ARC
  5
193E
  8
0
 10
185.6606382327290135
 20
49.3235380236234278
 30
0.0
 40
0.1028441072715713
 50
71.5196747635891228
 51
93.4160040408358014
  0
ARC
  5
193F
  8
0
 10
185.6872186751267861
 20
49.3944609042721581
 30
0.0
 40
0.0272898590196851
 50
16.0909342647321303
 51
77.2582285505365576
  0
ARC
  5
1940
  8
0
 10
185.8544276994047095
 20
47.8401973193548784
 30
0.0
 40
0.0590553537704137
 50
183.0004801394645142
 51
296.8072131836318022
  0
ARC
  5
1941
  8
0
 10
186.0005508521311981
 20
235.4005176785925926
 30
0.0
 40
185.9746402156251861
 50
269.6209956123543066
 51
269.8933904229962764
  0
LINE
  5
1942
  8
0
 10
185.6545102457396013
 20
49.426199399885121
 30
0.0
 11
185.6474594376767868
 21
49.5583305830455672
 31
0.0
  0
LINE
  5
1943
  8
0
 10
184.8226531993767878
 20
48.4969935399459615
 30
0.0
 11
184.9969760642678978
 21
47.0773327267190425
 31
0.0
  0
LINE
  5
1944
  8
0
 10
184.6799464964767878
 20
49.2076170678459519
 30
0.0
 11
184.7578811044432996
 21
48.5844650512461271
 31
0.0
  0
LINE
  5
1945
  8
0
 10
185.0555909944768018
 20
47.0254746169459494
 30
0.0
 11
185.6661233672768105
 21
47.0254746169459494
 31
0.0
  0
LINE
  5
1946
  8
0
 10
185.7516984876704953
 20
47.5890151107964599
 30
0.0
 11
185.7250975523768091
 21
47.0814390290459599
 31
0.0
  0
ARC
  5
1947
  8
0
 10
188.2710599632731032
 20
46.2776006008391505
 30
0.0
 40
1.220472441347388
 50
92.0000000072351156
 51
123.6819337041775952
  0
LINE
  5
1948
  8
0
 10
187.0297869542652904
 20
47.4973295633459571
 30
0.0
 11
188.2284660891768056
 21
47.4973295633459571
 31
0.0
  0
LINE
  5
1949
  8
0
 10
187.5943824389763961
 20
47.2933075015738922
 30
0.0
 11
187.0047204086255022
 21
47.293191152759043
 31
0.0
  0
ARC
  5
194A
  8
0
 10
186.9406949121797084
 20
49.2523868788686272
 30
0.0
 40
0.3573648133579406
 50
352.8032121030216786
 51
8.4157097180256972
  0
ARC
  5
194B
  8
0
 10
187.046141830659792
 20
49.2698688754418086
 30
0.0
 40
0.2505016709521271
 50
7.9900163021806927
 51
25.1610143105234805
  0
ARC
  5
194C
  8
0
 10
187.1810904132198061
 20
49.3374111345314077
 30
0.0
 40
0.0997118271633269
 50
23.0008733422971687
 51
59.4051518782849826
  0
ARC
  5
194D
  8
0
 10
187.2051102084276977
 20
49.3733147589191717
 30
0.0
 40
0.0566321886650321
 50
61.8363239873388792
 51
90.2836191285726954
  0
ARC
  5
194E
  8
0
 10
187.1018409478375872
 20
48.6022515070809575
 30
0.0
 40
0.1168306067355792
 50
295.7174191177854823
 51
351.2431582726861734
  0
ARC
  5
194F
  8
0
 10
186.919599810598811
 20
47.0845297339889015
 30
0.0
 40
0.0590551170429418
 50
269.9999991054386896
 51
353.0000010448346757
  0
ARC
  5
1950
  8
0
 10
186.3090674368644102
 20
47.0845297350148471
 30
0.0
 40
0.059055118068899
 50
182.9999998967473118
 51
270.0000000120390951
  0
ARC
  5
1951
  8
0
 10
185.5921495164548958
 20
49.5962230347647477
 30
0.0
 40
0.7365571912478397
 50
357.0510961015071985
 51
11.2674567398465904
  0
ARC
  5
1952
  8
0
 10
185.9930142623294103
 20
49.6875085340546434
 30
0.0
 40
0.325775231119647
 50
9.2970152108274267
 51
34.1361316336218223
  0
ARC
  5
1953
  8
0
 10
186.223483914598603
 20
49.8399788087663325
 30
0.0
 40
0.049552539786154
 50
37.7575781053243276
 51
85.3989526475470058
  0
LINE
  5
1954
  8
0
 10
186.261751404247093
 20
49.4020246333348112
 30
0.0
 11
186.1797374993070946
 21
47.8371061067376502
 31
0.0
  0
ARC
  5
1955
  8
0
 10
186.3145525714247128
 20
49.3235380236234278
 30
0.0
 40
0.1028441072715713
 50
86.5839959591641843
 51
108.4803252364109056
  0
ARC
  5
1956
  8
0
 10
186.2879721290269117
 20
49.3944609042721581
 30
0.0
 40
0.0272898590196851
 50
102.7417714494634993
 51
163.9090657352678875
  0
ARC
  5
1957
  8
0
 10
186.1207631047489031
 20
47.8401973193548784
 30
0.0
 40
0.0590553537704137
 50
243.1927868163683115
 51
356.9995198605353721
  0
ARC
  5
1958
  8
0
 10
185.9746399520224998
 20
235.4005176785925926
 30
0.0
 40
185.9746402156251861
 50
270.1066095770037236
 51
270.3790043876456934
  0
LINE
  5
1959
  8
0
 10
186.3206805584140966
 20
49.426199399885121
 30
0.0
 11
186.3277313664767973
 21
49.5583305830455672
 31
0.0
  0
LINE
  5
195A
  8
0
 10
187.1525376047767963
 20
48.4969935399459615
 30
0.0
 11
186.9782147398858001
 21
47.0773327267190425
 31
0.0
  0
LINE
  5
195B
  8
0
 10
187.2952443076767963
 20
49.2076170678459519
 30
0.0
 11
187.217309699710313
 21
48.5844650512461271
 31
0.0
  0
LINE
  5
195C
  8
0
 10
186.9195998096768108
 20
47.0254746169459494
 30
0.0
 11
186.309067436876802
 21
47.0254746169459494
 31
0.0
  0
LINE
  5
195D
  8
0
 10
186.2234923164832026
 20
47.5890151107964599
 30
0.0
 11
186.2500932517768035
 21
47.0814390290459599
 31
0.0
  0
LINE
  5
195E
  8
0
 10
185.7477313507768031
 20
49.8893706095459635
 30
0.0
 11
186.2274588778768134
 21
49.889371661145951
 31
0.0
  0
ARC
  5
195F
  8
0
 10
185.9875954020768063
 20
47.5766557255941294
 30
0.0
 40
0.2362204661519017
 50
2.9991647727376218
 51
177.0008352272623995
  0
LINE
  5
1960
  8
0
 10
188.2284661010500884
 20
47.4973295633110268
 30
0.0
 11
216.3210166197769126
 21
48.4783430444459569
 31
0.0
  0
ARC
  5
1961
  8
0
 10
216.3989056098413073
 20
50.0586310300667634
 30
0.0
 40
0.3259873419773478
 50
169.1541622480056901
 51
187.1565786604651862
  0
ARC
  5
1962
  8
0
 10
216.3024557390145048
 20
50.0782948427493793
 30
0.0
 40
0.2275632461442334
 50
153.1358608418711924
 51
169.4472011467690891
  0
ARC
  5
1963
  8
0
 10
216.1995541905469906
 20
50.1321030728904589
 30
0.0
 40
0.1114622331843722
 50
125.4341215609475029
 51
153.9082193658701101
  0
ARC
  5
1964
  8
0
 10
216.1692534536443873
 20
50.1716263264025315
 30
0.0
 40
0.0617175272739474
 50
92.149301769018507
 51
123.7867543585879986
  0
ARC
  5
1965
  8
0
 10
216.2601377358197112
 20
49.360215086004132
 30
0.0
 40
0.1022332105554204
 50
189.7168515698905082
 51
249.5943855431617919
  0
ARC
  5
1966
  8
0
 10
217.7301106870756939
 20
50.419366251252562
 30
0.0
 40
0.6315621763889857
 50
167.4113371640983985
 51
182.9258714317936096
  0
ARC
  5
1967
  8
0
 10
217.3973016065627917
 20
50.5037791662041897
 30
0.0
 40
0.2885241621855989
 50
144.8168255426236044
 51
169.3673229153505133
  0
ARC
  5
1968
  8
0
 10
217.206985539547702
 20
50.6373384911487321
 30
0.0
 40
0.0560225114306788
 50
95.9301896672890138
 51
144.3067506074262099
  0
ARC
  5
1969
  8
0
 10
217.1118845130012005
 20
50.1566296566903276
 30
0.0
 40
0.1068115305970676
 50
74.4020741993373065
 51
93.2124812016939757
  0
ARC
  5
196A
  8
0
 10
217.1355048316032992
 20
50.2281821265831994
 30
0.0
 40
0.0317378314162809
 50
18.1157433326036283
 51
80.7535222350139321
  0
ARC
  5
196B
  8
0
 10
231.1858654999988119
 20
-405.5416606784722831
 30
0.0
 40
456.0223496018836045
 50
91.7693231323063543
 51
91.8873565176432976
  0
LINE
  5
196C
  8
0
 10
217.1058989014169924
 20
50.2632733415593833
 30
0.0
 11
217.0993718084768886
 21
50.3871288557459707
 31
0.0
  0
LINE
  5
196D
  8
0
 10
216.0754579049767869
 20
50.018019094045961
 30
0.0
 11
216.1593711760768883
 21
49.3429602380459613
 31
0.0
  0
LINE
  5
196E
  8
0
 10
216.2244927068769016
 20
49.2643972314459617
 30
0.0
 11
216.4930394453566009
 21
47.0773295600745101
 31
0.0
  0
ARC
  5
196F
  8
0
 10
216.5516539866767971
 20
47.0845297350459475
 30
0.0
 40
0.059055118099995
 50
187.0030952508132032
 51
270.0000000000032969
  0
LINE
  5
1970
  8
0
 10
217.1656921353767871
 20
50.2379741335459613
 30
0.0
 11
217.2915162970130041
 21
47.837106106734808
 31
0.0
  0
ARC
  5
1971
  8
0
 10
217.3504904751681011
 20
47.8401969459135614
 30
0.0
 40
0.0590551181177356
 50
183.0001293129730016
 51
296.8068167731374274
  0
ARC
  5
1972
  8
0
 10
217.1621863738097034
 20
47.0845297198189101
 30
0.0
 40
0.0590551028729611
 50
269.9999859971501905
 51
357.0000140940591109
  0
LINE
  5
1973
  8
0
 10
217.2477616996768859
 20
47.5890185415459612
 30
0.0
 11
217.2211605444767883
 21
47.0814390290459599
 31
0.0
  0
LINE
  5
1974
  8
0
 10
216.5516539866767971
 20
47.0254746169459494
 30
0.0
 11
217.1621863593767898
 21
47.0254746169459494
 31
0.0
  0
ARC
  5
1975
  8
0
 10
217.2484914213025036
 20
50.4443093125829733
 30
0.0
 40
0.6201145160965462
 50
356.9636940907378744
 51
12.1883343336199506
  0
ARC
  5
1976
  8
0
 10
217.5799614595159142
 20
50.5260848413857104
 30
0.0
 40
0.2790287284989023
 50
10.14469623294314
 51
35.7340283758479984
  0
ARC
  5
1977
  8
0
 10
217.7638024894941964
 20
50.6572316996663972
 30
0.0
 40
0.053213155065883
 50
36.7146820569603918
 51
87.7157922304690345
  0
ARC
  5
1978
  8
0
 10
217.8283169459116948
 20
50.256190190668633
 30
0.0
 40
0.0261009526230221
 50
104.0310797106548932
 51
166.973801203471794
  0
ARC
  5
1979
  8
0
 10
217.8560706446324957
 20
50.1879770072734814
 30
0.0
 40
0.0995512004019592
 50
87.1318688166930571
 51
110.0204039498426027
  0
ARC
  5
197A
  8
0
 10
218.810482185859712
 20
50.255231342061542
 30
0.0
 40
0.0625134421167714
 50
47.5405404939779217
 51
91.2750469537524793
  0
ARC
  5
197B
  8
0
 10
218.7293504402722988
 20
50.1824047372169488
 30
0.0
 40
0.1713450664541771
 50
6.2883691448413943
 51
43.9627934234381925
  0
ARC
  5
197C
  8
0
 10
218.5823027078882035
 20
50.1501086630581625
 30
0.0
 40
0.3214437279982008
 50
352.7278834780161105
 51
9.1406214521939102
  0
ARC
  5
197D
  8
0
 10
218.7072988184945075
 20
49.4429040427122928
 30
0.0
 40
0.1094507792692885
 50
294.3945267531983063
 51
349.792084282860003
  0
LINE
  5
197E
  8
0
 10
218.9011607946769118
 20
50.1094197117459501
 30
0.0
 11
218.8150171159767865
 21
49.4235070978459632
 31
0.0
  0
LINE
  5
197F
  8
0
 10
217.861051930735897
 20
50.2874035041957086
 30
0.0
 11
218.8090911410768058
 21
50.3177293055459529
 31
0.0
  0
LINE
  5
1980
  8
0
 10
217.8677354027767876
 20
50.4114626311459588
 30
0.0
 11
217.8610410519769118
 21
50.2874040672459586
 31
0.0
  0
LINE
  5
1981
  8
0
 10
218.7524936487619129
 20
49.3432194376932216
 30
0.0
 11
218.4742777442768045
 21
47.0773327298459634
 31
0.0
  0
ARC
  5
1982
  8
0
 10
218.4156628267604958
 20
47.0845297202507425
 30
0.0
 40
0.0590551033047874
 50
269.9999873061667017
 51
353.0000158937651236
  0
ARC
  5
1983
  8
0
 10
217.8051304410369937
 20
47.0845297351966678
 30
0.0
 40
0.0590551182507138
 50
183.0000000641450129
 51
269.9999999416659193
  0
LINE
  5
1984
  8
0
 10
217.8051304410369937
 20
47.0254746169459494
 30
0.0
 11
218.4156628136769029
 21
47.0254746169459494
 31
0.0
  0
LINE
  5
1985
  8
0
 10
217.7195566395685091
 20
47.5890036279176627
 30
0.0
 11
217.7461562558638093
 21
47.0814390289677078
 31
0.0
  0
ARC
  5
1986
  8
0
 10
217.483658779053286
 20
47.5766553623108805
 30
0.0
 40
0.2362208294353759
 50
2.9964593826496548
 51
176.9999183319634142
  0
ARC
  5
1987
  8
0
 10
217.6168272259986907
 20
47.8401668171949765
 30
0.0
 40
0.0590286011897061
 50
243.3150332407070096
 51
356.9435626117199263
  0
LINE
  5
1988
  8
0
 10
217.6757718589103092
 20
47.8370194358495695
 30
0.0
 11
217.8028876464173038
 21
50.2620732557761229
 31
0.0
  0
LINE
  5
1989
  8
0
 10
217.2011974818769033
 20
50.6930611990459496
 30
0.0
 11
217.7659233735768112
 21
50.7104025725459593
 31
0.0
  0
LINE
  5
198A
  8
0
 10
218.6563133053768127
 20
48.559893401645958
 30
0.0
 11
220.8658984212767962
 21
48.6370538141459576
 31
0.0
  0
ARC
  5
198B
  8
0
 10
220.7491081255629979
 20
51.9814744942365579
 30
0.0
 40
3.3464579204673361
 50
272.0515097641443276
 51
352.9505671901134178
  0
ARC
  5
198C
  8
0
 10
186.9971580177763997
 20
79.6178302883481024
 30
0.0
 40
45.3813019655941901
 50
336.4373410502269053
 51
340.0738365148151274
  0
ARC
  5
198D
  8
0
 10
210.8504651594604979
 20
69.8209120282046456
 30
0.0
 40
19.6083311492097891
 50
326.3569662049599742
 51
334.8144846128921017
  0
ARC
  5
198E
  8
0
 10
258.6517381136338827
 20
37.8815722482427191
 30
0.0
 40
37.8815726848794228
 50
146.1951974821643034
 51
151.1381624848370109
  0
ARC
  5
198F
  8
0
 10
237.0834789701430054
 20
50.1071355495921722
 30
0.0
 40
13.0944651293173298
 50
152.4334392959713966
 51
172.9712545757668067
  0
LINE
  5
1990
  8
0
 10
224.0702689578768059
 20
51.5707783299459592
 30
0.0
 11
224.0874202573768059
 21
51.7094697710459599
 31
0.0
  0
LINE
  5
1991
  8
0
 10
227.6050347711789072
 20
59.6341045016459574
 30
0.0
 11
178.349463262047891
 21
59.6341045016459574
 31
0.0
  0
ARC
  5
1992
  8
0
 10
233.3527124871768876
 20
64.939153363645957
 30
0.0
 40
0.3937007874000089
 50
5.0000000000001483
 51
92.0000000737992139
  0
ARC
  5
1993
  8
0
 10
233.0995571333394878
 20
110.5791915037402049
 30
0.0
 40
45.2472105952657486
 50
269.6688103007891755
 51
270.3031690894616759
  0
LINE
  5
1994
  8
0
 10
233.7391422744769045
 20
64.9733523824459667
 30
0.0
 11
233.8168314862303987
 21
64.1514588689459515
 31
0.0
  0
LINE
  5
1995
  8
0
 10
174.7725307309233074
 20
64.1514588689459515
 30
0.0
 11
233.8168314862303987
 21
64.1514588689459515
 31
0.0
  0
LINE
  5
1996
  8
0
 10
232.8380138443787928
 20
65.3327368165459461
 30
0.0
 11
175.7513483727747996
 21
65.3327368165459461
 31
0.0
  0
LINE
  5
1997
  8
0
 62
     1
 10
204.2946811085768104
 20
47.0254746169459494
 30
0.0
 11
158.0032785341670092
 21
7.229446922651845
 31
0.0
  0
ENDBLK
  5
1999
  8
0
  0
ENDSEC
  0
SECTION
  2
ENTITIES
  0
ATTDEF
  5
B55
  8
DEFPOINTS
 10
284.469816479519011
 20
-17.3556668921837591
 30
0.0
 40
0.001
  1
K-45592T-GR1
  3

  2
MODELNUMBER
 70
     0
1001
ACDBATTR
1070
     0
1070
     1
  0
ATTDEF
  5
B56
  8
DEFPOINTS
 10
284.469816479519011
 20
-17.3572733041892207
 30
0.0
 40
0.001
  1
ARCHER
  3

  2
TRADENAME
 70
     0
1001
ACDBATTR
1070
     0
1070
     1
  0
ATTDEF
  5
B57
  8
DEFPOINTS
 10
284.469816479519011
 20
-17.3588797161946786
 30
0.0
 40
0.001
  1
BATH
  3

  2
PRODUCT
 70
     0
1001
ACDBATTR
1070
     0
1070
     1
  0
ARC
  5
1C6B
  8
0
 10
255.9258978645291904
 20
-3.5796887218700979
 30
0.0
 40
0.9788442046206995
 50
89.9999999980768024
 51
180.0000000046410094
  0
ARC
  5
1C6C
  8
0
 10
255.9258978645949014
 20
-31.1387438399700898
 30
0.0
 40
0.978844204779288
 50
179.9992106051413998
 51
269.9999999980768166
  0
LINE
  5
1C6D
  8
0
 10
254.9470536599085051
 20
-31.1387303539055189
 30
0.0
 11
254.9470536599085051
 21
-3.5796887219493949
 31
0.0
  0
ARC
  5
1C6E
  8
0
 10
259.3938963943945737
 20
-6.7745462820757041
 30
0.0
 40
1.2886396450067601
 50
129.7567044118171111
 51
158.0257238321269995
  0
ARC
  5
1C6F
  8
0
 10
259.0746028873406885
 20
-6.3903139394740398
 30
0.0
 40
0.7890570975581538
 50
90.7222910132408629
 51
129.7759758174111937
  0
ARC
  5
1C70
  8
0
 10
260.0536970746888983
 20
-7.0712436220782697
 30
0.0
 40
2.011726739985531
 50
157.2210592976699104
 51
180.5700838231803971
  0
ARC
  5
1C71
  8
0
 10
261.0849004398978082
 20
-9.0760875492312039
 30
0.0
 40
1.840044437980628
 50
88.4736982857998555
 51
171.9332148598861068
  0
ARC
  5
1C72
  8
0
 10
262.0656916946041974
 20
-10.9423718858401209
 30
0.0
 40
3.5168448321320729
 50
89.6002149552304701
 51
142.8365721903707026
  0
LINE
  5
1C73
  8
0
 10
258.042069913661976
 20
-7.091259651949386
 30
0.0
 11
258.042069913661976
 21
-27.6271729101493904
 31
0.0
  0
LINE
  5
1C74
  8
0
 10
259.6602527351619756
 20
-12.8080520513493799
 30
0.0
 11
259.6602527334620163
 21
-21.910380184149389
 31
0.0
  0
ARC
  5
1C75
  8
0
 10
261.0849004398978082
 20
-25.6423450128675583
 30
0.0
 40
1.840044437980628
 50
188.066785140113808
 51
271.5263017142000876
  0
ARC
  5
1C76
  8
0
 10
262.0656916946041974
 20
-23.776060676258659
 30
0.0
 40
3.5168448321320729
 50
217.163427809629809
 51
270.3997850447694873
  0
ARC
  5
1C77
  8
0
 10
259.3938963943945737
 20
-27.9438862800230794
 30
0.0
 40
1.2886396450067601
 50
201.9742761678730005
 51
230.2432955881830026
  0
ARC
  5
1C78
  8
0
 10
259.0746028873406885
 20
-28.3281186226247286
 30
0.0
 40
0.7890570975581538
 50
230.2240241825888063
 51
269.2777089867574887
  0
ARC
  5
1C79
  8
0
 10
260.0536970746888983
 20
-27.6471889400204986
 30
0.0
 40
2.011726739985531
 50
179.4299161768194892
 51
202.7789407023300896
  0
ARC
  5
1C7A
  8
0
 10
313.0125102120912857
 20
-3.5796887212502488
 30
0.0
 40
0.9788442031242752
 50
359.9999999590771722
 51
90.0006721313961151
  0
ARC
  5
1C7B
  8
0
 10
313.0125102105262727
 20
-31.1387438399688712
 30
0.0
 40
0.9788442047822202
 50
270.0001069556284961
 51
0.0007893947868992
  0
LINE
  5
1C7C
  8
0
 10
313.9913544152155964
 20
-31.1387303539055189
 30
0.0
 11
313.9913544152155964
 21
-3.5796887219493949
 31
0.0
  0
LINE
  5
1C7D
  8
0
 10
255.9258978645619891
 20
-2.600844517249385
 30
0.0
 11
313.0124987293621075
 21
-2.600844518193326
 31
0.0
  0
LINE
  5
1C7E
  8
0
 10
313.0125120377620078
 20
-32.1175880447493824
 30
0.0
 11
255.9258978645619891
 21
-32.1175880447493824
 31
0.0
  0
LINE
  5
1C7F
  8
0
 10
259.0646560158621128
 20
-29.1171130224493986
 30
0.0
 11
308.2229740821621249
 21
-29.1171130223493897
 31
0.0
  0
LINE
  5
1C80
  8
0
 10
259.0646560158621128
 20
-5.6013195396493813
 30
0.0
 11
308.2229740083619731
 21
-5.601319461885069
 31
0.0
  0
ARC
  5
1C81
  8
0
 10
308.2833364662432132
 20
-6.6904504060686056
 30
0.0
 40
1.0840686188513311
 50
26.4902120180594984
 51
64.4172644797334044
  0
ARC
  5
1C82
  8
0
 10
308.2394213265167764
 20
-6.8331255950426453
 30
0.0
 40
1.2319159321800659
 50
65.4404962161479631
 51
90.7649790769897464
  0
ARC
  5
1C83
  8
0
 10
307.7316978332793269
 20
-6.9602171749097721
 30
0.0
 40
1.698125387343538
 50
7.5403110253524988
 51
26.3346169929373488
  0
ARC
  5
1C84
  8
0
 10
308.2864960521212083
 20
-28.0333176132153596
 30
0.0
 40
1.0780826337594209
 50
297.5722567008565989
 51
330.9647650308185121
  0
ARC
  5
1C85
  8
0
 10
308.2414227599401784
 20
-27.8993961988252686
 30
0.0
 40
1.217856566269369
 50
269.1320227397520171
 51
296.5355999425959226
  0
ARC
  5
1C86
  8
0
 10
307.9386564996354991
 20
-27.8344688386867212
 30
0.0
 40
1.4787255031469959
 50
330.7696857115848275
 51
350.2741111446230775
  0
ARC
  5
1C87
  8
0
 10
255.952817315025186
 20
-17.3590545497948696
 30
0.0
 40
54.4703030116769469
 50
349.7012537614519943
 51
10.2983537900138291
  0
LINE
  5
1C88
  8
0
 10
309.3961286319619717
 20
-28.0842769593493813
 30
0.0
 11
309.415139243105898
 21
-27.9810497352974785
 31
0.0
  0
LINE
  5
1C89
  8
0
 10
309.415139243105898
 20
-27.9810497352974785
 30
0.0
 11
309.4344769271908717
 21
-27.8674980340267204
 31
0.0
  0
LINE
  5
1C8A
  8
0
 10
309.4344769271908717
 20
-27.8674980340267204
 30
0.0
 11
309.5275379799621192
 21
-27.2140906047493907
 31
0.0
  0
LINE
  5
1C8B
  8
0
 10
309.5275379799621192
 20
-27.2140906047493907
 30
0.0
 11
309.5455465674619973
 21
-27.09729265834941
 31
0.0
  0
LINE
  5
1C8C
  8
0
 10
309.4151391296799147
 20
-6.7373826337953062
 30
0.0
 11
309.4344700435621007
 21
-6.8508950753493991
 31
0.0
  0
LINE
  5
1C8D
  8
0
 10
309.4344700435621007
 20
-6.8508950753493991
 30
0.0
 11
309.5275376579621138
 21
-7.5043422803493911
 31
0.0
  0
LINE
  5
1C8E
  8
0
 10
309.5275376579621138
 20
-7.5043422803493911
 30
0.0
 11
309.5456132684524277
 21
-7.6211835258894354
 31
0.0
  0
ARC
  5
1C8F
  8
0
 10
307.5763749889414953
 20
-7.5924611696300133
 30
0.0
 40
1.16039311008697
 50
10.1533242704136608
 51
79.544469036801857
  0
ARC
  5
1C90
  8
0
 10
256.2823776896656796
 20
-17.3384161623791186
 30
0.0
 40
53.3688401016878018
 50
349.0219924258872766
 51
10.3399188044266506
  0
ARC
  5
1C91
  8
0
 10
307.5759330425801181
 20
-27.1250508755582196
 30
0.0
 40
1.161378580716093
 50
280.4687310910188103
 51
341.0833224199162146
  0
LINE
  5
1C92
  8
0
 10
308.7185958121623912
 20
-7.387903693751781
 30
0.0
 11
308.7845198382619856
 21
-7.7593680046493878
 31
0.0
  0
ARC
  5
1C93
  8
0
 10
307.4361305004200062
 20
-26.7170804390508287
 30
0.0
 40
1.589223040731786
 50
269.5174925984567835
 51
282.7531898098204124
  0
ARC
  5
1C94
  8
0
 10
307.4361341932012124
 20
-8.0013175000230206
 30
0.0
 40
1.5891884504001761
 50
77.2466646564617605
 51
90.4826521713191312
  0
LINE
  5
1C95
  8
0
 10
307.4227472353621238
 20
-6.4121854349494072
 30
0.0
 11
259.519799307762014
 21
-6.4121854349493921
 31
0.0
  0
LINE
  5
1C96
  8
0
 10
261.1339115686619721
 20
-7.2366959533493818
 30
0.0
 11
304.1913773138621195
 21
-7.2366959533493818
 31
0.0
  0
LINE
  5
1C97
  8
0
 10
262.0902305100619856
 20
-7.4256126646493783
 30
0.0
 11
303.181212207362023
 21
-7.4256126646493783
 31
0.0
  0
ARC
  5
1C98
  8
0
 10
259.6143968060853808
 20
-8.0443477557951297
 30
0.0
 40
1.64714069835569
 50
107.6204605674220005
 51
162.6651200971363949
  0
ARC
  5
1C99
  8
0
 10
259.5074238719669211
 20
-7.6730376474682478
 30
0.0
 40
1.2609129443138281
 50
89.4376523553633405
 51
108.0951011093081036
  0
LINE
  5
1C9A
  8
0
 10
307.4227472665619985
 20
-28.3062471270493887
 30
0.0
 11
259.5197993042621079
 21
-28.3062471271493798
 31
0.0
  0
ARC
  5
1C9B
  8
0
 10
259.3962623880104275
 20
-26.89113467264119
 30
0.0
 40
1.3815798920194049
 50
191.4273418691896893
 51
258.2870774662500821
  0
ARC
  5
1C9C
  8
0
 10
259.5074238719669211
 20
-27.0453949146305312
 30
0.0
 40
1.2609129443138281
 50
251.9048988906903901
 51
270.5623476446365885
  0
ARC
  5
1C9D
  8
0
 10
263.9746545720544191
 20
-12.8669883585252691
 30
0.0
 40
4.3148043608045343
 50
90.8520405146765881
 51
179.2173673599507993
  0
ARC
  5
1C9E
  8
0
 10
263.9746545767541761
 20
-21.851444200519321
 30
0.0
 40
4.3148043658512467
 50
180.7826283294211862
 51
269.1479529184618968
  0
ARC
  5
1C9F
  8
0
 10
303.2089366784878735
 20
-12.3952256171535993
 30
0.0
 40
4.9696902865266086
 50
71.3402055900352252
 51
90.3196383140220149
  0
ARC
  5
1CA0
  8
0
 10
303.6996026776956228
 20
-11.0691828995149102
 30
0.0
 40
3.5565950936763961
 50
37.7059373610971704
 51
71.9944197079076957
  0
ARC
  5
1CA1
  8
0
 10
304.2725855557005161
 20
-10.2970657580729608
 30
0.0
 40
3.0614470631069799
 50
66.2397459265929029
 51
91.5200116974152422
  0
ARC
  5
1CA2
  8
0
 10
304.853534128563183
 20
-9.0271752059306039
 30
0.0
 40
1.665243703097623
 50
4.5892036409045271
 51
66.9297844590683013
  0
LINE
  5
1CA3
  8
0
 10
261.1339115686619721
 20
-27.4817366087493902
 30
0.0
 11
304.1913773138621195
 21
-27.4817366087493902
 31
0.0
  0
LINE
  5
1CA4
  8
0
 10
262.0902305100619856
 20
-27.292819897449391
 30
0.0
 11
303.181212207362023
 21
-27.292819897449391
 31
0.0
  0
ARC
  5
1CA5
  8
0
 10
303.2089366784878735
 20
-22.3232069449451593
 30
0.0
 40
4.9696902865266086
 50
269.6803616859780277
 51
288.6597944099647748
  0
ARC
  5
1CA6
  8
0
 10
303.6996026776956228
 20
-23.6492496625838484
 30
0.0
 40
3.5565950936763961
 50
288.0055802920923043
 51
322.2940626389029148
  0
ARC
  5
1CA7
  8
0
 10
304.2725855557005161
 20
-24.4213668040258014
 30
0.0
 40
3.0614470631069799
 50
268.4799883025863778
 51
293.7602540734071113
  0
ARC
  5
1CA8
  8
0
 10
304.853534128563183
 20
-25.691257356168169
 30
0.0
 40
1.665243703097623
 50
293.0702155409317129
 51
355.4107963590955137
  0
LINE
  5
1CA9
  8
0
 10
263.9104913697073016
 20
-26.1657714711874192
 30
0.0
 11
299.8893236267621205
 21
-26.2512109307493802
 31
0.0
  0
LINE
  5
1CAA
  8
0
 10
263.9104918595621143
 20
-8.5526610855494027
 30
0.0
 11
299.8893038213620912
 21
-8.4672211116493941
 31
0.0
  0
ARC
  5
1CAB
  8
0
 10
299.8349998659131757
 20
-12.2879656920318894
 30
0.0
 40
3.8211304699132689
 50
6.2550041710907927
 51
89.185714221290965
  0
ARC
  5
1CAC
  8
0
 10
299.8924714488318841
 20
-22.4936660802996506
 30
0.0
 40
3.7575461689678691
 50
269.952001404042619
 51
354.607124571674774
  0
ARC
  5
1CAD
  8
0
 10
245.9695496743312049
 20
-17.359243855301191
 30
0.0
 40
57.9243594403081588
 50
354.5638238588471722
 51
5.436207000766891
  0
CIRCLE
  5
1CAE
  8
0
 10
266.1621183369621235
 20
-17.3592162810493811
 30
0.0
 40
1.028820775500001
  0
ENDSEC
  0
EOF
