  0
SECTION
  2
HEADER
  9
$ACADVER
  1
AC1009
  9
$INSBASE
 10
294.5780018206805266
 20
-6.5436850365283163
 30
0.0
  9
$EXTMIN
 10
196.9757589323525906
 20
-21.3020568005143112
 30
0.0
  9
$EXTMAX
 10
333.8885832904794029
 20
25.2874153712041014
 30
0.0
  9
$LIMMIN
 10
0.0
 20
0.0
  9
$LIMMAX
 10
22.0
 20
17.0
  9
$ORTHOMODE
 70
     0
  9
$REGENMODE
 70
     1
  9
$FILLMODE
 70
     1
  9
$QTEXTMODE
 70
     0
  9
$MIRRTEXT
 70
     0
  9
$DRAGMODE
 70
     2
  9
$LTSCALE
 40
1.2099999999999991
  9
$OSMODE
 70
  4095
  9
$ATTMODE
 70
     1
  9
$TEXTSIZE
 40
0.2
  9
$TRACEWID
 40
0.05
  9
$TEXTSTYLE
  7
STANDARD
  9
$CLAYER
  8
0
  9
$CELTYPE
  6
BYLAYER
  9
$CECOLOR
 62
   256
  9
$DIMSCALE
 40
1.0
  9
$DIMASZ
 40
0.1875
  9
$DIMEXO
 40
0.0625
  9
$DIMDLI
 40
0.8359999999999999
  9
$DIMRND
 40
0.0
  9
$DIMDLE
 40
0.0
  9
$DIMEXE
 40
0.125
  9
$DIMTP
 40
0.01
  9
$DIMTM
 40
0.01
  9
$DIMTXT
 40
0.15625
  9
$DIMCEN
 40
0.198
  9
$DIMTSZ
 40
0.0
  9
$DIMTOL
 70
     1
  9
$DIMLIM
 70
     0
  9
$DIMTIH
 70
     1
  9
$DIMTOH
 70
     1
  9
$DIMSE1
 70
     0
  9
$DIMSE2
 70
     0
  9
$DIMTAD
 70
     0
  9
$DIMZIN
 70
     0
  9
$DIMBLK
  1

  9
$DIMASO
 70
     1
  9
$DIMSHO
 70
     1
  9
$DIMPOST
  1

  9
$DIMAPOST
  1

  9
$DIMALT
 70
     0
  9
$DIMALTD
 70
     2
  9
$DIMALTF
 40
25.3999999999999986
  9
$DIMLFAC
 40
1.0
  9
$DIMTOFL
 70
     0
  9
$DIMTVP
 40
0.0
  9
$DIMTIX
 70
     0
  9
$DIMSOXD
 70
     0
  9
$DIMSAH
 70
     0
  9
$DIMBLK1
  1

  9
$DIMBLK2
  1

  9
$DIMSTYLE
  2
STANDARD
  9
$DIMCLRD
 70
     0
  9
$DIMCLRE
 70
     0
  9
$DIMCLRT
 70
     0
  9
$DIMTFAC
 40
1.0
  9
$DIMGAP
 40
0.09
  9
$LUNITS
 70
     2
  9
$LUPREC
 70
     4
  9
$SKETCHINC
 40
0.1
  9
$FILLETRAD
 40
0.0
  9
$AUNITS
 70
     0
  9
$AUPREC
 70
     0
  9
$MENU
  1
.
  9
$ELEVATION
 40
0.0
  9
$PELEVATION
 40
0.0
  9
$THICKNESS
 40
0.0
  9
$LIMCHECK
 70
     0
  9
$BLIPMODE
 70
     0
  9
$CHAMFERA
 40
0.0
  9
$CHAMFERB
 40
0.0
  9
$SKPOLY
 70
     0
  9
$TDCREATE
 40
2457413.4551851851865649
  9
$TDUPDATE
 40
2459122.9966898141428828
  9
$TDINDWG
 40
0.1705602894
  9
$TDUSRTIMER
 40
0.1705602894
  9
$USRTIMER
 70
     1
  9
$ANGBASE
 50
0.0
  9
$ANGDIR
 70
     0
  9
$PDMODE
 70
     0
  9
$PDSIZE
 40
0.3125
  9
$PLINEWID
 40
0.0
  9
$COORDS
 70
     1
  9
$SPLFRAME
 70
     0
  9
$SPLINETYPE
 70
     6
  9
$SPLINESEGS
 70
     8
  9
$ATTDIA
 70
     1
  9
$ATTREQ
 70
     1
  9
$HANDLING
 70
     1
  9
$HANDSEED
  5
1DC1
  9
$SURFTAB1
 70
     6
  9
$SURFTAB2
 70
     6
  9
$SURFTYPE
 70
     6
  9
$SURFU
 70
     6
  9
$SURFV
 70
     6
  9
$UCSNAME
  2

  9
$UCSORG
 10
0.0
 20
0.0
 30
0.0
  9
$UCSXDIR
 10
1.0
 20
0.0
 30
0.0
  9
$UCSYDIR
 10
0.0
 20
1.0
 30
0.0
  9
$PUCSNAME
  2

  9
$PUCSORG
 10
0.0
 20
0.0
 30
0.0
  9
$PUCSXDIR
 10
1.0
 20
0.0
 30
0.0
  9
$PUCSYDIR
 10
0.0
 20
1.0
 30
0.0
  9
$USERI1
 70
     0
  9
$USERI2
 70
     0
  9
$USERI3
 70
     0
  9
$USERI4
 70
     0
  9
$USERI5
 70
     0
  9
$USERR1
 40
0.0
  9
$USERR2
 40
0.0
  9
$USERR3
 40
0.0
  9
$USERR4
 40
0.0
  9
$USERR5
 40
0.0
  9
$WORLDVIEW
 70
     1
  9
$SHADEDGE
 70
     3
  9
$SHADEDIF
 70
    70
  9
$TILEMODE
 70
     1
  9
$MAXACTVP
 70
    64
  9
$PLIMCHECK
 70
     0
  9
$PEXTMIN
 10
1.0000000000000000E+20
 20
1.0000000000000000E+20
 30
1.0000000000000000E+20
  9
$PEXTMAX
 10
-1.0000000000000000E+20
 20
-1.0000000000000000E+20
 30
-1.0000000000000000E+20
  9
$PLIMMIN
 10
0.0
 20
0.0
  9
$PLIMMAX
 10
12.0
 20
9.0
  9
$UNITMODE
 70
     0
  9
$VISRETAIN
 70
     1
  9
$PLINEGEN
 70
     0
  9
$PSLTSCALE
 70
     1
  0
ENDSEC
  0
SECTION
  2
TABLES
  0
TABLE
  2
VPORT
 70
     1
  0
VPORT
  2
*ACTIVE
 70
     0
 10
0.0
 20
0.0
 11
1.0
 21
1.0
 12
328.8426056290429074
 22
-32.5666865086061534
 13
0.0
 23
0.0
 14
1.0
 24
1.0
 15
0.0
 25
0.0
 16
-0.0000000000000053
 26
0.0
 36
23.7775983911410194
 17
7.7199220657348633
 27
10.9499638080596906
 37
0.0
 40
180.4339648824509084
 41
2.005224660397074
 42
50.0
 43
0.0
 44
0.0
 50
0.0
 51
0.0
 71
     0
 72
   100
 73
     1
 74
     1
 75
     0
 76
     0
 77
     0
 78
     0
  0
ENDTAB
  0
TABLE
  2
LTYPE
 70
     1
  0
LTYPE
  2
CONTINUOUS
 70
     0
  3
Solid line
 72
    65
 73
     0
 40
0.0
  0
ENDTAB
  0
TABLE
  2
LAYER
 70
     2
  0
LAYER
  2
0
 70
     0
 62
     7
  6
CONTINUOUS
  0
LAYER
  2
DEFPOINTS
 70
     0
 62
     7
  6
CONTINUOUS
  0
ENDTAB
  0
TABLE
  2
STYLE
 70
     1
  0
STYLE
  2
STANDARD
 70
     0
 40
0.0
 41
0.8
 50
0.0
 71
     0
 42
0.2
  3
txt
  4

  0
ENDTAB
  0
TABLE
  2
VIEW
 70
     0
  0
ENDTAB
  0
TABLE
  2
UCS
 70
     0
  0
ENDTAB
  0
TABLE
  2
APPID
 70
     4
  0
APPID
  2
ACAD
 70
     0
  0
APPID
  2
ACAD_MLEADERVER
 70
     0
  0
APPID
  2
ACAD_NAV_VCDISPLAY
 70
     0
  0
APPID
  2
ACDBATTR
 70
     0
  0
ENDTAB
  0
TABLE
  2
DIMSTYLE
 70
     1
  0
DIMSTYLE
  2
STANDARD
 70
     0
  3

  4

  5

  6

  7

 40
1.0
 41
0.1875
 42
0.0625
 43
0.38
 44
0.125
 45
0.0
 46
0.0
 47
0.01
 48
0.01
140
0.15625
141
0.09
142
0.0
143
25.3999999999999986
144
1.0
145
0.0
146
1.0
147
0.09
 71
     1
 72
     0
 73
     1
 74
     1
 75
     0
 76
     0
 77
     0
 78
     4
170
     0
171
     2
172
     0
173
     0
174
     0
175
     0
176
     0
177
     0
178
     0
  0
ENDTAB
  0
ENDSEC
  0
SECTION
  2
BLOCKS
  0
BLOCK
  8
0
  2
$MODEL_SPACE
 70
     0
 10
0.0
 20
0.0
 30
0.0
  3
$MODEL_SPACE
  1

  0
ENDBLK
  5
21
  8
0
  0
BLOCK
 67
     1
  8
0
  2
$PAPER_SPACE
 70
     0
 10
0.0
 20
0.0
 30
0.0
  3
$PAPER_SPACE
  1

  0
ENDBLK
  5
1D
 67
     1
  8
0
  0
BLOCK
  8
0
  2
_FILLED
 70
     0
 10
0.0
 20
0.0
 30
0.0
  3
_FILLED
  1

  0
SOLID
  5
BDD
  8
0
  6
BYBLOCK
 62
     0
 10
0.0
 20
0.0
 30
0.0
 11
-1.0
 21
0.1666666667
 31
0.0
 12
-1.0
 22
-0.1666666667
 32
0.0
 13
-1.0
 23
-0.1666666667
 33
0.0
  0
ENDBLK
  5
BDE
  8
0
  6
BYBLOCK
 62
     0
  0
BLOCK
  8
0
  2
A$C7F95F54A
 70
     0
 10
0.0
 20
0.0
 30
0.0
  3
A$C7F95F54A
  1

  0
ARC
  5
192A
  8
0
 10
175.23664972997679
 20
64.939153363645957
 30
0.0
 40
0.3937007874000089
 50
87.9999999262008004
 51
174.999999999999801
  0
ARC
  5
192B
  8
0
 10
175.4898050838141046
 20
110.5791915037402049
 30
0.0
 40
45.2472105952657486
 50
269.6968309105383241
 51
270.3311896992108245
  0
LINE
  5
192C
  8
0
 10
174.8502199426768016
 20
64.9733523824459667
 30
0.0
 11
174.7725307309233074
 21
64.1514588689459515
 31
0.0
  0
LINE
  5
192D
  8
0
 10
177.9542459657768063
 20
64.1514588689459657
 30
0.0
 11
179.1399664195743924
 21
50.5986190006906611
 31
0.0
  0
ARC
  5
192E
  8
0
 10
182.4736898875275983
 20
50.8902825284642688
 30
0.0
 40
3.346457795074572
 50
185.0000088179949955
 51
267.9999728775741232
  0
LINE
  5
192F
  8
0
 10
182.3568986115768098
 20
47.5458633603459617
 30
0.0
 11
183.746724714976807
 21
47.4973295633459571
 31
0.0
  0
ARC
  5
1930
  8
0
 10
183.7041308408805094
 20
46.2776006008391505
 30
0.0
 40
1.220472441347388
 50
56.3180662958223834
 51
87.999999992764927
  0
LINE
  5
1931
  8
0
 10
184.9454038498882937
 20
47.4973295633459571
 30
0.0
 11
183.746724714976807
 21
47.4973295633459571
 31
0.0
  0
LINE
  5
1932
  8
0
 10
184.3808083651771881
 20
47.2933075015738922
 30
0.0
 11
184.9704703955281104
 21
47.293191152759043
 31
0.0
  0
ARC
  5
1933
  8
0
 10
185.0344958919739042
 20
49.2523868788686272
 30
0.0
 40
0.3573648133579406
 50
171.5842902819742903
 51
187.1967878969782078
  0
ARC
  5
1934
  8
0
 10
184.9290489734937921
 20
49.2698688754418086
 30
0.0
 40
0.2505016709521271
 50
154.8389856894764876
 51
172.0099836978193082
  0
ARC
  5
1935
  8
0
 10
184.7941003909338917
 20
49.3374111345314077
 30
0.0
 40
0.0997118271633269
 50
120.5948481217150032
 51
156.9991266577027886
  0
ARC
  5
1936
  8
0
 10
184.7700805957258865
 20
49.3733147589191717
 30
0.0
 40
0.0566321886650321
 50
89.7163808714273188
 51
118.1636760126610994
  0
ARC
  5
1937
  8
0
 10
184.8733498563159969
 20
48.6022515070809575
 30
0.0
 40
0.1168306067355792
 50
188.7568417273137982
 51
244.2825808822144893
  0
ARC
  5
1938
  8
0
 10
185.0555909935548016
 20
47.0845297339889015
 30
0.0
 40
0.0590551170429418
 50
186.9999989551652959
 51
270.0000008945611967
  0
ARC
  5
1939
  8
0
 10
185.6661233672892877
 20
47.0845297350148471
 30
0.0
 40
0.059055118068899
 50
269.9999999879591996
 51
357.0000001032523187
  0
ARC
  5
193A
  8
0
 10
186.3830412876986884
 20
49.5962230347647477
 30
0.0
 40
0.7365571912478397
 50
168.7325432601533919
 51
182.9489038984926879
  0
ARC
  5
193B
  8
0
 10
185.9821765418242876
 20
49.6875085340546434
 30
0.0
 40
0.325775231119647
 50
145.8638683663781137
 51
170.7029847891722056
  0
ARC
  5
193C
  8
0
 10
185.7517029995086091
 20
49.8399833905082517
 30
0.0
 40
0.0495466587968028
 50
94.5977493278475237
 51
142.243856298516107
  0
LINE
  5
193D
  8
0
 10
185.7134393999066049
 20
49.4020246333348112
 30
0.0
 11
185.7954533048464896
 21
47.8371061067376502
 31
0.0
  0
ARC
  5
193E
  8
0
 10
185.6606382327290135
 20
49.3235380236234278
 30
0.0
 40
0.1028441072715713
 50
71.5196747635891228
 51
93.4160040408358014
  0
ARC
  5
193F
  8
0
 10
185.6872186751267861
 20
49.3944609042721581
 30
0.0
 40
0.0272898590196851
 50
16.0909342647321303
 51
77.2582285505365576
  0
ARC
  5
1940
  8
0
 10
185.8544276994047095
 20
47.8401973193548784
 30
0.0
 40
0.0590553537704137
 50
183.0004801394645142
 51
296.8072131836318022
  0
ARC
  5
1941
  8
0
 10
186.0005508521311981
 20
235.4005176785925926
 30
0.0
 40
185.9746402156251861
 50
269.6209956123543066
 51
269.8933904229962764
  0
LINE
  5
1942
  8
0
 10
185.6545102457396013
 20
49.426199399885121
 30
0.0
 11
185.6474594376767868
 21
49.5583305830455672
 31
0.0
  0
LINE
  5
1943
  8
0
 10
184.8226531993767878
 20
48.4969935399459615
 30
0.0
 11
184.9969760642678978
 21
47.0773327267190425
 31
0.0
  0
LINE
  5
1944
  8
0
 10
184.6799464964767878
 20
49.2076170678459519
 30
0.0
 11
184.7578811044432996
 21
48.5844650512461271
 31
0.0
  0
LINE
  5
1945
  8
0
 10
185.0555909944768018
 20
47.0254746169459494
 30
0.0
 11
185.6661233672768105
 21
47.0254746169459494
 31
0.0
  0
LINE
  5
1946
  8
0
 10
185.7516984876704953
 20
47.5890151107964599
 30
0.0
 11
185.7250975523768091
 21
47.0814390290459599
 31
0.0
  0
ARC
  5
1947
  8
0
 10
188.2710599632731032
 20
46.2776006008391505
 30
0.0
 40
1.220472441347388
 50
92.0000000072351156
 51
123.6819337041775952
  0
LINE
  5
1948
  8
0
 10
187.0297869542652904
 20
47.4973295633459571
 30
0.0
 11
188.2284660891768056
 21
47.4973295633459571
 31
0.0
  0
LINE
  5
1949
  8
0
 10
187.5943824389763961
 20
47.2933075015738922
 30
0.0
 11
187.0047204086255022
 21
47.293191152759043
 31
0.0
  0
ARC
  5
194A
  8
0
 10
186.9406949121797084
 20
49.2523868788686272
 30
0.0
 40
0.3573648133579406
 50
352.8032121030216786
 51
8.4157097180256972
  0
ARC
  5
194B
  8
0
 10
187.046141830659792
 20
49.2698688754418086
 30
0.0
 40
0.2505016709521271
 50
7.9900163021806927
 51
25.1610143105234805
  0
ARC
  5
194C
  8
0
 10
187.1810904132198061
 20
49.3374111345314077
 30
0.0
 40
0.0997118271633269
 50
23.0008733422971687
 51
59.4051518782849826
  0
ARC
  5
194D
  8
0
 10
187.2051102084276977
 20
49.3733147589191717
 30
0.0
 40
0.0566321886650321
 50
61.8363239873388792
 51
90.2836191285726954
  0
ARC
  5
194E
  8
0
 10
187.1018409478375872
 20
48.6022515070809575
 30
0.0
 40
0.1168306067355792
 50
295.7174191177854823
 51
351.2431582726861734
  0
ARC
  5
194F
  8
0
 10
186.919599810598811
 20
47.0845297339889015
 30
0.0
 40
0.0590551170429418
 50
269.9999991054386896
 51
353.0000010448346757
  0
ARC
  5
1950
  8
0
 10
186.3090674368644102
 20
47.0845297350148471
 30
0.0
 40
0.059055118068899
 50
182.9999998967473118
 51
270.0000000120390951
  0
ARC
  5
1951
  8
0
 10
185.5921495164548958
 20
49.5962230347647477
 30
0.0
 40
0.7365571912478397
 50
357.0510961015071985
 51
11.2674567398465904
  0
ARC
  5
1952
  8
0
 10
185.9930142623294103
 20
49.6875085340546434
 30
0.0
 40
0.325775231119647
 50
9.2970152108274267
 51
34.1361316336218223
  0
ARC
  5
1953
  8
0
 10
186.223483914598603
 20
49.8399788087663325
 30
0.0
 40
0.049552539786154
 50
37.7575781053243276
 51
85.3989526475470058
  0
LINE
  5
1954
  8
0
 10
186.261751404247093
 20
49.4020246333348112
 30
0.0
 11
186.1797374993070946
 21
47.8371061067376502
 31
0.0
  0
ARC
  5
1955
  8
0
 10
186.3145525714247128
 20
49.3235380236234278
 30
0.0
 40
0.1028441072715713
 50
86.5839959591641843
 51
108.4803252364109056
  0
ARC
  5
1956
  8
0
 10
186.2879721290269117
 20
49.3944609042721581
 30
0.0
 40
0.0272898590196851
 50
102.7417714494634993
 51
163.9090657352678875
  0
ARC
  5
1957
  8
0
 10
186.1207631047489031
 20
47.8401973193548784
 30
0.0
 40
0.0590553537704137
 50
243.1927868163683115
 51
356.9995198605353721
  0
ARC
  5
1958
  8
0
 10
185.9746399520224998
 20
235.4005176785925926
 30
0.0
 40
185.9746402156251861
 50
270.1066095770037236
 51
270.3790043876456934
  0
LINE
  5
1959
  8
0
 10
186.3206805584140966
 20
49.426199399885121
 30
0.0
 11
186.3277313664767973
 21
49.5583305830455672
 31
0.0
  0
LINE
  5
195A
  8
0
 10
187.1525376047767963
 20
48.4969935399459615
 30
0.0
 11
186.9782147398858001
 21
47.0773327267190425
 31
0.0
  0
LINE
  5
195B
  8
0
 10
187.2952443076767963
 20
49.2076170678459519
 30
0.0
 11
187.217309699710313
 21
48.5844650512461271
 31
0.0
  0
LINE
  5
195C
  8
0
 10
186.9195998096768108
 20
47.0254746169459494
 30
0.0
 11
186.309067436876802
 21
47.0254746169459494
 31
0.0
  0
LINE
  5
195D
  8
0
 10
186.2234923164832026
 20
47.5890151107964599
 30
0.0
 11
186.2500932517768035
 21
47.0814390290459599
 31
0.0
  0
LINE
  5
195E
  8
0
 10
185.7477313507768031
 20
49.8893706095459635
 30
0.0
 11
186.2274588778768134
 21
49.889371661145951
 31
0.0
  0
ARC
  5
195F
  8
0
 10
185.9875954020768063
 20
47.5766557255941294
 30
0.0
 40
0.2362204661519017
 50
2.9991647727376218
 51
177.0008352272623995
  0
LINE
  5
1960
  8
0
 10
188.2284661010500884
 20
47.4973295633110268
 30
0.0
 11
216.3210166197769126
 21
48.4783430444459569
 31
0.0
  0
ARC
  5
1961
  8
0
 10
216.3989056098413073
 20
50.0586310300667634
 30
0.0
 40
0.3259873419773478
 50
169.1541622480056901
 51
187.1565786604651862
  0
ARC
  5
1962
  8
0
 10
216.3024557390145048
 20
50.0782948427493793
 30
0.0
 40
0.2275632461442334
 50
153.1358608418711924
 51
169.4472011467690891
  0
ARC
  5
1963
  8
0
 10
216.1995541905469906
 20
50.1321030728904589
 30
0.0
 40
0.1114622331843722
 50
125.4341215609475029
 51
153.9082193658701101
  0
ARC
  5
1964
  8
0
 10
216.1692534536443873
 20
50.1716263264025315
 30
0.0
 40
0.0617175272739474
 50
92.149301769018507
 51
123.7867543585879986
  0
ARC
  5
1965
  8
0
 10
216.2601377358197112
 20
49.360215086004132
 30
0.0
 40
0.1022332105554204
 50
189.7168515698905082
 51
249.5943855431617919
  0
ARC
  5
1966
  8
0
 10
217.7301106870756939
 20
50.419366251252562
 30
0.0
 40
0.6315621763889857
 50
167.4113371640983985
 51
182.9258714317936096
  0
ARC
  5
1967
  8
0
 10
217.3973016065627917
 20
50.5037791662041897
 30
0.0
 40
0.2885241621855989
 50
144.8168255426236044
 51
169.3673229153505133
  0
ARC
  5
1968
  8
0
 10
217.206985539547702
 20
50.6373384911487321
 30
0.0
 40
0.0560225114306788
 50
95.9301896672890138
 51
144.3067506074262099
  0
ARC
  5
1969
  8
0
 10
217.1118845130012005
 20
50.1566296566903276
 30
0.0
 40
0.1068115305970676
 50
74.4020741993373065
 51
93.2124812016939757
  0
ARC
  5
196A
  8
0
 10
217.1355048316032992
 20
50.2281821265831994
 30
0.0
 40
0.0317378314162809
 50
18.1157433326036283
 51
80.7535222350139321
  0
ARC
  5
196B
  8
0
 10
231.1858654999988119
 20
-405.5416606784722831
 30
0.0
 40
456.0223496018836045
 50
91.7693231323063543
 51
91.8873565176432976
  0
LINE
  5
196C
  8
0
 10
217.1058989014169924
 20
50.2632733415593833
 30
0.0
 11
217.0993718084768886
 21
50.3871288557459707
 31
0.0
  0
LINE
  5
196D
  8
0
 10
216.0754579049767869
 20
50.018019094045961
 30
0.0
 11
216.1593711760768883
 21
49.3429602380459613
 31
0.0
  0
LINE
  5
196E
  8
0
 10
216.2244927068769016
 20
49.2643972314459617
 30
0.0
 11
216.4930394453566009
 21
47.0773295600745101
 31
0.0
  0
ARC
  5
196F
  8
0
 10
216.5516539866767971
 20
47.0845297350459475
 30
0.0
 40
0.059055118099995
 50
187.0030952508132032
 51
270.0000000000032969
  0
LINE
  5
1970
  8
0
 10
217.1656921353767871
 20
50.2379741335459613
 30
0.0
 11
217.2915162970130041
 21
47.837106106734808
 31
0.0
  0
ARC
  5
1971
  8
0
 10
217.3504904751681011
 20
47.8401969459135614
 30
0.0
 40
0.0590551181177356
 50
183.0001293129730016
 51
296.8068167731374274
  0
ARC
  5
1972
  8
0
 10
217.1621863738097034
 20
47.0845297198189101
 30
0.0
 40
0.0590551028729611
 50
269.9999859971501905
 51
357.0000140940591109
  0
LINE
  5
1973
  8
0
 10
217.2477616996768859
 20
47.5890185415459612
 30
0.0
 11
217.2211605444767883
 21
47.0814390290459599
 31
0.0
  0
LINE
  5
1974
  8
0
 10
216.5516539866767971
 20
47.0254746169459494
 30
0.0
 11
217.1621863593767898
 21
47.0254746169459494
 31
0.0
  0
ARC
  5
1975
  8
0
 10
217.2484914213025036
 20
50.4443093125829733
 30
0.0
 40
0.6201145160965462
 50
356.9636940907378744
 51
12.1883343336199506
  0
ARC
  5
1976
  8
0
 10
217.5799614595159142
 20
50.5260848413857104
 30
0.0
 40
0.2790287284989023
 50
10.14469623294314
 51
35.7340283758479984
  0
ARC
  5
1977
  8
0
 10
217.7638024894941964
 20
50.6572316996663972
 30
0.0
 40
0.053213155065883
 50
36.7146820569603918
 51
87.7157922304690345
  0
ARC
  5
1978
  8
0
 10
217.8283169459116948
 20
50.256190190668633
 30
0.0
 40
0.0261009526230221
 50
104.0310797106548932
 51
166.973801203471794
  0
ARC
  5
1979
  8
0
 10
217.8560706446324957
 20
50.1879770072734814
 30
0.0
 40
0.0995512004019592
 50
87.1318688166930571
 51
110.0204039498426027
  0
ARC
  5
197A
  8
0
 10
218.810482185859712
 20
50.255231342061542
 30
0.0
 40
0.0625134421167714
 50
47.5405404939779217
 51
91.2750469537524793
  0
ARC
  5
197B
  8
0
 10
218.7293504402722988
 20
50.1824047372169488
 30
0.0
 40
0.1713450664541771
 50
6.2883691448413943
 51
43.9627934234381925
  0
ARC
  5
197C
  8
0
 10
218.5823027078882035
 20
50.1501086630581625
 30
0.0
 40
0.3214437279982008
 50
352.7278834780161105
 51
9.1406214521939102
  0
ARC
  5
197D
  8
0
 10
218.7072988184945075
 20
49.4429040427122928
 30
0.0
 40
0.1094507792692885
 50
294.3945267531983063
 51
349.792084282860003
  0
LINE
  5
197E
  8
0
 10
218.9011607946769118
 20
50.1094197117459501
 30
0.0
 11
218.8150171159767865
 21
49.4235070978459632
 31
0.0
  0
LINE
  5
197F
  8
0
 10
217.861051930735897
 20
50.2874035041957086
 30
0.0
 11
218.8090911410768058
 21
50.3177293055459529
 31
0.0
  0
LINE
  5
1980
  8
0
 10
217.8677354027767876
 20
50.4114626311459588
 30
0.0
 11
217.8610410519769118
 21
50.2874040672459586
 31
0.0
  0
LINE
  5
1981
  8
0
 10
218.7524936487619129
 20
49.3432194376932216
 30
0.0
 11
218.4742777442768045
 21
47.0773327298459634
 31
0.0
  0
ARC
  5
1982
  8
0
 10
218.4156628267604958
 20
47.0845297202507425
 30
0.0
 40
0.0590551033047874
 50
269.9999873061667017
 51
353.0000158937651236
  0
ARC
  5
1983
  8
0
 10
217.8051304410369937
 20
47.0845297351966678
 30
0.0
 40
0.0590551182507138
 50
183.0000000641450129
 51
269.9999999416659193
  0
LINE
  5
1984
  8
0
 10
217.8051304410369937
 20
47.0254746169459494
 30
0.0
 11
218.4156628136769029
 21
47.0254746169459494
 31
0.0
  0
LINE
  5
1985
  8
0
 10
217.7195566395685091
 20
47.5890036279176627
 30
0.0
 11
217.7461562558638093
 21
47.0814390289677078
 31
0.0
  0
ARC
  5
1986
  8
0
 10
217.483658779053286
 20
47.5766553623108805
 30
0.0
 40
0.2362208294353759
 50
2.9964593826496548
 51
176.9999183319634142
  0
ARC
  5
1987
  8
0
 10
217.6168272259986907
 20
47.8401668171949765
 30
0.0
 40
0.0590286011897061
 50
243.3150332407070096
 51
356.9435626117199263
  0
LINE
  5
1988
  8
0
 10
217.6757718589103092
 20
47.8370194358495695
 30
0.0
 11
217.8028876464173038
 21
50.2620732557761229
 31
0.0
  0
LINE
  5
1989
  8
0
 10
217.2011974818769033
 20
50.6930611990459496
 30
0.0
 11
217.7659233735768112
 21
50.7104025725459593
 31
0.0
  0
LINE
  5
198A
  8
0
 10
218.6563133053768127
 20
48.559893401645958
 30
0.0
 11
220.8658984212767962
 21
48.6370538141459576
 31
0.0
  0
ARC
  5
198B
  8
0
 10
220.7491081255629979
 20
51.9814744942365579
 30
0.0
 40
3.3464579204673361
 50
272.0515097641443276
 51
352.9505671901134178
  0
ARC
  5
198C
  8
0
 10
186.9971580177763997
 20
79.6178302883481024
 30
0.0
 40
45.3813019655941901
 50
336.4373410502269053
 51
340.0738365148151274
  0
ARC
  5
198D
  8
0
 10
210.8504651594604979
 20
69.8209120282046456
 30
0.0
 40
19.6083311492097891
 50
326.3569662049599742
 51
334.8144846128921017
  0
ARC
  5
198E
  8
0
 10
258.6517381136338827
 20
37.8815722482427191
 30
0.0
 40
37.8815726848794228
 50
146.1951974821643034
 51
151.1381624848370109
  0
ARC
  5
198F
  8
0
 10
237.0834789701430054
 20
50.1071355495921722
 30
0.0
 40
13.0944651293173298
 50
152.4334392959713966
 51
172.9712545757668067
  0
LINE
  5
1990
  8
0
 10
224.0702689578768059
 20
51.5707783299459592
 30
0.0
 11
224.0874202573768059
 21
51.7094697710459599
 31
0.0
  0
LINE
  5
1991
  8
0
 10
227.6050347711789072
 20
59.6341045016459574
 30
0.0
 11
178.349463262047891
 21
59.6341045016459574
 31
0.0
  0
ARC
  5
1992
  8
0
 10
233.3527124871768876
 20
64.939153363645957
 30
0.0
 40
0.3937007874000089
 50
5.0000000000001483
 51
92.0000000737992139
  0
ARC
  5
1993
  8
0
 10
233.0995571333394878
 20
110.5791915037402049
 30
0.0
 40
45.2472105952657486
 50
269.6688103007891755
 51
270.3031690894616759
  0
LINE
  5
1994
  8
0
 10
233.7391422744769045
 20
64.9733523824459667
 30
0.0
 11
233.8168314862303987
 21
64.1514588689459515
 31
0.0
  0
LINE
  5
1995
  8
0
 10
174.7725307309233074
 20
64.1514588689459515
 30
0.0
 11
233.8168314862303987
 21
64.1514588689459515
 31
0.0
  0
LINE
  5
1996
  8
0
 10
232.8380138443787928
 20
65.3327368165459461
 30
0.0
 11
175.7513483727747996
 21
65.3327368165459461
 31
0.0
  0
LINE
  5
1997
  8
0
 62
     1
 10
204.2946811085768104
 20
47.0254746169459494
 30
0.0
 11
158.0032785341670092
 21
7.229446922651845
 31
0.0
  0
ENDBLK
  5
1999
  8
0
  0
ENDSEC
  0
SECTION
  2
ENTITIES
  0
ATTDEF
  5
B55
  8
DEFPOINTS
 10
294.5807798453628266
 20
-6.5362271174204229
 30
0.0
 40
0.001
  1
K-45592T-GR2
  3

  2
MODELNUMBER
 70
     0
1001
ACDBATTR
1070
     0
1070
     1
  0
ATTDEF
  5
B56
  8
DEFPOINTS
 10
294.5807798453628266
 20
-6.5378335294258809
 30
0.0
 40
0.001
  1
ARCHER
  3

  2
TRADENAME
 70
     0
1001
ACDBATTR
1070
     0
1070
     1
  0
ATTDEF
  5
B57
  8
DEFPOINTS
 10
294.5807798453628266
 20
-6.5394399414313389
 30
0.0
 40
0.001
  1
BATH
  3

  2
PRODUCT
 70
     0
1001
ACDBATTR
1070
     0
1070
     1
  0
ARC
  5
1CEF
  8
0
 10
323.1213079937134012
 20
-20.3232125958935903
 30
0.0
 40
0.9788442046206995
 50
269.999999998075225
 51
0.0000000046410654
  0
ARC
  5
1CF0
  8
0
 10
323.1213079936476902
 20
7.2358425222064113
 30
0.0
 40
0.978844204779288
 50
359.9992106051415135
 51
89.9999999980784366
  0
LINE
  5
1CF1
  8
0
 10
324.1001521983341149
 20
7.235829036141836
 30
0.0
 11
324.1001521983341149
 21
-20.3232125958142902
 31
0.0
  0
ARC
  5
1CF2
  8
0
 10
319.6533094638480179
 20
-17.1283550356879815
 30
0.0
 40
1.2886396450067601
 50
309.7567044118176227
 51
338.0257238321262889
  0
ARC
  5
1CF3
  8
0
 10
319.9726029709019031
 20
-17.5125873782896591
 30
0.0
 40
0.7890570975581538
 50
270.7222910132425113
 51
309.775975817411279
  0
ARC
  5
1CF4
  8
0
 10
318.9935087835536933
 20
-16.8316576956854114
 30
0.0
 40
2.011726739985531
 50
337.2210592976684893
 51
0.5700838231812327
  0
ARC
  5
1CF5
  8
0
 10
317.9623054183447834
 20
-14.8268137685324799
 30
0.0
 40
1.840044437980628
 50
268.4736982857997987
 51
351.9332148598870162
  0
ARC
  5
1CF6
  8
0
 10
316.9815141636385079
 20
-12.96052943192357
 30
0.0
 40
3.5168448321320729
 50
269.6002149552288074
 51
322.8365721903684857
  0
LINE
  5
1CF7
  8
0
 10
321.0051359445805019
 20
-16.8116416658143102
 30
0.0
 11
321.0051359445805019
 21
3.724271592385719
 31
0.0
  0
LINE
  5
1CF8
  8
0
 10
319.386953123080616
 20
-11.0948492664142897
 30
0.0
 11
319.3869531247805753
 21
-1.9925211336142821
 31
0.0
  0
ARC
  5
1CF9
  8
0
 10
317.9623054183447834
 20
1.7394436951038861
 30
0.0
 40
1.840044437980628
 50
8.0667851401130442
 51
91.5263017142001587
  0
ARC
  5
1CFA
  8
0
 10
316.9815141636385079
 20
-0.1268406415050265
 30
0.0
 40
3.5168448321320729
 50
37.1634278096315072
 51
90.3997850447711642
  0
ARC
  5
1CFB
  8
0
 10
319.6533094638480179
 20
4.0409849622593859
 30
0.0
 40
1.2886396450067601
 50
21.9742761678737608
 51
50.2432955881826473
  0
ARC
  5
1CFC
  8
0
 10
319.9726029709019031
 20
4.4252173048610643
 30
0.0
 40
0.7890570975581538
 50
50.2240241825884581
 51
89.2777089867575313
  0
ARC
  5
1CFD
  8
0
 10
318.9935087835536933
 20
3.7442876222568202
 30
0.0
 40
2.011726739985531
 50
359.4299161768187219
 51
22.7789407023314894
  0
ARC
  5
1CFE
  8
0
 10
266.0346956461513059
 20
-20.3232125965134287
 30
0.0
 40
0.9788442031242752
 50
179.9999999590772006
 51
270.0006721313944809
  0
ARC
  5
1CFF
  8
0
 10
266.0346956477163189
 20
7.2358425222051892
 30
0.0
 40
0.9788442047822202
 50
90.0001069556285103
 51
180.0007893947868922
  0
LINE
  5
1D00
  8
0
 10
265.0558514430269952
 20
7.235829036141836
 30
0.0
 11
265.0558514430269952
 21
-20.3232125958142795
 31
0.0
  0
LINE
  5
1D01
  8
0
 10
323.1213079936804888
 20
-21.3020568005143112
 30
0.0
 11
266.0347071288804841
 21
-21.3020567995703516
 31
0.0
  0
LINE
  5
1D02
  8
0
 10
266.0346938204805838
 20
8.2146867269857182
 30
0.0
 11
323.1213079936804888
 21
8.2146867269856898
 31
0.0
  0
LINE
  5
1D03
  8
0
 10
319.9825498423804788
 20
5.2142117046857086
 30
0.0
 11
270.8242317760805236
 21
5.214211704585721
 31
0.0
  0
LINE
  5
1D04
  8
0
 10
319.9825498423804788
 20
-18.3015817781143006
 30
0.0
 11
270.8242318498806185
 21
-18.3015818558786307
 31
0.0
  0
ARC
  5
1D05
  8
0
 10
270.7638693919993784
 20
-17.212450911695079
 30
0.0
 40
1.0840686188513311
 50
206.4902120180601912
 51
244.4172644797334044
  0
ARC
  5
1D06
  8
0
 10
270.8077845317258152
 20
-17.0697757227210403
 30
0.0
 40
1.2319159321800659
 50
245.4404962161461015
 51
270.7649790769880838
  0
ARC
  5
1D07
  8
0
 10
271.3155080249633215
 20
-16.9426841428539205
 30
0.0
 40
1.698125387343538
 50
187.5403110253527075
 51
206.3346169929359064
  0
ARC
  5
1D08
  8
0
 10
270.760709806121497
 20
4.1304162954516812
 30
0.0
 40
1.0780826337594209
 50
117.5722567008563999
 51
150.9647650308176878
  0
ARC
  5
1D09
  8
0
 10
270.8057830983024132
 20
3.996494881061607
 30
0.0
 40
1.217856566269369
 50
89.132022739750397
 51
116.5355999425978979
  0
ARC
  5
1D0A
  8
0
 10
271.1085493586069788
 20
3.9315675209230392
 30
0.0
 40
1.4787255031469959
 50
150.7696857115867033
 51
170.2741111446239017
  0
ARC
  5
1D0B
  8
0
 10
323.0943885432174056
 20
-6.5438467679688079
 30
0.0
 40
54.4703030116769469
 50
169.7012537614523069
 51
190.298353790013806
  0
LINE
  5
1D0C
  8
0
 10
269.6510772262806199
 20
4.181375641585702
 30
0.0
 11
269.6320666151366936
 21
4.0781484175337823
 31
0.0
  0
LINE
  5
1D0D
  8
0
 10
269.6320666151366936
 20
4.0781484175337823
 30
0.0
 11
269.6127289310517199
 21
3.9645967162630309
 31
0.0
  0
LINE
  5
1D0E
  8
0
 10
269.6127289310517199
 20
3.9645967162630309
 30
0.0
 11
269.5196678782804725
 21
3.311189286985722
 31
0.0
  0
LINE
  5
1D0F
  8
0
 10
269.5196678782804725
 20
3.311189286985722
 30
0.0
 11
269.5016592907804807
 21
3.194391340585724
 31
0.0
  0
LINE
  5
1D10
  8
0
 10
269.6320667285626769
 20
-17.1655186839683793
 30
0.0
 11
269.6127358146806046
 21
-17.0520062424142793
 31
0.0
  0
LINE
  5
1D11
  8
0
 10
269.6127358146806046
 20
-17.0520062424142793
 30
0.0
 11
269.5196682002804778
 21
-16.3985590374142909
 31
0.0
  0
LINE
  5
1D12
  8
0
 10
269.5196682002804778
 20
-16.3985590374142909
 30
0.0
 11
269.5015925897902207
 21
-16.2817177918742608
 31
0.0
  0
ARC
  5
1D13
  8
0
 10
271.4708308693010963
 20
-16.3104401481336687
 30
0.0
 40
1.16039311008697
 50
190.1533242704136057
 51
259.5444690368033775
  0
ARC
  5
1D14
  8
0
 10
322.764828168576912
 20
-6.5644851553845518
 30
0.0
 40
53.3688401016878018
 50
169.0219924258875892
 51
190.3399188044265884
  0
ARC
  5
1D15
  8
0
 10
271.4712728156624735
 20
3.2221495577945509
 30
0.0
 40
1.161378580716093
 50
100.468731091017105
 51
161.0833224199153904
  0
LINE
  5
1D16
  8
0
 10
270.3286100460800867
 20
-16.514997624011901
 30
0.0
 11
270.262686019980606
 21
-16.1435333131143004
 31
0.0
  0
ARC
  5
1D17
  8
0
 10
271.6110753578225854
 20
2.8141791212871681
 30
0.0
 40
1.589223040731786
 50
89.5174925984567551
 51
102.7531898098187071
  0
ARC
  5
1D18
  8
0
 10
271.6110716650414929
 20
-15.9015838177406597
 30
0.0
 40
1.5891884504001761
 50
257.2466646564616894
 51
270.4826521713175111
  0
LINE
  5
1D19
  8
0
 10
271.6244586228805247
 20
-17.4907158828142784
 30
0.0
 11
319.5274065504805776
 21
-17.4907158828142997
 31
0.0
  0
LINE
  5
1D1A
  8
0
 10
317.9132942895805058
 20
-16.6662053644142887
 30
0.0
 11
274.8558285443804721
 21
-16.6662053644142887
 31
0.0
  0
LINE
  5
1D1B
  8
0
 10
316.9569753481804923
 20
-16.4772886531143108
 30
0.0
 11
275.8659936508806254
 21
-16.4772886531143108
 31
0.0
  0
ARC
  5
1D1C
  8
0
 10
319.4328090521572108
 20
-15.85855356196857
 30
0.0
 40
1.64714069835569
 50
287.6204605674220147
 51
342.6651200971359117
  0
ARC
  5
1D1D
  8
0
 10
319.5397819862757274
 20
-16.2298636702954298
 30
0.0
 40
1.2609129443138281
 50
269.4376523553617062
 51
288.0951011093097236
  0
LINE
  5
1D1E
  8
0
 10
271.6244585916804795
 20
4.4033458092856961
 30
0.0
 11
319.5274065539804837
 21
4.4033458093857121
 31
0.0
  0
ARC
  5
1D1F
  8
0
 10
319.6509434702321073
 20
2.9882333548775071
 30
0.0
 40
1.3815798920194049
 50
11.4273418691894193
 51
78.2870774662500963
  0
ARC
  5
1D20
  8
0
 10
319.5397819862757274
 20
3.1424935968668422
 30
0.0
 40
1.2609129443138281
 50
71.9048988906903332
 51
90.5623476446382938
  0
ARC
  5
1D21
  8
0
 10
315.0725512861881725
 20
-11.0359129592384093
 30
0.0
 40
4.3148043608045343
 50
270.8520405146749113
 51
359.2173673599507993
  0
ARC
  5
1D22
  8
0
 10
315.0725512814884155
 20
-2.0514571172443601
 30
0.0
 40
4.3148043658512467
 50
0.782628329421275
 51
89.1479529184619537
  0
ARC
  5
1D23
  8
0
 10
275.8382691797546045
 20
-11.5076757006100703
 30
0.0
 40
4.9696902865266086
 50
251.3402055900351968
 51
270.3196383140236208
  0
ARC
  5
1D24
  8
0
 10
275.3476031805470257
 20
-12.83371841824877
 30
0.0
 40
3.5565950936763961
 50
217.7059373610977957
 51
251.9944197079076957
  0
ARC
  5
1D25
  8
0
 10
274.7746203025420755
 20
-13.6058355596907194
 30
0.0
 40
3.0614470631069799
 50
246.2397459265928887
 51
271.5200116974119737
  0
ARC
  5
1D26
  8
0
 10
274.1936717296794086
 20
-14.8757261118330799
 30
0.0
 40
1.665243703097623
 50
184.5892036409036905
 51
246.9297844590680029
  0
LINE
  5
1D27
  8
0
 10
317.9132942895805058
 20
3.5788352909856931
 30
0.0
 11
274.8558285443804721
 21
3.5788352909856931
 31
0.0
  0
LINE
  5
1D28
  8
0
 10
316.9569753481804923
 20
3.3899185796857121
 30
0.0
 11
275.8659936508806254
 21
3.3899185796857121
 31
0.0
  0
ARC
  5
1D29
  8
0
 10
275.8382691797546045
 20
-1.5796943728185291
 30
0.0
 40
4.9696902865266086
 50
89.6803616859763792
 51
108.6597944099647037
  0
ARC
  5
1D2A
  8
0
 10
275.3476031805470257
 20
-0.2536516551798229
 30
0.0
 40
3.5565950936763961
 50
108.0055802920923043
 51
142.2940626389022043
  0
ARC
  5
1D2B
  8
0
 10
274.7746203025420755
 20
0.5184654862621301
 30
0.0
 40
3.0614470631069799
 50
88.4799883025880263
 51
113.7602540734068981
  0
ARC
  5
1D2C
  8
0
 10
274.1936717296794086
 20
1.7883560384044861
 30
0.0
 40
1.665243703097623
 50
113.0702155409317982
 51
175.4107963590946042
  0
LINE
  5
1D2D
  8
0
 10
315.13671448853529
 20
2.2628701534237332
 30
0.0
 11
279.1578822314805848
 21
2.3483096129857008
 31
0.0
  0
LINE
  5
1D2E
  8
0
 10
315.1367139986804773
 20
-15.3502402322142792
 30
0.0
 11
279.1579020368806141
 21
-15.4356802061142897
 31
0.0
  0
ARC
  5
1D2F
  8
0
 10
279.2122059923294159
 20
-11.6149356257317908
 30
0.0
 40
3.8211304699132689
 50
186.2550041710915991
 51
269.1857142212894018
  0
ARC
  5
1D30
  8
0
 10
279.1547344094107075
 20
-1.409235237464038
 30
0.0
 40
3.7575461689678691
 50
89.9520014040409137
 51
174.6071245716748024
  0
ARC
  5
1D31
  8
0
 10
333.0776561839114152
 20
-6.543657462462491
 30
0.0
 40
57.9243594403081588
 50
174.5638238588472007
 51
185.436207000766899
  0
CIRCLE
  5
1D32
  8
0
 10
312.8850875212805249
 20
-6.5436850367143
 30
0.0
 40
1.3779527558700231
  0
CIRCLE
  5
1D33
  8
0
 10
291.2315420881341197
 20
-19.53583666173623
 30
0.0
 40
0.1968503937000001
  0
CIRCLE
  5
1D34
  8
0
 10
299.1055578362340839
 20
-19.53583666173623
 30
0.0
 40
0.1968503937000001
  0
ENDSEC
  0
EOF
