  0
SECTION
  2
HEADER
  9
$ACADVER
  1
AC1009
  9
$INSBASE
 10
4592.8903734590976455
 20
241.0375624306884959
 30
0.0
  9
$EXTMIN
 10
4559.431214293847006
 20
225.2949386984788873
 30
0.0
  9
$EXTMAX
 10
4626.349532624348285
 20
256.7801861628885263
 30
0.0
  9
$LIMMIN
 10
0.0
 20
0.0
  9
$LIMMAX
 10
11.6929133858000007
 20
8.2677165353999982
  9
$ORTHOMODE
 70
     1
  9
$REGENMODE
 70
     1
  9
$FILLMODE
 70
     1
  9
$QTEXTMODE
 70
     0
  9
$MIRRTEXT
 70
     0
  9
$DRAGMODE
 70
     2
  9
$LTSCALE
 40
0.6431102362
  9
$OSMODE
 70
  4095
  9
$ATTMODE
 70
     1
  9
$TEXTSIZE
 40
0.2
  9
$TRACEWID
 40
0.05
  9
$TEXTSTYLE
  7
STANDARD
  9
$CLAYER
  8
0
  9
$CELTYPE
  6
BYLAYER
  9
$CECOLOR
 62
   256
  9
$DIMSCALE
 40
1.0
  9
$DIMASZ
 40
0.1875
  9
$DIMEXO
 40
0.0625
  9
$DIMDLI
 40
0.4443307087
  9
$DIMRND
 40
0.0
  9
$DIMDLE
 40
0.0
  9
$DIMEXE
 40
0.125
  9
$DIMTP
 40
0.01
  9
$DIMTM
 40
0.01
  9
$DIMTXT
 40
2.0
  9
$DIMCEN
 40
0.1052362205
  9
$DIMTSZ
 40
0.0
  9
$DIMTOL
 70
     1
  9
$DIMLIM
 70
     0
  9
$DIMTIH
 70
     1
  9
$DIMTOH
 70
     1
  9
$DIMSE1
 70
     0
  9
$DIMSE2
 70
     0
  9
$DIMTAD
 70
     0
  9
$DIMZIN
 70
     0
  9
$DIMBLK
  1

  9
$DIMASO
 70
     1
  9
$DIMSHO
 70
     1
  9
$DIMPOST
  1
\X
  9
$DIMAPOST
  1

  9
$DIMALT
 70
     1
  9
$DIMALTD
 70
     2
  9
$DIMALTF
 40
25.3999999999999986
  9
$DIMLFAC
 40
1.0
  9
$DIMTOFL
 70
     0
  9
$DIMTVP
 40
0.0
  9
$DIMTIX
 70
     0
  9
$DIMSOXD
 70
     0
  9
$DIMSAH
 70
     0
  9
$DIMBLK1
  1

  9
$DIMBLK2
  1

  9
$DIMSTYLE
  2
STANDARD
  9
$DIMCLRD
 70
     0
  9
$DIMCLRE
 70
     0
  9
$DIMCLRT
 70
     0
  9
$DIMTFAC
 40
1.0
  9
$DIMGAP
 40
0.09
  9
$LUNITS
 70
     2
  9
$LUPREC
 70
     4
  9
$SKETCHINC
 40
0.1
  9
$FILLETRAD
 40
0.0
  9
$AUNITS
 70
     0
  9
$AUPREC
 70
     0
  9
$MENU
  1
.
  9
$ELEVATION
 40
0.0
  9
$PELEVATION
 40
0.0
  9
$THICKNESS
 40
0.0
  9
$LIMCHECK
 70
     0
  9
$BLIPMODE
 70
     0
  9
$CHAMFERA
 40
0.0
  9
$CHAMFERB
 40
0.0
  9
$SKPOLY
 70
     0
  9
$TDCREATE
 40
2458060.468368056230247
  9
$TDUPDATE
 40
2458960.9167939820326865
  9
$TDINDWG
 40
0.302946875
  9
$TDUSRTIMER
 40
0.302946875
  9
$USRTIMER
 70
     1
  9
$ANGBASE
 50
0.0
  9
$ANGDIR
 70
     0
  9
$PDMODE
 70
     0
  9
$PDSIZE
 40
0.3125
  9
$PLINEWID
 40
0.0
  9
$COORDS
 70
     1
  9
$SPLFRAME
 70
     0
  9
$SPLINETYPE
 70
     6
  9
$SPLINESEGS
 70
     8
  9
$ATTDIA
 70
     1
  9
$ATTREQ
 70
     1
  9
$HANDLING
 70
     1
  9
$HANDSEED
  5
69A2
  9
$SURFTAB1
 70
     6
  9
$SURFTAB2
 70
     6
  9
$SURFTYPE
 70
     6
  9
$SURFU
 70
     6
  9
$SURFV
 70
     6
  9
$UCSNAME
  2

  9
$UCSORG
 10
0.0
 20
0.0
 30
0.0
  9
$UCSXDIR
 10
1.0
 20
0.0
 30
0.0
  9
$UCSYDIR
 10
0.0
 20
1.0
 30
0.0
  9
$PUCSNAME
  2

  9
$PUCSORG
 10
0.0
 20
0.0
 30
0.0
  9
$PUCSXDIR
 10
1.0
 20
0.0
 30
0.0
  9
$PUCSYDIR
 10
0.0
 20
1.0
 30
0.0
  9
$USERI1
 70
     0
  9
$USERI2
 70
     0
  9
$USERI3
 70
     0
  9
$USERI4
 70
     0
  9
$USERI5
 70
     0
  9
$USERR1
 40
0.0
  9
$USERR2
 40
0.0
  9
$USERR3
 40
0.0
  9
$USERR4
 40
0.0
  9
$USERR5
 40
0.0
  9
$WORLDVIEW
 70
     1
  9
$SHADEDGE
 70
     3
  9
$SHADEDIF
 70
    70
  9
$TILEMODE
 70
     1
  9
$MAXACTVP
 70
    64
  9
$PLIMCHECK
 70
     0
  9
$PEXTMIN
 10
1.0000000000000000E+20
 20
1.0000000000000000E+20
 30
1.0000000000000000E+20
  9
$PEXTMAX
 10
-1.0000000000000000E+20
 20
-1.0000000000000000E+20
 30
-1.0000000000000000E+20
  9
$PLIMMIN
 10
0.0
 20
0.0
  9
$PLIMMAX
 10
12.0
 20
9.0
  9
$UNITMODE
 70
     0
  9
$VISRETAIN
 70
     1
  9
$PLINEGEN
 70
     0
  9
$PSLTSCALE
 70
     1
  0
ENDSEC
  0
SECTION
  2
TABLES
  0
TABLE
  2
VPORT
 70
     1
  0
VPORT
  2
*ACTIVE
 70
     0
 10
0.0
 20
0.0
 11
1.0
 21
1.0
 12
0.0
 22
0.0
 13
0.0
 23
0.0
 14
1.0
 24
1.0
 15
0.0
 25
0.0
 16
0.0
 26
0.0
 36
276.8324489186799156
 17
4592.890380859375
 27
241.0375595092772869
 37
0.0
 40
73.9946182064565647
 41
2.9513274336283182
 42
50.0
 43
0.0
 44
0.0
 50
0.0
 51
0.0
 71
     0
 72
   100
 73
     1
 74
     1
 75
     0
 76
     0
 77
     0
 78
     0
  0
ENDTAB
  0
TABLE
  2
LTYPE
 70
     2
  0
LTYPE
  2
CONTINUOUS
 70
     0
  3
Solid line
 72
    65
 73
     0
 40
0.0
  0
LTYPE
  2
PHANTOM2
 70
     0
  3
___ _ _ ___ _ _ ___ _ _ ___ _ _
 72
    65
 73
     6
 40
1.25
 49
0.625
 49
-0.125
 49
0.125
 49
-0.125
 49
0.125
 49
-0.125
  0
ENDTAB
  0
TABLE
  2
LAYER
 70
     2
  0
LAYER
  2
0
 70
     0
 62
   255
  6
CONTINUOUS
  0
LAYER
  2
DEFPOINTS
 70
     0
 62
     7
  6
CONTINUOUS
  0
ENDTAB
  0
TABLE
  2
STYLE
 70
     1
  0
STYLE
  2
STANDARD
 70
     0
 40
0.0
 41
0.8
 50
0.0
 71
     0
 42
0.2
  3
txt
  4

  0
ENDTAB
  0
TABLE
  2
VIEW
 70
     0
  0
ENDTAB
  0
TABLE
  2
UCS
 70
     0
  0
ENDTAB
  0
TABLE
  2
APPID
 70
     9
  0
APPID
  2
ACAD
 70
     0
  0
APPID
  2
ACAD_MLEADERVER
 70
     0
  0
APPID
  2
ACAD_EXEMPT_FROM_CAD_STANDARDS
 70
     0
  0
APPID
  2
ACAD_NAV_VCDISPLAY
 70
     0
  0
APPID
  2
ACAECLAYERSTANDARD
 70
     0
  0
APPID
  2
ACCMTRANSPARENCY
 70
     0
  0
APPID
  2
ACAD_DSTYLE_DIMJAG
 70
     0
  0
APPID
  2
ACAD_DSTYLE_DIMTALN
 70
     0
  0
APPID
  2
ACDBATTR
 70
     0
  0
ENDTAB
  0
TABLE
  2
DIMSTYLE
 70
     1
  0
DIMSTYLE
  2
STANDARD
 70
     0
  3

  4

  5

  6

  7

 40
1.0
 41
0.1875
 42
0.0625
 43
0.38
 44
0.125
 45
0.0
 46
0.0
 47
0.01
 48
0.01
140
0.15625
141
0.09
142
0.0
143
25.3999999999999986
144
1.0
145
0.0
146
1.0
147
0.09
 71
     1
 72
     0
 73
     1
 74
     1
 75
     0
 76
     0
 77
     0
 78
     4
170
     0
171
     2
172
     0
173
     0
174
     0
175
     0
176
     0
177
     0
178
     0
  0
ENDTAB
  0
ENDSEC
  0
SECTION
  2
BLOCKS
  0
BLOCK
  8
0
  2
$MODEL_SPACE
 70
     0
 10
0.0
 20
0.0
 30
0.0
  3
$MODEL_SPACE
  1

  0
ENDBLK
  5
21
  8
0
  0
BLOCK
 67
     1
  8
0
  2
$PAPER_SPACE
 70
     0
 10
0.0
 20
0.0
 30
0.0
  3
$PAPER_SPACE
  1

  0
ENDBLK
  5
1D
 67
     1
  8
0
  0
ENDSEC
  0
SECTION
  2
ENTITIES
  0
ATTDEF
  5
3930
  8
DEFPOINTS
 10
4592.8864952164631177
 20
241.0415739835405873
 30
0.0
 40
0.001
  1
K-45595T
  3

  2
MODELNUMBER
 70
     0
1001
ACDBATTR
1070
     0
1070
     1
  0
ATTDEF
  5
3931
  8
DEFPOINTS
 10
4592.8864952164631177
 20
241.0399073168738937
 30
0.0
 40
0.001
  1
ARCHER
  3

  2
TRADENAME
 70
     0
1001
ACDBATTR
1070
     0
1070
     1
  0
ATTDEF
  5
3932
  8
DEFPOINTS
 10
4592.8864952164631177
 20
241.0382406502073138
 30
0.0
 40
0.001
  1
BATH
  3

  2
PRODUCT
 70
     0
1001
ACDBATTR
1070
     0
1070
     1
  0
LINE
  5
68CA
  8
0
 10
4559.431214293847006
 20
226.2737962115884045
 30
0.0
 11
4559.431214293847006
 21
255.8013286497879051
 31
0.0
  0
LINE
  5
68CB
  8
0
 10
4562.5252809567291479
 20
229.3847752236904967
 30
0.0
 11
4562.5366005090445469
 21
252.7664779689029046
 31
0.0
  0
LINE
  5
68CC
  8
0
 10
4563.3210931438479747
 20
250.0953428350883883
 30
0.0
 11
4563.3360465446476155
 21
248.4691653676883902
 31
0.0
  0
LINE
  5
68CD
  8
0
 10
4563.0377206707480582
 20
237.4298944674883955
 30
0.0
 11
4563.0377206707480582
 21
244.6399246354883985
 31
0.0
  0
LINE
  5
68CE
  8
0
 10
4563.1287062113469801
 20
244.6452303940884008
 30
0.0
 11
4563.1287062113469801
 21
237.4352002260883978
 31
0.0
  0
LINE
  5
68CF
  8
0
 10
4563.3360465446476155
 20
233.6059594936884025
 30
0.0
 11
4563.3210931550029272
 21
231.9797816297717077
 31
0.0
  0
LINE
  5
68D0
  8
0
 10
4625.3706751109557445
 20
225.2949386984884086
 30
0.0
 11
4560.410071806749329
 21
225.2949386984884086
 31
0.0
  0
LINE
  5
68D1
  8
0
 10
4620.5811504639468694
 20
228.2954137208884049
 30
0.0
 11
4563.5488166500472289
 21
228.2954137208884049
 31
0.0
  0
LINE
  5
68D2
  8
0
 10
4616.9983445295420097
 20
229.5797404361169924
 30
0.0
 11
4565.618072756948095
 21
229.5797404340883929
 31
0.0
  0
LINE
  5
68D3
  8
0
 10
4616.0420255730396093
 20
230.4707565451087987
 30
0.0
 11
4566.5743917030467856
 21
230.4707565449884044
 31
0.0
  0
LINE
  5
68D4
  8
0
 10
4588.3628144039994368
 20
249.9537691193883973
 30
0.0
 11
4588.3628144039994368
 21
256.3918931388885198
 31
0.0
  0
LINE
  5
68D5
  8
0
 10
4621.0407144415466973
 20
235.9194420369884995
 30
0.0
 11
4623.8015975942480509
 21
235.9194420369884995
 31
0.0
  0
LINE
  5
68D6
  8
0
 10
4591.9061247464978806
 20
250.4890839251883961
 30
0.0
 11
4591.9061214905968882
 21
251.4195735957883926
 31
0.0
  0
LINE
  5
68D7
  8
0
 10
4598.9927356637981575
 20
251.4195949329883888
 30
0.0
 11
4598.9927324709979075
 21
250.489098247388398
 31
0.0
  0
LINE
  5
68D8
  8
0
 10
4600.1738380259976111
 20
249.9537691193883973
 30
0.0
 11
4600.1738380259976111
 21
256.3918931388885198
 31
0.0
  0
LINE
  5
68D9
  8
0
 10
4623.8015975942480509
 20
246.155682824388407
 30
0.0
 11
4621.0407144415466973
 21
246.155682824388407
 31
0.0
  0
LINE
  5
68DA
  8
0
 10
4599.5832868448978843
 20
249.4111706453884096
 30
0.0
 11
4588.9533655850982541
 21
249.4111706453884096
 31
0.0
  0
LINE
  5
68DB
  8
0
 10
4592.299822278298052
 20
250.1321761636885128
 30
0.0
 11
4598.5990348760969937
 21
250.1321761636885128
 31
0.0
  0
LINE
  5
68DC
  8
0
 10
4592.2998222779979187
 20
250.3225771599884126
 30
0.0
 11
4598.5990348763980364
 21
250.3225771599884126
 31
0.0
  0
LINE
  5
68DD
  8
0
 10
4566.574391669749275
 20
251.6043683163883884
 30
0.0
 11
4588.3628144039994368
 21
251.6043683163883884
 31
0.0
  0
LINE
  5
68DE
  8
0
 10
4600.1738380259976111
 20
251.6043683163883884
 30
0.0
 11
4616.0420251299738084
 21
251.6043683163883884
 31
0.0
  0
LINE
  5
68DF
  8
0
 10
4592.2998222639980668
 20
251.8045979809884898
 30
0.0
 11
4598.599034879298415
 21
251.8045979809884898
 31
0.0
  0
LINE
  5
68E0
  8
0
 10
4565.6180727429491526
 20
252.4953844271884122
 30
0.0
 11
4588.3628144039994368
 21
252.4953844263779956
 31
0.0
  0
LINE
  5
68E1
  8
0
 10
4600.1738380259976111
 20
252.4953844259572122
 30
0.0
 11
4616.9983440825872094
 21
252.4953844253577131
 31
0.0
  0
LINE
  5
68E2
  8
0
 10
4563.5488166498480496
 20
253.7797111404883879
 30
0.0
 11
4588.3628144039994368
 21
253.7797111404883879
 31
0.0
  0
LINE
  5
68E3
  8
0
 10
4600.1738380259976111
 20
253.7797111404883879
 30
0.0
 11
4620.643072919460792
 21
253.7797111404883879
 31
0.0
  0
LINE
  5
68E4
  8
0
 10
4625.3706751100389738
 20
256.7801861628884126
 30
0.0
 11
4560.4100718071467782
 21
256.7801861628884126
 31
0.0
  0
ARC
  5
68E5
  8
0
 10
4560.4939387055574116
 20
226.3576631102230863
 30
0.0
 40
1.066028532418398
 50
184.5122526177837017
 51
265.4877474058461075
  0
CIRCLE
  5
68E6
  8
0
 10
4570.6462789709476056
 20
241.0375624307883982
 30
0.0
 40
2.2271307337000001
  0
CIRCLE
  5
68E7
  8
0
 10
4570.6462789709476056
 20
241.0375624307883982
 30
0.0
 40
1.0288207755000001
  0
ARC
  5
68E8
  8
0
 10
4560.5135318207449018
 20
255.6978686358625055
 30
0.0
 40
1.0872512145370381
 50
95.4603799935485284
 51
174.5396199857702868
  0
ARC
  5
68E9
  8
0
 10
4599.7801372385993091
 20
256.3918931392884133
 30
0.0
 40
0.3937007874
 50
0.0
 51
80.4926011292282055
  0
ARC
  5
68EA
  8
0
 10
4588.7565151913977388
 20
256.3918931392884133
 30
0.0
 40
0.3937007874
 50
99.5073988707717803
 51
180.0
  0
LINE
  5
68EB
  8
0
 10
4626.349532624348285
 20
226.2737962115884045
 30
0.0
 11
4626.349532624348285
 21
255.8013286497885872
 31
0.0
  0
ARC
  5
68EC
  8
0
 10
4625.286808212638789
 20
226.3576631102230863
 30
0.0
 40
1.066028532418398
 50
274.5122525941537788
 51
355.4877473822162983
  0
ARC
  5
68ED
  8
0
 10
4625.2672150974503893
 20
255.6978686358625055
 30
0.0
 40
1.0872512145370381
 50
5.4603800142296679
 51
84.5396200064515568
  0
ARC
  5
68EE
  8
0
 10
4563.6162123485510165
 20
252.7001664388592133
 30
0.0
 40
1.081646403876708
 50
93.5723246134613618
 51
176.4852147840846044
  0
ARC
  5
68EF
  8
0
 10
4563.7956971176217849
 20
229.5529006677489008
 30
0.0
 40
1.281492640163763
 50
187.5386530156951892
 51
258.8924827942452112
  0
ARC
  5
68F0
  8
0
 10
4565.7831351649483622
 20
250.0382176445091034
 30
0.0
 40
2.4627046516094491
 50
93.8431224104519686
 51
178.6708410577680013
  0
ARC
  5
68F1
  8
0
 10
4566.8250925263737372
 20
248.105378166209988
 30
0.0
 40
3.5079599471143221
 50
94.0982099802014886
 51
174.0475337934848028
  0
ARC
  5
68F2
  8
0
 10
4588.9307704739876499
 20
249.9792487841218929
 30
0.0
 40
0.5685273175081221
 50
182.5686829081857923
 51
272.2777191468334763
  0
ARC
  5
68F3
  8
0
 10
4599.555337128366773
 20
250.0342605637210909
 30
0.0
 40
0.6237164684229123
 50
272.5683741217375768
 51
352.585223823244803
  0
ARC
  5
68F4
  8
0
 10
4598.5659689389103733
 20
251.3769860052680087
 30
0.0
 40
0.4288885148768806
 50
5.7015879389450017
 51
85.5782898513650139
  0
ARC
  5
68F5
  8
0
 10
4598.6165410012481516
 20
250.5084584723560965
 30
0.0
 40
0.3766893152500504
 50
267.3362969521700734
 51
357.0539432021536186
  0
ARC
  5
68F6
  8
0
 10
4592.282823716915118
 20
250.5090190661769896
 30
0.0
 40
0.377226091567832
 50
183.0293020220800031
 51
272.5827368367196186
  0
ARC
  5
68F7
  8
0
 10
4592.3371045576750475
 20
251.3726770109543907
 30
0.0
 40
0.4335270392686687
 50
94.9333943716956981
 51
173.7899039561625045
  0
ARC
  5
68F8
  8
0
 10
4592.279752650332739
 20
250.6967091837800865
 30
0.0
 40
0.3746699363186923
 50
184.2729066185939075
 51
273.070584189836211
  0
ARC
  5
68F9
  8
0
 10
4598.6191684895629805
 20
250.6963797663254923
 30
0.0
 40
0.3743444281453152
 50
266.9169357107123801
 51
356.3010872656652737
  0
ARC
  5
68FA
  8
0
 10
4566.7197617176170752
 20
233.8609507059312023
 30
0.0
 40
3.3933094303388911
 50
184.309570214037393
 51
267.5446866005052016
  0
ARC
  5
68FB
  8
0
 10
4565.9717777809473773
 20
232.2174492171635052
 30
0.0
 40
2.6613182576147949
 50
185.1235944040259938
 51
262.3624516531473887
  0
ARC
  5
68FC
  8
0
 10
4565.2413011956459741
 20
244.7199497812177924
 30
0.0
 40
2.2050331411698969
 50
168.4551829097331961
 51
182.079837319598596
  0
ARC
  5
68FD
  8
0
 10
4561.2603355186256522
 20
244.7322901524179031
 30
0.0
 40
1.870397938124535
 50
357.3321401031651021
 51
13.2583909356033196
  0
ARC
  5
68FE
  8
0
 10
4566.5277835249216878
 20
237.4931393864846996
 30
0.0
 40
3.4906358512265072
 50
181.0381676518994993
 51
189.5523633965640897
  0
ARC
  5
68FF
  8
0
 10
4558.2721865514868114
 20
237.5748009830167859
 30
0.0
 40
4.8585256588747674
 50
352.1815351995438164
 51
358.3534850384792207
  0
LINE
  5
6900
  8
0
 10
4568.3946520059480463
 20
250.8283695880884068
 30
0.0
 11
4588.3628144039994368
 21
250.8283695880884068
 31
0.0
  0
LINE
  5
6901
  8
0
 10
4600.1738380259976111
 20
250.8283695880884068
 30
0.0
 11
4613.0369245072797639
 21
250.8283695880884068
 31
0.0
  0
LINE
  5
6902
  8
0
 10
4564.144413369148424
 20
246.5729786288883929
 30
0.0
 11
4564.144413369148424
 21
235.5021463204421934
 31
0.0
  0
LINE
  5
6903
  8
0
 10
4568.3946520039480674
 20
231.2467552701884017
 30
0.0
 11
4612.9979007496258419
 21
231.2467552701884017
 31
0.0
  0
ARC
  5
6904
  8
0
 10
4568.927943807056181
 20
236.0296431191538886
 30
0.0
 40
4.8125270205001467
 50
186.2927829136345963
 51
263.6378015028856794
  0
ARC
  5
6905
  8
0
 10
4568.7210514714906822
 20
246.2521235630142087
 30
0.0
 40
4.5878714338039401
 50
94.079696681534017
 51
175.9897176490242998
  0
LINE
  5
6906
  8
0
 10
4619.2953236775101686
 20
250.0953428335382114
 30
0.0
 11
4619.2803702767087088
 21
248.4691653661382986
 31
0.0
  0
LINE
  5
6907
  8
0
 10
4619.2803707395241872
 20
233.6059594954060969
 30
0.0
 11
4619.295324129167966
 21
231.9797816314894021
 31
0.0
  0
ARC
  5
6908
  8
0
 10
4616.8332816564097811
 20
250.0382176429590118
 30
0.0
 40
2.4627046516094491
 50
1.329158942231208
 51
86.1568775895480456
  0
ARC
  5
6909
  8
0
 10
4615.7913242949844062
 20
248.1053781646598964
 30
0.0
 40
3.5079599471143221
 50
5.9524662065151492
 51
85.9017903740636939
  0
ARC
  5
690A
  8
0
 10
4615.89665556415639
 20
233.86095070877289
 30
0.0
 40
3.3933094328140889
 50
272.4553132940311002
 51
355.6904297700838242
  0
ARC
  5
690B
  8
0
 10
4616.6446395032244254
 20
232.2174492188811996
 30
0.0
 40
2.6613182576147949
 50
277.6375483468524976
 51
354.8764055959740062
  0
ARC
  5
690C
  8
0
 10
4539.9876483290199758
 20
240.9234568455482872
 30
0.0
 40
76.2885703745680246
 50
355.2007050361056031
 51
4.952461481040479
  0
ARC
  5
690D
  8
0
 10
4612.1638470736470481
 20
235.0321281963344973
 30
0.0
 40
3.8761699813624002
 50
282.4257762095538737
 51
352.7167660856694056
  0
ARC
  5
690E
  8
0
 10
4612.2630977511525998
 20
247.1650277883254034
 30
0.0
 40
3.744179615134533
 50
5.2770351605305796
 51
78.0724549338611808
  0
ARC
  5
690F
  8
0
 10
4565.6177708297682329
 20
240.0516978208218006
 30
0.0
 40
57.1515774760519122
 50
349.1853945219392017
 51
355.8536998841419745
  0
ARC
  5
6910
  8
0
 10
4565.6177708297682329
 20
242.020201757821809
 30
0.0
 40
57.1515774760519122
 50
4.1495420282190363
 51
10.7125557057352196
  0
ARC
  5
6911
  8
0
 10
4620.5487839932757197
 20
229.5148636247513991
 30
0.0
 40
1.219879361435088
 50
271.5203797008018114
 51
351.2004954260813179
  0
ARC
  5
6912
  8
0
 10
4620.5731649942536023
 20
252.5799038585118126
 30
0.0
 40
1.2018421826058969
 50
3.040310598841947
 51
86.6653764877555233
  0
ARC
  5
6913
  8
0
 10
4598.5257597654817801
 20
241.0376274747675893
 30
0.0
 40
26.3455270593453896
 50
349.9704762719263158
 51
10.0292453398883801
  0
ARC
  5
6914
  8
0
 10
4623.8143305784396944
 20
245.4868629641534881
 30
0.0
 40
0.6689410544518415
 50
11.9806659320711795
 51
91.0906645828636954
  0
ARC
  5
6915
  8
0
 10
4621.0412074311761899
 20
246.0337581692070046
 30
0.0
 40
0.1219256518533459
 50
90.2316682467114077
 51
186.1847282045980023
  0
ARC
  5
6916
  8
0
 10
4477.5795498392717491
 20
241.0376042960029963
 30
0.0
 40
143.4270290573743125
 50
358.0089862755410763
 51
1.991001185128269
  0
ARC
  5
6917
  8
0
 10
4621.0408325325279293
 20
236.0410377964105066
 30
0.0
 40
0.1215958167657106
 50
173.6176936249325138
 51
269.9443556858835223
  0
ARC
  5
6918
  8
0
 10
4623.8159381657833364
 20
236.5862097984320087
 30
0.0
 40
0.6669219592219183
 50
268.7678954881448021
 51
348.1630642412761745
  0
CIRCLE
  5
691A
  8
0
 10
4590.3313183410482452
 20
227.0611844779884052
 30
0.0
 40
0.2165354331
  0
CIRCLE
  5
691B
  8
0
 10
4598.2053340890479376
 20
227.0611844779884052
 30
0.0
 40
0.2165354331
  0
ENDSEC
  0
EOF
