  0
SECTION
  2
HEADER
  9
$ACADVER
  1
AC1009
  9
$INSBASE
 10
3586.6992385147241293
 20
217.8848986991017114
 30
0.0
  9
$EXTMIN
 10
3585.7346715856228911
 20
217.8799173625347976
 30
0.0
  9
$EXTMAX
 10
3587.6638054438240033
 20
223.621119171501789
 30
0.0
  9
$LIMMIN
 10
0.0
 20
0.0
  9
$LIMMAX
 10
11.6929133858000007
 20
8.2677165353999982
  9
$ORTHOMODE
 70
     0
  9
$REGENMODE
 70
     1
  9
$FILLMODE
 70
     1
  9
$QTEXTMODE
 70
     0
  9
$MIRRTEXT
 70
     0
  9
$DRAGMODE
 70
     2
  9
$LTSCALE
 40
0.6431102362
  9
$OSMODE
 70
  3839
  9
$ATTMODE
 70
     1
  9
$TEXTSIZE
 40
0.2
  9
$TRACEWID
 40
0.05
  9
$TEXTSTYLE
  7
STANDARD
  9
$CLAYER
  8
0
  9
$CELTYPE
  6
BYLAYER
  9
$CECOLOR
 62
   256
  9
$DIMSCALE
 40
1.0
  9
$DIMASZ
 40
0.1875
  9
$DIMEXO
 40
0.0625
  9
$DIMDLI
 40
0.4443307087
  9
$DIMRND
 40
0.0
  9
$DIMDLE
 40
0.0
  9
$DIMEXE
 40
0.125
  9
$DIMTP
 40
0.01
  9
$DIMTM
 40
0.01
  9
$DIMTXT
 40
2.0
  9
$DIMCEN
 40
0.1052362205
  9
$DIMTSZ
 40
0.0
  9
$DIMTOL
 70
     1
  9
$DIMLIM
 70
     0
  9
$DIMTIH
 70
     1
  9
$DIMTOH
 70
     1
  9
$DIMSE1
 70
     0
  9
$DIMSE2
 70
     0
  9
$DIMTAD
 70
     0
  9
$DIMZIN
 70
     0
  9
$DIMBLK
  1

  9
$DIMASO
 70
     1
  9
$DIMSHO
 70
     1
  9
$DIMPOST
  1
\X
  9
$DIMAPOST
  1

  9
$DIMALT
 70
     1
  9
$DIMALTD
 70
     2
  9
$DIMALTF
 40
25.3999999999999986
  9
$DIMLFAC
 40
1.0
  9
$DIMTOFL
 70
     0
  9
$DIMTVP
 40
0.0
  9
$DIMTIX
 70
     0
  9
$DIMSOXD
 70
     0
  9
$DIMSAH
 70
     0
  9
$DIMBLK1
  1

  9
$DIMBLK2
  1

  9
$DIMSTYLE
  2
STANDARD
  9
$DIMCLRD
 70
     0
  9
$DIMCLRE
 70
     0
  9
$DIMCLRT
 70
     0
  9
$DIMTFAC
 40
1.0
  9
$DIMGAP
 40
0.09
  9
$LUNITS
 70
     2
  9
$LUPREC
 70
     4
  9
$SKETCHINC
 40
0.1
  9
$FILLETRAD
 40
0.0
  9
$AUNITS
 70
     0
  9
$AUPREC
 70
     0
  9
$MENU
  1
.
  9
$ELEVATION
 40
0.0
  9
$PELEVATION
 40
0.0
  9
$THICKNESS
 40
0.0
  9
$LIMCHECK
 70
     0
  9
$BLIPMODE
 70
     0
  9
$CHAMFERA
 40
0.0
  9
$CHAMFERB
 40
0.0
  9
$SKPOLY
 70
     0
  9
$TDCREATE
 40
2458060.468368056230247
  9
$TDUPDATE
 40
2459041.4272222220897675
  9
$TDINDWG
 40
0.5492663194
  9
$TDUSRTIMER
 40
0.5492663194
  9
$USRTIMER
 70
     1
  9
$ANGBASE
 50
0.0
  9
$ANGDIR
 70
     0
  9
$PDMODE
 70
     0
  9
$PDSIZE
 40
0.3125
  9
$PLINEWID
 40
0.0
  9
$COORDS
 70
     1
  9
$SPLFRAME
 70
     0
  9
$SPLINETYPE
 70
     6
  9
$SPLINESEGS
 70
     8
  9
$ATTDIA
 70
     1
  9
$ATTREQ
 70
     1
  9
$HANDLING
 70
     1
  9
$HANDSEED
  5
95CD
  9
$SURFTAB1
 70
     6
  9
$SURFTAB2
 70
     6
  9
$SURFTYPE
 70
     6
  9
$SURFU
 70
     6
  9
$SURFV
 70
     6
  9
$UCSNAME
  2

  9
$UCSORG
 10
0.0
 20
0.0
 30
0.0
  9
$UCSXDIR
 10
1.0
 20
0.0
 30
0.0
  9
$UCSYDIR
 10
0.0
 20
1.0
 30
0.0
  9
$PUCSNAME
  2

  9
$PUCSORG
 10
0.0
 20
0.0
 30
0.0
  9
$PUCSXDIR
 10
1.0
 20
0.0
 30
0.0
  9
$PUCSYDIR
 10
0.0
 20
1.0
 30
0.0
  9
$USERI1
 70
     0
  9
$USERI2
 70
     0
  9
$USERI3
 70
     0
  9
$USERI4
 70
     0
  9
$USERI5
 70
     0
  9
$USERR1
 40
0.0
  9
$USERR2
 40
0.0
  9
$USERR3
 40
0.0
  9
$USERR4
 40
0.0
  9
$USERR5
 40
0.0
  9
$WORLDVIEW
 70
     1
  9
$SHADEDGE
 70
     3
  9
$SHADEDIF
 70
    70
  9
$TILEMODE
 70
     1
  9
$MAXACTVP
 70
    64
  9
$PLIMCHECK
 70
     0
  9
$PEXTMIN
 10
1.0000000000000000E+20
 20
1.0000000000000000E+20
 30
1.0000000000000000E+20
  9
$PEXTMAX
 10
-1.0000000000000000E+20
 20
-1.0000000000000000E+20
 30
-1.0000000000000000E+20
  9
$PLIMMIN
 10
0.0
 20
0.0
  9
$PLIMMAX
 10
12.0
 20
9.0
  9
$UNITMODE
 70
     0
  9
$VISRETAIN
 70
     1
  9
$PLINEGEN
 70
     0
  9
$PSLTSCALE
 70
     1
  0
ENDSEC
  0
SECTION
  2
TABLES
  0
TABLE
  2
VPORT
 70
     1
  0
VPORT
  2
*ACTIVE
 70
     0
 10
0.0
 20
0.0
 11
1.0
 21
1.0
 12
0.0
 22
0.0
 13
0.0
 23
0.0
 14
1.0
 24
1.0
 15
0.0
 25
0.0
 16
0.0
 26
0.0
 36
25.1320099188730204
 17
3586.6992187500009095
 27
220.7489262715994016
 37
0.0
 40
6.05364833028771
 41
3.314341846758349
 42
50.0
 43
0.0
 44
0.0
 50
0.0
 51
0.0
 71
     0
 72
   100
 73
     1
 74
     1
 75
     0
 76
     0
 77
     0
 78
     0
  0
ENDTAB
  0
TABLE
  2
LTYPE
 70
     2
  0
LTYPE
  2
CONTINUOUS
 70
     0
  3
Solid line
 72
    65
 73
     0
 40
0.0
  0
LTYPE
  2
PHANTOM2
 70
     0
  3
___ _ _ ___ _ _ ___ _ _ ___ _ _
 72
    65
 73
     6
 40
1.25
 49
0.625
 49
-0.125
 49
0.125
 49
-0.125
 49
0.125
 49
-0.125
  0
ENDTAB
  0
TABLE
  2
LAYER
 70
     2
  0
LAYER
  2
0
 70
     0
 62
   255
  6
CONTINUOUS
  0
LAYER
  2
DEFPOINTS
 70
     0
 62
     7
  6
CONTINUOUS
  0
ENDTAB
  0
TABLE
  2
STYLE
 70
     1
  0
STYLE
  2
STANDARD
 70
     0
 40
0.0
 41
0.8
 50
0.0
 71
     0
 42
0.2
  3
txt
  4

  0
ENDTAB
  0
TABLE
  2
VIEW
 70
     0
  0
ENDTAB
  0
TABLE
  2
UCS
 70
     0
  0
ENDTAB
  0
TABLE
  2
APPID
 70
     9
  0
APPID
  2
ACAD
 70
     0
  0
APPID
  2
ACAD_MLEADERVER
 70
     0
  0
APPID
  2
ACAD_EXEMPT_FROM_CAD_STANDARDS
 70
     0
  0
APPID
  2
ACAD_NAV_VCDISPLAY
 70
     0
  0
APPID
  2
ACAECLAYERSTANDARD
 70
     0
  0
APPID
  2
ACCMTRANSPARENCY
 70
     0
  0
APPID
  2
ACAD_DSTYLE_DIMJAG
 70
     0
  0
APPID
  2
ACAD_DSTYLE_DIMTALN
 70
     0
  0
APPID
  2
ACDBATTR
 70
     0
  0
ENDTAB
  0
TABLE
  2
DIMSTYLE
 70
     1
  0
DIMSTYLE
  2
STANDARD
 70
     0
  3

  4

  5

  6

  7

 40
1.0
 41
0.1875
 42
0.0625
 43
0.38
 44
0.125
 45
0.0
 46
0.0
 47
0.01
 48
0.01
140
0.15625
141
0.09
142
0.0
143
25.3999999999999986
144
1.0
145
0.0
146
1.0
147
0.09
 71
     1
 72
     0
 73
     1
 74
     1
 75
     0
 76
     0
 77
     0
 78
     4
170
     0
171
     2
172
     0
173
     0
174
     0
175
     0
176
     0
177
     0
178
     0
  0
ENDTAB
  0
ENDSEC
  0
SECTION
  2
BLOCKS
  0
BLOCK
  8
0
  2
$MODEL_SPACE
 70
     0
 10
0.0
 20
0.0
 30
0.0
  3
$MODEL_SPACE
  1

  0
ENDBLK
  5
21
  8
0
  0
BLOCK
 67
     1
  8
0
  2
$PAPER_SPACE
 70
     0
 10
0.0
 20
0.0
 30
0.0
  3
$PAPER_SPACE
  1

  0
ENDBLK
  5
1D
 67
     1
  8
0
  0
BLOCK
  8
0
  2
_FILLED
 70
     0
 10
0.0
 20
0.0
 30
0.0
  3
_FILLED
  1

  0
SOLID
  5
6F59
  8
0
  6
BYBLOCK
 62
     0
 10
0.0
 20
0.0
 30
0.0
 11
-1.0
 21
0.1666666667
 31
0.0
 12
-1.0
 22
-0.1666666667
 32
0.0
 13
-1.0
 23
-0.1666666667
 33
0.0
  0
ENDBLK
  5
6F5A
  8
0
  6
BYBLOCK
 62
     0
  0
ENDSEC
  0
SECTION
  2
ENTITIES
  0
ATTDEF
  5
3930
  8
DEFPOINTS
 10
3586.6993948651511346
 20
217.8832506958680995
 30
0.0
 40
0.001
  1
K-45726W-4
  3

  2
MODELNUMBER
 70
     0
1001
ACDBATTR
1070
     0
1070
     1
  0
ATTDEF
  5
3931
  8
DEFPOINTS
 10
3586.6993948651511346
 20
217.8815840292014059
 30
0.0
 40
0.001
  1
VITEO
  3

  2
TRADENAME
 70
     0
1001
ACDBATTR
1070
     0
1070
     1
  0
ATTDEF
  5
3932
  8
DEFPOINTS
 10
3586.6993948651511346
 20
217.8799173625347976
 30
0.0
 40
0.001
  1
KITCHEN SINK FAUCET
  3

  2
PRODUCT
 70
     0
1001
ACDBATTR
1070
     0
1070
     1
  0
LINE
  5
9378
  8
0
 10
3587.6638054438240033
 20
217.8848986991017114
 30
0.0
 11
3585.7346715856228911
 21
217.8848986991017114
 31
0.0
  0
LINE
  5
9379
  8
0
 10
3587.2504196171239528
 20
223.278860268501802
 30
0.0
 11
3587.2504196171239528
 21
218.5150879375015904
 31
0.0
  0
LINE
  5
937A
  8
0
 10
3587.6011385449560294
 20
222.665422382555505
 30
0.0
 11
3587.2504196171239528
 21
222.665422382555505
 31
0.0
  0
LINE
  5
937B
  8
0
 10
3587.5850652864241965
 20
220.971512872301787
 30
0.0
 11
3587.2504196171239528
 21
220.971512872301787
 31
0.0
  0
LINE
  5
937C
  8
0
 10
3586.1480574123229417
 20
220.971512872301787
 30
0.0
 11
3585.8134117430240622
 21
220.971512872301787
 31
0.0
  0
LINE
  5
937D
  8
0
 10
3587.5911518103080198
 20
221.0502536005517129
 30
0.0
 11
3587.2504196171239528
 21
221.0502536005517129
 31
0.0
  0
LINE
  5
937E
  8
0
 10
3586.1480574123229417
 20
221.0502536005517129
 30
0.0
 11
3585.8073252191397842
 21
221.0502536005517129
 31
0.0
  0
LINE
  5
937F
  8
0
 10
3587.6244353651240999
 20
218.2471034235016987
 30
0.0
 11
3587.6244353651240999
 21
219.4045837384018114
 31
0.0
  0
LINE
  5
9380
  8
0
 10
3587.6244353651240999
 20
219.436079801401803
 30
0.0
 11
3587.6244353651240999
 21
220.932142793601713
 31
0.0
  0
LINE
  5
9381
  8
0
 10
3586.2662385147241366
 20
222.5762372818016956
 30
0.0
 11
3587.1322385147241221
 21
222.5762372818016956
 31
0.0
  0
LINE
  5
9382
  8
0
 10
3586.1480574123229417
 20
222.8809616912016907
 30
0.0
 11
3587.2504196171239528
 21
222.8809616912016907
 31
0.0
  0
LINE
  5
9383
  8
0
 10
3587.6244353651240999
 20
219.436079801401803
 30
0.0
 11
3587.2504196171239528
 21
219.436079801401803
 31
0.0
  0
LINE
  5
9384
  8
0
 10
3586.1480574123229417
 20
219.436079801401803
 30
0.0
 11
3585.7740416643241588
 21
219.436079801401803
 31
0.0
  0
LINE
  5
9385
  8
0
 10
3587.6126243415242243
 20
219.4163947621017883
 30
0.0
 11
3587.2504196171239528
 21
219.4163947621017883
 31
0.0
  0
LINE
  5
9386
  8
0
 10
3586.1480574123229417
 20
219.4163947621017883
 30
0.0
 11
3585.7858526879231249
 21
219.4163947621017883
 31
0.0
  0
LINE
  5
9387
  8
0
 10
3587.6244353651240999
 20
219.4045837384018114
 30
0.0
 11
3587.2504196171239528
 21
219.4045837384018114
 31
0.0
  0
LINE
  5
9388
  8
0
 10
3586.1480574123229417
 20
219.4045837384018114
 30
0.0
 11
3585.7740416643241588
 21
219.4045837384018114
 31
0.0
  0
LINE
  5
9389
  8
0
 10
3587.6356558375227905
 20
221.0977662152940866
 30
0.0
 11
3587.6356558375227905
 21
222.6263523483017082
 31
0.0
  0
LINE
  5
938A
  8
0
 10
3587.6126243415242243
 20
218.2352923999017946
 30
0.0
 11
3585.7858526879231249
 21
218.2352923999017946
 31
0.0
  0
LINE
  5
938B
  8
0
 10
3587.6258315923978444
 20
218.2038790515017865
 30
0.0
 11
3585.7726454370490501
 21
218.2038790515017865
 31
0.0
  0
LINE
  5
938C
  8
0
 10
3587.6126242222021574
 20
218.2156073605017923
 30
0.0
 11
3585.7858528072451918
 21
218.2156073605017923
 31
0.0
  0
LINE
  5
938D
  8
0
 10
3587.6244353651240999
 20
218.2471034235016987
 30
0.0
 11
3585.7740416643241588
 21
218.2471034235016987
 31
0.0
  0
ARC
  5
938E
  8
0
 10
3586.6441204096249749
 20
220.9716075136018105
 30
0.0
 40
0.8661417322983679
 50
359.9937394229257848
 51
5.2096599065166638
  0
ARC
  5
938F
  8
0
 10
3587.5962857886611346
 20
222.6263525539937973
 30
0.0
 40
0.039370048863355
 50
359.9997006535506898
 51
82.9197099683227208
  0
ARC
  5
9390
  8
0
 10
3586.5982193620138787
 20
214.3288176269477958
 30
0.0
 40
8.3967151755156042
 50
83.1401088169357934
 51
85.5451628041062264
  0
LINE
  5
9391
  8
0
 10
3587.6638054438240033
 20
217.8848986991017114
 30
0.0
 11
3587.6258315923978444
 21
218.2038790515017865
 31
0.0
  0
LINE
  5
9392
  8
0
 10
3587.6258315923978444
 20
218.2038790515017865
 30
0.0
 11
3587.6126242222021574
 21
218.2156073605017923
 31
0.0
  0
LINE
  5
9393
  8
0
 10
3587.6126243415242243
 20
218.2352923999017946
 30
0.0
 11
3587.6244353651240999
 21
218.2471034235016987
 31
0.0
  0
LINE
  5
9394
  8
0
 10
3587.5752227667230727
 20
218.2156073605017923
 30
0.0
 11
3587.5752227667230727
 21
218.2352923999017946
 31
0.0
  0
ARC
  5
9395
  8
0
 10
3587.5850652864241965
 20
220.932142793601713
 30
0.0
 40
0.0393700786999922
 50
359.9999999999951115
 51
90.0
  0
ARC
  5
9396
  8
0
 10
3587.589695461420888
 20
221.0962170126132946
 30
0.0
 40
0.0459864784520561
 50
271.8148073441494716
 51
1.93055820336275
  0
LINE
  5
9397
  8
0
 10
3587.1322385147241221
 20
222.7302372818018057
 30
0.0
 11
3587.1322385147241221
 21
222.5762372818016956
 31
0.0
  0
LINE
  5
9398
  8
0
 10
3587.1707385147237801
 20
222.7302372818018057
 30
0.0
 11
3586.2277385147240238
 21
222.7302372818018057
 31
0.0
  0
LINE
  5
9399
  8
0
 10
3587.1707385147237801
 20
222.8809616912016907
 30
0.0
 11
3587.1707385147237801
 21
222.7302372818018057
 31
0.0
  0
ARC
  5
939A
  8
0
 10
3587.1202506016388725
 20
218.504476564911613
 30
0.0
 40
0.1306008186049794
 50
305.3318447623043994
 51
4.6604440678257371
  0
ARC
  5
939B
  8
0
 10
3587.1336949215528875
 20
218.5060910110993859
 30
0.0
 40
0.1247121234094068
 50
250.9254838858574033
 51
299.8555586244970073
  0
ARC
  5
939C
  8
0
 10
3587.0929393025780882
 20
223.2788602685814112
 30
0.0
 40
0.1574803145451463
 50
359.9999999710316274
 51
39.7151324322859764
  0
LINE
  5
939D
  8
0
 10
3586.1480574123229417
 20
223.278860268501802
 30
0.0
 11
3586.1480574123229417
 21
218.5150879375015904
 31
0.0
  0
LINE
  5
939E
  8
0
 10
3585.7973384844908651
 20
222.665422382555505
 30
0.0
 11
3586.1480574123229417
 21
222.665422382555505
 31
0.0
  0
LINE
  5
939F
  8
0
 10
3585.7740416643241588
 20
218.2471034235016987
 30
0.0
 11
3585.7740416643241588
 21
219.4045837384018114
 31
0.0
  0
LINE
  5
93A0
  8
0
 10
3585.7740416643241588
 20
219.436079801401803
 30
0.0
 11
3585.7740416643241588
 21
220.932142793601713
 31
0.0
  0
LINE
  5
93A1
  8
0
 10
3585.7628211919241039
 20
221.0977662152940866
 30
0.0
 11
3585.7628211919241039
 21
222.6263523483017082
 31
0.0
  0
ARC
  5
93A2
  8
0
 10
3586.7543566198228291
 20
220.9716075136018105
 30
0.0
 40
0.8661417322983679
 50
174.7903400934833087
 51
180.0062605770741868
  0
ARC
  5
93A3
  8
0
 10
3585.8021912407862146
 20
222.6263525539937973
 30
0.0
 40
0.039370048863355
 50
97.0802900316772792
 51
180.0002993464493102
  0
ARC
  5
93A4
  8
0
 10
3586.8002576674330157
 20
214.3288176269477958
 30
0.0
 40
8.3967151755156042
 50
94.4548371958937452
 51
96.8598911830642066
  0
LINE
  5
93A5
  8
0
 10
3585.7346715856228911
 20
217.8848986991017114
 30
0.0
 11
3585.7726454370490501
 21
218.2038790515017865
 31
0.0
  0
LINE
  5
93A6
  8
0
 10
3585.7726454370490501
 20
218.2038790515017865
 30
0.0
 11
3585.7858528072451918
 21
218.2156073605017923
 31
0.0
  0
LINE
  5
93A7
  8
0
 10
3585.7858526879231249
 20
218.2352923999017946
 30
0.0
 11
3585.7740416643241588
 21
218.2471034235016987
 31
0.0
  0
LINE
  5
93A8
  8
0
 10
3585.8232542627238217
 20
218.2156073605017923
 30
0.0
 11
3585.8232542627238217
 21
218.2352923999017946
 31
0.0
  0
ARC
  5
93A9
  8
0
 10
3585.8134117430240622
 20
220.932142793601713
 30
0.0
 40
0.0393700786999922
 50
90.0
 51
180.0000000000048885
  0
ARC
  5
93AA
  8
0
 10
3585.8087815680260064
 20
221.0962170126132946
 30
0.0
 40
0.0459864784520561
 50
178.0694417966373067
 51
268.1851926558505284
  0
LINE
  5
93AB
  8
0
 10
3586.2662385147241366
 20
222.7302372818018057
 30
0.0
 11
3586.2662385147241366
 21
222.5762372818016956
 31
0.0
  0
LINE
  5
93AC
  8
0
 10
3586.2277385147240238
 20
222.8809616912016907
 30
0.0
 11
3586.2277385147240238
 21
222.7302372818018057
 31
0.0
  0
ARC
  5
93AD
  8
0
 10
3586.278226427808022
 20
218.504476564911613
 30
0.0
 40
0.1306008186049794
 50
175.3395559321741928
 51
234.6681552376956006
  0
ARC
  5
93AE
  8
0
 10
3586.2647821078949164
 20
218.5060910110993859
 30
0.0
 40
0.1247121234094068
 50
240.1444413755029927
 51
289.0745161141426252
  0
ARC
  5
93AF
  8
0
 10
3586.3055377268688062
 20
223.2788602685814112
 30
0.0
 40
0.1574803145451463
 50
140.2848675677140022
 51
180.000000028968401
  0
ARC
  5
93B0
  8
0
 10
3586.6992385147241293
 20
222.9518278329018131
 30
0.0
 40
0.6692913385999978
 50
39.7151360863970311
 51
140.2848639136028908
  0
ARC
  5
93B1
  8
0
 10
3586.6992385147241293
 20
217.0054507682866927
 30
0.0
 40
1.437730310204441
 50
74.1074040137684733
 51
105.8925959862314983
  0
LINE
  5
93B2
  8
0
 10
3587.6244353651240999
 20
219.4045837384018114
 30
0.0
 11
3587.6126243415242243
 21
219.4163947621017883
 31
0.0
  0
LINE
  5
93B3
  8
0
 10
3587.5752227667230727
 20
219.4163947621017883
 30
0.0
 11
3587.5752227667230727
 21
219.436079801401803
 31
0.0
  0
LINE
  5
93B4
  8
0
 10
3585.7740416643241588
 20
219.4045837384018114
 30
0.0
 11
3585.7858526879231249
 21
219.4163947621017883
 31
0.0
  0
LINE
  5
93B5
  8
0
 10
3585.8232542627238217
 20
219.4163947621017883
 30
0.0
 11
3585.8232542627238217
 21
219.436079801401803
 31
0.0
  0
ENDSEC
  0
EOF
