  0
SECTION
  2
HEADER
  9
$ACADVER
  1
AC1009
  9
$INSBASE
 10
3478.5383002621879314
 20
159.8370714115256135
 30
0.0
  9
$EXTMIN
 10
3473.4601569128271876
 20
159.8325796034420136
 30
-0.0015258207003583
  9
$EXTMAX
 10
3483.8258343995098585
 20
170.0283662560117079
 30
0.0000000349246037
  9
$LIMMIN
 10
0.0
 20
0.0
  9
$LIMMAX
 10
11.6929133858000007
 20
8.2677165353999982
  9
$ORTHOMODE
 70
     0
  9
$REGENMODE
 70
     1
  9
$FILLMODE
 70
     1
  9
$QTEXTMODE
 70
     0
  9
$MIRRTEXT
 70
     0
  9
$DRAGMODE
 70
     2
  9
$LTSCALE
 40
0.6431102362
  9
$OSMODE
 70
  4095
  9
$ATTMODE
 70
     1
  9
$TEXTSIZE
 40
0.2
  9
$TRACEWID
 40
0.05
  9
$TEXTSTYLE
  7
STANDARD
  9
$CLAYER
  8
0
  9
$CELTYPE
  6
BYLAYER
  9
$CECOLOR
 62
   256
  9
$DIMSCALE
 40
1.0
  9
$DIMASZ
 40
0.1875
  9
$DIMEXO
 40
0.0625
  9
$DIMDLI
 40
0.4443307087
  9
$DIMRND
 40
0.0
  9
$DIMDLE
 40
0.0
  9
$DIMEXE
 40
0.125
  9
$DIMTP
 40
0.01
  9
$DIMTM
 40
0.01
  9
$DIMTXT
 40
2.0
  9
$DIMCEN
 40
0.1052362205
  9
$DIMTSZ
 40
0.0
  9
$DIMTOL
 70
     1
  9
$DIMLIM
 70
     0
  9
$DIMTIH
 70
     1
  9
$DIMTOH
 70
     1
  9
$DIMSE1
 70
     0
  9
$DIMSE2
 70
     0
  9
$DIMTAD
 70
     0
  9
$DIMZIN
 70
     0
  9
$DIMBLK
  1

  9
$DIMASO
 70
     1
  9
$DIMSHO
 70
     1
  9
$DIMPOST
  1
\X
  9
$DIMAPOST
  1

  9
$DIMALT
 70
     1
  9
$DIMALTD
 70
     2
  9
$DIMALTF
 40
25.3999999999999986
  9
$DIMLFAC
 40
1.0
  9
$DIMTOFL
 70
     0
  9
$DIMTVP
 40
0.0
  9
$DIMTIX
 70
     0
  9
$DIMSOXD
 70
     0
  9
$DIMSAH
 70
     0
  9
$DIMBLK1
  1

  9
$DIMBLK2
  1

  9
$DIMSTYLE
  2
STANDARD
  9
$DIMCLRD
 70
     0
  9
$DIMCLRE
 70
     0
  9
$DIMCLRT
 70
     0
  9
$DIMTFAC
 40
1.0
  9
$DIMGAP
 40
0.09
  9
$LUNITS
 70
     2
  9
$LUPREC
 70
     4
  9
$SKETCHINC
 40
0.1
  9
$FILLETRAD
 40
0.0
  9
$AUNITS
 70
     0
  9
$AUPREC
 70
     0
  9
$MENU
  1
.
  9
$ELEVATION
 40
0.0
  9
$PELEVATION
 40
0.0
  9
$THICKNESS
 40
0.0
  9
$LIMCHECK
 70
     0
  9
$BLIPMODE
 70
     0
  9
$CHAMFERA
 40
0.0
  9
$CHAMFERB
 40
0.0
  9
$SKPOLY
 70
     0
  9
$TDCREATE
 40
2458060.468368056230247
  9
$TDUPDATE
 40
2459107.8407523147761822
  9
$TDINDWG
 40
0.5742894676
  9
$TDUSRTIMER
 40
0.5742894676
  9
$USRTIMER
 70
     1
  9
$ANGBASE
 50
0.0
  9
$ANGDIR
 70
     0
  9
$PDMODE
 70
     0
  9
$PDSIZE
 40
0.3125
  9
$PLINEWID
 40
0.0
  9
$COORDS
 70
     1
  9
$SPLFRAME
 70
     0
  9
$SPLINETYPE
 70
     6
  9
$SPLINESEGS
 70
     8
  9
$ATTDIA
 70
     1
  9
$ATTREQ
 70
     1
  9
$HANDLING
 70
     1
  9
$HANDSEED
  5
16755
  9
$SURFTAB1
 70
     6
  9
$SURFTAB2
 70
     6
  9
$SURFTYPE
 70
     6
  9
$SURFU
 70
     6
  9
$SURFV
 70
     6
  9
$UCSNAME
  2

  9
$UCSORG
 10
0.0
 20
0.0
 30
0.0
  9
$UCSXDIR
 10
1.0
 20
0.0
 30
0.0
  9
$UCSYDIR
 10
0.0
 20
1.0
 30
0.0
  9
$PUCSNAME
  2

  9
$PUCSORG
 10
0.0
 20
0.0
 30
0.0
  9
$PUCSXDIR
 10
1.0
 20
0.0
 30
0.0
  9
$PUCSYDIR
 10
0.0
 20
1.0
 30
0.0
  9
$USERI1
 70
     0
  9
$USERI2
 70
     0
  9
$USERI3
 70
     0
  9
$USERI4
 70
     0
  9
$USERI5
 70
     0
  9
$USERR1
 40
0.0
  9
$USERR2
 40
0.0
  9
$USERR3
 40
0.0
  9
$USERR4
 40
0.0
  9
$USERR5
 40
0.0
  9
$WORLDVIEW
 70
     1
  9
$SHADEDGE
 70
     3
  9
$SHADEDIF
 70
    70
  9
$TILEMODE
 70
     1
  9
$MAXACTVP
 70
    64
  9
$PLIMCHECK
 70
     0
  9
$PEXTMIN
 10
1.0000000000000000E+20
 20
1.0000000000000000E+20
 30
1.0000000000000000E+20
  9
$PEXTMAX
 10
-1.0000000000000000E+20
 20
-1.0000000000000000E+20
 30
-1.0000000000000000E+20
  9
$PLIMMIN
 10
0.0
 20
0.0
  9
$PLIMMAX
 10
12.0
 20
9.0
  9
$UNITMODE
 70
     0
  9
$VISRETAIN
 70
     1
  9
$PLINEGEN
 70
     0
  9
$PSLTSCALE
 70
     1
  0
ENDSEC
  0
SECTION
  2
TABLES
  0
TABLE
  2
VPORT
 70
     1
  0
VPORT
  2
*ACTIVE
 70
     0
 10
0.0
 20
0.0
 11
1.0
 21
1.0
 12
174.9498804217936936
 22
-30.3310386461608914
 13
0.0
 23
0.0
 14
1.0
 24
1.0
 15
0.0
 25
0.0
 16
0.0
 26
0.0
 36
96.5995694866707311
 17
3303.693115234375
 27
195.2615115758877096
 37
0.0
 40
10.2806336982221698
 41
2.6486111111111108
 42
50.0
 43
0.0
 44
0.0
 50
0.0
 51
0.0
 71
     0
 72
   100
 73
     1
 74
     1
 75
     0
 76
     0
 77
     0
 78
     0
  0
ENDTAB
  0
TABLE
  2
LTYPE
 70
     2
  0
LTYPE
  2
CONTINUOUS
 70
     0
  3
Solid line
 72
    65
 73
     0
 40
0.0
  0
LTYPE
  2
PHANTOM2
 70
     0
  3
___ _ _ ___ _ _ ___ _ _ ___ _ _
 72
    65
 73
     6
 40
1.25
 49
0.625
 49
-0.125
 49
0.125
 49
-0.125
 49
0.125
 49
-0.125
  0
ENDTAB
  0
TABLE
  2
LAYER
 70
     2
  0
LAYER
  2
0
 70
     0
 62
   255
  6
CONTINUOUS
  0
LAYER
  2
DEFPOINTS
 70
     0
 62
     7
  6
CONTINUOUS
  0
ENDTAB
  0
TABLE
  2
STYLE
 70
     1
  0
STYLE
  2
STANDARD
 70
     0
 40
0.0
 41
0.8
 50
0.0
 71
     0
 42
0.2
  3
txt
  4

  0
ENDTAB
  0
TABLE
  2
VIEW
 70
     0
  0
ENDTAB
  0
TABLE
  2
UCS
 70
     0
  0
ENDTAB
  0
TABLE
  2
APPID
 70
     9
  0
APPID
  2
ACAD
 70
     0
  0
APPID
  2
ACAD_MLEADERVER
 70
     0
  0
APPID
  2
ACAD_EXEMPT_FROM_CAD_STANDARDS
 70
     0
  0
APPID
  2
ACAD_NAV_VCDISPLAY
 70
     0
  0
APPID
  2
ACAECLAYERSTANDARD
 70
     0
  0
APPID
  2
ACCMTRANSPARENCY
 70
     0
  0
APPID
  2
ACAD_DSTYLE_DIMJAG
 70
     0
  0
APPID
  2
ACAD_DSTYLE_DIMTALN
 70
     0
  0
APPID
  2
ACDBATTR
 70
     0
  0
ENDTAB
  0
TABLE
  2
DIMSTYLE
 70
     1
  0
DIMSTYLE
  2
STANDARD
 70
     0
  3

  4

  5

  6

  7

 40
1.0
 41
0.1875
 42
0.0625
 43
0.38
 44
0.125
 45
0.0
 46
0.0
 47
0.01
 48
0.01
140
0.15625
141
0.09
142
0.0
143
25.3999999999999986
144
1.0
145
0.0
146
1.0
147
0.09
 71
     1
 72
     0
 73
     1
 74
     1
 75
     0
 76
     0
 77
     0
 78
     4
170
     0
171
     2
172
     0
173
     0
174
     0
175
     0
176
     0
177
     0
178
     0
  0
ENDTAB
  0
ENDSEC
  0
SECTION
  2
BLOCKS
  0
BLOCK
  8
0
  2
$MODEL_SPACE
 70
     0
 10
0.0
 20
0.0
 30
0.0
  3
$MODEL_SPACE
  1

  0
ENDBLK
  5
21
  8
0
  0
BLOCK
 67
     1
  8
0
  2
$PAPER_SPACE
 70
     0
 10
0.0
 20
0.0
 30
0.0
  3
$PAPER_SPACE
  1

  0
ENDBLK
  5
1D
 67
     1
  8
0
  0
BLOCK
  8
0
  2
_FILLED
 70
     0
 10
0.0
 20
0.0
 30
0.0
  3
_FILLED
  1

  0
SOLID
  5
1223D
  8
0
  6
BYBLOCK
 62
     0
 10
0.0
 20
0.0
 30
0.0
 11
-1.0
 21
0.1666666667
 31
0.0
 12
-1.0
 22
-0.1666666667
 32
0.0
 13
-1.0
 23
-0.1666666667
 33
0.0
  0
ENDBLK
  5
1223E
  8
0
  6
BYBLOCK
 62
     0
  0
ENDSEC
  0
SECTION
  2
ENTITIES
  0
ATTDEF
  5
15121
  8
DEFPOINTS
 10
3478.538742343857848
 20
159.8409913278622128
 30
0.0
 40
0.001
  1
K-45758T-4
  3

  2
MODELNUMBER
 70
     0
1001
ACDBATTR
1070
     0
1070
     1
  0
ATTDEF
  5
15122
  8
DEFPOINTS
 10
3478.538742343857848
 20
159.8393246611954908
 30
0.0
 40
0.001
  1
ALEUTIAN
  3

  2
TRADENAME
 70
     0
1001
ACDBATTR
1070
     0
1070
     1
  0
ATTDEF
  5
15123
  8
DEFPOINTS
 10
3478.538742343857848
 20
159.8376579945289109
 30
0.0
 40
0.001
  1
BATHROOM SINK FAUCET
  3

  2
PRODUCT
 70
     0
1001
ACDBATTR
1070
     0
1070
     1
  0
LINE
  5
15CC3
  8
0
 10
3483.7194026243378175
 20
159.8370714115256135
 30
0.0
 11
3481.3571978999389103
 21
159.8370714115256135
 31
0.0
  0
LINE
  5
15CC4
  8
0
 10
3479.7194026243378175
 20
159.8370714115256135
 30
0.0
 11
3477.3571978999380008
 21
159.8370714115256135
 31
0.0
  0
LINE
  5
15CC5
  8
0
 10
3475.601292388138063
 20
159.8370714115256135
 30
0.0
 11
3473.601292388138063
 21
159.8370714115256135
 31
0.0
  0
LINE
  5
15CC6
  8
0
 10
3477.3571978999380008
 20
159.8370714115256135
 30
0.0
 11
3477.3571978999380008
 21
159.9748666871255978
 31
0.0
  0
ARC
  5
15CC7
  8
0
 10
3477.3768829393379747
 20
159.9748666871255978
 30
0.0
 40
0.0196850394000006
 50
90.0
 51
180.0000000000015916
  0
LINE
  5
15CC8
  8
0
 10
3477.3768829393379747
 20
159.9945517265256001
 30
0.0
 11
3479.6997175850378881
 21
159.9945517265257138
 31
0.0
  0
ARC
  5
15CC9
  8
0
 10
3479.6997175850378881
 20
159.9748666871257115
 30
0.0
 40
0.0196850393999997
 50
359.9999999996937845
 51
90.0
  0
LINE
  5
15CCA
  8
0
 10
3479.719402624437862
 20
159.9748666871255978
 30
0.0
 11
3479.719402624437862
 21
159.8370714115256135
 31
0.0
  0
LINE
  5
15CCB
  8
0
 10
3477.9103475062379403
 20
159.9945517265256001
 30
0.0
 11
3477.9103475062379403
 21
160.0260477894256042
 31
0.0
  0
LINE
  5
15CCC
  8
0
 10
3477.9083790023378242
 20
160.0260477894256042
 30
0.0
 11
3479.1682215220380385
 21
160.0260477894256042
 31
0.0
  0
LINE
  5
15CCD
  8
0
 10
3479.1682220072880227
 20
160.0260477894256042
 30
0.0
 11
3479.1682215220380385
 21
169.4572786728255949
 31
0.0
  0
ARC
  5
15CCE
  8
0
 10
3478.6331388611201874
 20
169.4447605941954862
 30
0.0
 40
0.5352290690056144
 50
1.340171003047395
 51
53.2901544149527524
  0
ARC
  5
15CCF
  8
0
 10
3478.5381220936192221
 20
169.3482929855956058
 30
0.0
 40
0.669617855399123
 50
51.7063508684883075
 51
89.125045719134377
  0
ARC
  5
15CD0
  8
0
 10
3478.537005114898875
 20
169.3557357633685001
 30
0.0
 40
0.6621941452350325
 50
89.0185775742132961
 51
135.5335429870756059
  0
ARC
  5
15CD1
  8
0
 10
3478.4390888898001322
 20
169.4430097937726032
 30
0.0
 40
0.531217886895719
 50
134.8534376961314933
 51
177.4940781974310084
  0
ARC
  5
15CD2
  8
0
 10
3478.3675486126530814
 20
169.4698327955750017
 30
0.0
 40
0.4591836970729044
 50
180.4487981255226998
 51
245.3765066107110897
  0
ARC
  5
15CD3
  8
0
 10
3478.5666053293489313
 20
169.8945477506767929
 30
0.0
 40
0.9282236400207963
 50
245.1298133248052125
 51
268.2525630023060899
  0
ARC
  5
15CD4
  8
0
 10
3478.494312078169969
 20
169.9674962208075044
 30
0.0
 40
1.0017067430444611
 50
272.5168524008224722
 51
293.2319496431298944
  0
ARC
  5
15CD5
  8
0
 10
3478.6566402212120011
 20
169.530772200421211
 30
0.0
 40
0.5368604963443518
 50
295.698228188072278
 51
324.658461165718677
  0
ARC
  5
15CD6
  8
0
 10
3478.7501584289720995
 20
169.4576791167137912
 30
0.0
 40
0.418331861276268
 50
325.4155909424075048
 51
348.3222216042415766
  0
ARC
  5
15CD7
  8
0
 10
3478.7412231631001305
 20
169.4578162884052972
 30
0.0
 40
0.4271132255156135
 50
348.5468147318139245
 51
358.6711599921163156
  0
LINE
  5
15CD8
  8
0
 10
3477.9083790023378242
 20
160.0260477894256042
 30
0.0
 11
3477.9083790023378242
 21
169.4662360441755879
 31
0.0
  0
LINE
  5
15CD9
  8
0
 10
3478.3748195952380229
 20
159.9945517265257138
 30
0.0
 11
3478.3748195952380229
 21
160.0260477894256042
 31
0.0
  0
LINE
  5
15CDA
  8
0
 10
3478.7017809290377954
 20
160.0260477894256042
 30
0.0
 11
3478.7017809290377954
 21
159.9945517265257138
 31
0.0
  0
LINE
  5
15CDB
  8
0
 10
3478.4596481605799454
 20
166.2354438514583137
 30
0.0
 11
3478.4595601046389675
 21
166.3004670756290864
 31
0.0
  0
ARC
  5
15CDC
  8
0
 10
3478.494176361180962
 20
166.3018038352863925
 30
0.0
 40
0.0346602497790429
 50
173.5879339865819873
 51
182.2060735714341035
  0
ARC
  5
15CDD
  8
0
 10
3478.4705414709569595
 20
166.3044599530458925
 30
0.0
 40
0.0108765789624179
 50
149.4599394535206045
 51
173.5879339865803956
  0
ARC
  5
15CDE
  8
0
 10
3478.4891290897371618
 20
166.291649776938101
 30
0.0
 40
0.0334327174299019
 50
107.3899654069953016
 51
146.7375483985833
  0
ARC
  5
15CDF
  8
0
 10
3478.5225788539819405
 20
166.2054808072583967
 30
0.0
 40
0.125811636989887
 50
96.7247552524266041
 51
110.1997046607183961
  0
ARC
  5
15CE0
  8
0
 10
3478.5396585410107946
 20
166.0802663554308936
 30
0.0
 40
0.2521751456900656
 50
90.3086109854641705
 51
97.2472436984305943
  0
ARC
  5
15CE1
  8
0
 10
3478.5380586518708697
 20
166.1014791442856051
 30
0.0
 40
0.2309588251694758
 50
80.2939609135248418
 51
89.9400618097844955
  0
ARC
  5
15CE2
  8
0
 10
3478.5629938329589095
 20
166.2390456946938002
 30
0.0
 40
0.0911680670155897
 50
62.4616688176936279
 51
81.164702894159376
  0
ARC
  5
15CE3
  8
0
 10
3478.5929563925169532
 20
166.2968007856194959
 30
0.0
 40
0.0261039287333926
 50
30.9877183224588109
 51
62.16591051047984
  0
ARC
  5
15CE4
  8
0
 10
3478.6018250861311571
 20
166.3031428544958885
 30
0.0
 40
0.0152606206967092
 50
18.0115182651993209
 51
27.7164270018254513
  0
ARC
  5
15CE5
  8
0
 10
3478.6026934556630295
 20
166.3034251978725138
 30
0.0
 40
0.0143475032752643
 50
0.4967821963411105
 51
18.0115182652008592
  0
LINE
  5
15CE6
  8
0
 10
3478.6170404196382151
 20
166.3035495961256061
 30
0.0
 11
3478.6170404196382151
 21
166.2369980411874053
 31
0.0
  0
ARC
  5
15CE7
  8
0
 10
3478.5928393589019834
 20
166.2397352569863074
 30
0.0
 40
0.0243553626762154
 50
313.4474226036621758
 51
353.547090462355186
  0
ARC
  5
15CE8
  8
0
 10
3478.5667010270908577
 20
166.2673299814738073
 30
0.0
 40
0.0623643249011644
 50
298.3006028164189161
 51
313.4474226036621758
  0
ARC
  5
15CE9
  8
0
 10
3478.5426659195550201
 20
166.3173378368155113
 30
0.0
 40
0.1178173632711393
 50
274.9090451349774185
 51
297.062190619812327
  0
ARC
  5
15CEA
  8
0
 10
3478.5384078172269255
 20
166.3514007584930141
 30
0.0
 40
0.1521255119446306
 50
262.825578257352106
 51
275.4090626024163271
  0
ARC
  5
15CEB
  8
0
 10
3478.53380175980692
 20
166.318242316051311
 30
0.0
 40
0.1186522046805041
 50
245.1516922489932995
 51
263.0326539152882788
  0
ARC
  5
15CEC
  8
0
 10
3478.5065353871241314
 20
166.261570973628011
 30
0.0
 40
0.0557772130860958
 50
220.1916518113040979
 51
246.1048664928597134
  0
ARC
  5
15CED
  8
0
 10
3478.4811966515458153
 20
166.2391131935366104
 30
0.0
 40
0.0219428556452095
 50
196.051815295701914
 51
218.0944060848406139
  0
ARC
  5
15CEE
  8
0
 10
3478.4755512885180906
 20
166.2372587293243953
 30
0.0
 40
0.016006350610643
 50
186.5104751607337903
 51
195.2600527859495969
  0
ARC
  5
15CEF
  8
0
 10
3477.9463938548378792
 20
167.3241182802537139
 30
0.0
 40
0.0380173161129109
 50
180.6522820930561863
 51
186.5607471388208012
  0
ARC
  5
15CF0
  8
0
 10
3478.2790286804101925
 20
167.3316298581856927
 30
0.0
 40
0.3705928515487182
 50
181.833211065003411
 51
184.6941338457093025
  0
ARC
  5
15CF1
  8
0
 10
3478.4946157192011924
 20
167.349332117589114
 30
0.0
 40
0.5869054523902159
 50
184.6941338457093025
 51
193.248296396192103
  0
ARC
  5
15CF2
  8
0
 10
3478.4597250479928334
 20
167.3472755060618908
 30
0.0
 40
0.5525045578090906
 50
193.8699049756637862
 51
212.5030721613848073
  0
ARC
  5
15CF3
  8
0
 10
3478.4430329434239866
 20
167.3193890300505018
 30
0.0
 40
0.5217044692515606
 50
210.9049747850677079
 51
231.7472018152959947
  0
ARC
  5
15CF4
  8
0
 10
3478.5247676628500813
 20
167.4131691804981017
 30
0.0
 40
0.645982396683923
 50
231.204122453709914
 51
252.6371296347336113
  0
ARC
  5
15CF5
  8
0
 10
3478.5370864525129946
 20
167.4476410995447111
 30
0.0
 40
0.6825613510874577
 50
252.5137108657459919
 51
263.4779584951676839
  0
LINE
  5
15CF6
  8
0
 10
3478.4595574284080612
 20
166.7694971263209993
 30
0.0
 11
3478.4595601046389675
 21
166.7245039981256127
 31
0.0
  0
ARC
  5
15CF7
  8
0
 10
3478.4743351801112112
 20
166.7245048769597986
 30
0.0
 40
0.0147750754983736
 50
180.0034080023160072
 51
199.0866371261481902
  0
ARC
  5
15CF8
  8
0
 10
3478.4964437032690512
 20
166.7363767179371905
 30
0.0
 40
0.0397509797487773
 50
204.8470435562358034
 51
244.1924239859239947
  0
ARC
  5
15CF9
  8
0
 10
3478.5350466629361108
 20
166.8075662889883972
 30
0.0
 40
0.1207045815652387
 50
242.40717707396891
 51
268.0721847656653836
  0
ARC
  5
15CFA
  8
0
 10
3478.5382959305538861
 20
166.8324701071063885
 30
0.0
 40
0.145723534906133
 50
267.1247102169476193
 51
278.0989406534562818
  0
ARC
  5
15CFB
  8
0
 10
3478.545443423910001
 20
166.7954623817861091
 30
0.0
 40
0.1080940012354569
 50
277.1116909175757996
 51
301.0265184226619226
  0
ARC
  5
15CFC
  8
0
 10
3478.5818206453859602
 20
166.7356796056253927
 30
0.0
 40
0.0381160194217006
 50
300.4875103105493963
 51
332.4528644804540818
  0
ARC
  5
15CFD
  8
0
 10
3478.6009156246218481
 20
166.7246816278162953
 30
0.0
 40
0.0161257732704511
 50
335.7239263542339813
 51
359.3688895116346202
  0
LINE
  5
15CFE
  8
0
 10
3478.6170404196382151
 20
166.7245040067255957
 30
0.0
 11
3478.6170404196382151
 21
166.7694968835515965
 31
0.0
  0
ARC
  5
15CFF
  8
0
 10
3478.5389204386378879
 20
167.4513451094719017
 30
0.0
 40
0.6863087749591302
 50
276.5361241842513209
 51
279.9794207931657866
  0
ARC
  5
15D00
  8
0
 10
3478.5405928388358916
 20
167.4418404952205037
 30
0.0
 40
0.6766581472858452
 50
279.9794207931657866
 51
295.5839625395889811
  0
ARC
  5
15D01
  8
0
 10
3478.5615929381651767
 20
167.3979784040344896
 30
0.0
 40
0.6280280412298682
 50
295.5839625395889811
 51
309.8738359386342154
  0
ARC
  5
15D02
  8
0
 10
3478.5849130159958804
 20
167.3700620083548074
 30
0.0
 40
0.5916528961744479
 50
309.8738359386342154
 51
328.7021667560550213
  0
ARC
  5
15D03
  8
0
 10
3478.6216530634578703
 20
167.3454735497070089
 30
0.0
 40
0.5474893186285901
 50
328.9035528453488268
 51
342.0237592044762209
  0
ARC
  5
15D04
  8
0
 10
3478.6345340757761733
 20
167.341058084015998
 30
0.0
 40
0.5338744331599174
 50
342.0478582318115173
 51
352.0939789459192752
  0
ARC
  5
15D05
  8
0
 10
3478.6831206180349909
 20
167.3358261475923996
 30
0.0
 40
0.4850323815151833
 50
351.9166918839571849
 51
355.9588810642613907
  0
ARC
  5
15D06
  8
0
 10
3478.5608929937370704
 20
167.3444612870260073
 30
0.0
 40
0.6075646538954061
 50
355.9588810642613907
 51
358.4000114371747827
  0
LINE
  5
15D07
  8
0
 10
3478.4654656171937859
 20
166.7688460824990955
 30
0.0
 11
3478.4655359260377736
 21
166.7402630653255926
 31
0.0
  0
ARC
  5
15D08
  8
0
 10
3478.4915336117528568
 20
166.7430435170498129
 30
0.0
 40
0.0261459475692202
 50
186.104577189206509
 51
219.0853066746549871
  0
ARC
  5
15D09
  8
0
 10
3478.5045742369297841
 20
166.7531823701336862
 30
0.0
 40
0.042661949821854
 50
218.6126243928154906
 51
240.4501053497733949
  0
ARC
  5
15D0A
  8
0
 10
3478.5314785429391122
 20
166.7981682322285053
 30
0.0
 40
0.0950728561669139
 50
239.7157039559616862
 51
264.435436350778275
  0
ARC
  5
15D0B
  8
0
 10
3478.5383053754121647
 20
166.8285717163562083
 30
0.0
 40
0.1260537473263288
 50
262.6867905484401149
 51
277.4548611660317761
  0
ARC
  5
15D0C
  8
0
 10
3478.5410278498948173
 20
166.8155305822417915
 30
0.0
 40
0.1127741171996698
 50
276.9430167300109815
 51
290.9036788504977267
  0
ARC
  5
15D0D
  8
0
 10
3478.5573418863418738
 20
166.7732593005555088
 30
0.0
 40
0.067464434686433
 50
290.7695239268679757
 51
308.4537636971738834
  0
ARC
  5
15D0E
  8
0
 10
3478.5766166501821317
 20
166.748487778832498
 30
0.0
 40
0.0360802941293393
 50
308.9471958623366845
 51
332.4637943083079108
  0
ARC
  5
15D0F
  8
0
 10
3478.5847658902562216
 20
166.7436972347437916
 30
0.0
 40
0.0266438285983711
 50
333.4969154469461046
 51
345.414089915937609
  0
ARC
  5
15D10
  8
0
 10
3478.5751364522889162
 20
166.7436692889669985
 30
0.0
 40
0.0360393954317905
 50
349.3153802910346144
 51
357.2234689385263096
  0
LINE
  5
15D11
  8
0
 10
3478.6111335397381481
 20
166.7419235174255903
 30
0.0
 11
3478.6111349071748009
 21
166.7688461390642942
 31
0.0
  0
ARC
  5
15D12
  8
0
 10
3478.538299995106172
 20
167.4567613235292072
 30
0.0
 40
0.6917602369660435
 50
263.9562131204781963
 51
276.0438313688432004
  0
ARC
  5
15D13
  8
0
 10
3478.5934069197228382
 20
166.7719599949620886
 30
0.0
 40
0.0237597366346758
 50
318.5499306554913233
 51
354.0491012002607931
  0
ARC
  5
15D14
  8
0
 10
3478.4802099325597737
 20
166.7706550845605022
 30
0.0
 40
0.0206854925258933
 50
183.2362847403265107
 51
224.6615464920384113
  0
ARC
  5
15D15
  8
0
 10
3477.9470939499378801
 20
169.0117023305296868
 30
0.0
 40
0.0126959033617293
 50
128.1829219023217092
 51
171.0069801457883045
  0
ARC
  5
15D16
  8
0
 10
3477.9427756213540306
 20
169.0156984156641897
 30
0.0
 40
0.0069470741025616
 50
94.7944388174673946
 51
120.5387146855150036
  0
ARC
  5
15D17
  8
0
 10
3477.942730642960214
 20
169.0087508733475943
 30
0.0
 40
0.0138806481914119
 50
68.1965744142559913
 51
92.2116413708596951
  0
ARC
  5
15D18
  8
0
 10
3477.767704382663851
 20
168.6962031813035878
 30
0.0
 40
0.3719861300995443
 50
52.7312855867923176
 51
61.0282784536595386
  0
ARC
  5
15D19
  8
0
 10
3478.3728070443230536
 20
169.5395077347629922
 30
0.0
 40
0.6661784176850944
 50
235.2368674702871942
 51
253.1034158935578091
  0
ARC
  5
15D1A
  8
0
 10
3478.6076379810929211
 20
170.7032333137964883
 30
0.0
 40
1.8514041385135549
 50
256.6192960634672886
 51
267.8536896062644814
  0
ARC
  5
15D1C
  8
0
 10
3478.0208289316087757
 20
168.9967851686380129
 30
0.0
 40
0.0879148012308666
 50
168.9158190437260032
 51
182.387469588887086
  0
ARC
  5
15D1D
  8
0
 10
3478.5371163361628533
 20
167.7088863109970021
 30
0.0
 40
0.5789236787647125
 50
260.0152766446007035
 51
270.117172633082987
  0
ARC
  5
15D1E
  8
0
 10
3478.5044928123011232
 20
167.5314791850780978
 30
0.0
 40
0.3985494621938864
 50
246.1241353219299128
 51
260.2121672688243166
  0
ARC
  5
15D1F
  8
0
 10
3478.41555799999378
 20
167.3305579185415866
 30
0.0
 40
0.1788251891000311
 50
222.8141251989434863
 51
246.1241353219299128
  0
ARC
  5
15D20
  8
0
 10
3478.340147368045109
 20
167.2606923669821981
 30
0.0
 40
0.0760246117394714
 50
206.270949132451193
 51
222.8141251989447085
  0
ARC
  5
15D21
  8
0
 10
3478.3530235777548114
 20
167.2670480648432942
 30
0.0
 40
0.0903839874845942
 50
182.2610959132852884
 51
206.270949132451193
  0
ARC
  5
15D22
  8
0
 10
3478.3072600694699759
 20
167.2652411353857929
 30
0.0
 40
0.0445848206302332
 50
149.9755514887519894
 51
182.2610959132852884
  0
ARC
  5
15D23
  8
0
 10
3478.3635894937460762
 20
167.2326872710034138
 30
0.0
 40
0.1096444711476932
 50
124.6761046337718
 51
149.9755514887519894
  0
ARC
  5
15D24
  8
0
 10
3478.4715095007718446
 20
167.0570066933489954
 30
0.0
 40
0.3157192596896905
 50
100.4176483629914003
 51
122.6431894868060937
  0
ARC
  5
15D25
  8
0
 10
3478.5362640630041824
 20
166.7767314074775129
 30
0.0
 40
0.6032237447824769
 50
89.8065960730950508
 51
101.6531994766726967
  0
ARC
  5
15D26
  8
0
 10
3478.5371363627659775
 20
166.7990705012477122
 30
0.0
 40
0.540270076368879
 50
89.8765680737177632
 51
100.3164765932480975
  0
ARC
  5
15D27
  8
0
 10
3478.5088093448048312
 20
166.9546897281084057
 30
0.0
 40
0.382093707352309
 50
100.3164796284661975
 51
110.5214483662950045
  0
ARC
  5
15D28
  8
0
 10
3478.446115503180863
 20
167.1221808581759944
 30
0.0
 40
0.2032535652449035
 50
110.5214483662950045
 51
127.3399273998574017
  0
ARC
  5
15D29
  8
0
 10
3478.3685273807677731
 20
167.2238827254012961
 30
0.0
 40
0.0753348936729623
 50
127.3399273998574017
 51
158.0822812404670969
  0
ARC
  5
15D2A
  8
0
 10
3478.3365291813111071
 20
167.2367574151286931
 30
0.0
 40
0.0408437005359025
 50
158.0822812404670969
 51
205.8011709577363035
  0
ARC
  5
15D2B
  8
0
 10
3478.3746458010218703
 20
167.2551846700932003
 30
0.0
 40
0.0831809232096844
 50
205.8011709577363035
 51
231.0959339954470124
  0
ARC
  5
15D2C
  8
0
 10
3478.4525014204150466
 20
167.3614806058380964
 30
0.0
 40
0.2148835823237135
 50
232.7409487294802091
 51
253.8767220121621904
  0
ARC
  5
15D2D
  8
0
 10
3478.5146683934390239
 20
167.5447293492867118
 30
0.0
 40
0.4082841238924958
 50
252.6371141618166973
 51
260.2858387397270121
  0
ARC
  5
15D2E
  8
0
 10
3478.5372238337217823
 20
167.6771744831623892
 30
0.0
 40
0.5426360917945172
 50
260.2980688976911097
 51
270.1136578390410818
  0
LINE
  5
15D2F
  8
0
 10
3478.2627097109379974
 20
167.415701176748712
 30
0.0
 11
3478.2627097109379974
 21
167.2669937863047949
 31
0.0
  0
ARC
  5
15D30
  8
0
 10
3478.5371975588750502
 20
166.7646376957260088
 30
0.0
 40
0.719312804368969
 50
89.9121657918493185
 51
97.4190253061645279
  0
ARC
  5
15D31
  8
0
 10
3478.5182551387219974
 20
166.9101080415044862
 30
0.0
 40
0.5726143490869025
 50
97.4190253061645279
 51
109.5132957484667031
  0
ARC
  5
15D32
  8
0
 10
3478.4040002038118473
 20
167.2272155719167017
 30
0.0
 40
0.2355627869705019
 50
109.0826401530423055
 51
131.6378376676790936
  0
ARC
  5
15D33
  8
0
 10
3478.3121939560201099
 20
167.3345789049666905
 30
0.0
 40
0.0943651526375537
 50
133.2908267226007126
 51
154.2476699416133101
  0
ARC
  5
15D34
  8
0
 10
3478.2809986041679622
 20
167.3498918709701115
 30
0.0
 40
0.059615375155017
 50
154.4766750574443961
 51
210.6861918807175016
  0
ARC
  5
15D35
  8
0
 10
3478.3294251873981011
 20
167.3787624301131984
 30
0.0
 40
0.1159947725546983
 50
210.7425784263280093
 51
234.8892085853283049
  0
LINE
  5
15D36
  8
0
 10
3478.2494517762920623
 20
167.4049924268682901
 30
0.0
 11
3478.2627097109379974
 21
167.3899531649225025
 31
0.0
  0
ARC
  5
15D37
  8
0
 10
3478.3753847747270811
 20
169.0082988668359008
 30
0.0
 40
0.4426545544244498
 50
181.9647147235668001
 51
190.7154677450712938
  0
LINE
  5
15D38
  8
0
 10
3477.9404489481830751
 20
168.9259952743180975
 30
0.0
 11
3477.949149690673039
 21
168.4742818340322117
 31
0.0
  0
ARC
  5
15D39
  8
0
 10
3478.0530113050249383
 20
168.4762188683141062
 30
0.0
 40
0.1038796757677731
 50
176.3009619757299902
 51
181.0684507913261996
  0
ARC
  5
15D3A
  8
0
 10
3478.0608424914889838
 20
168.475712579879314
 30
0.0
 40
0.1117272110116792
 50
156.7925694887308055
 51
176.3009617937381108
  0
ARC
  5
15D3B
  8
0
 10
3478.0990501466458227
 20
168.459330892372293
 30
0.0
 40
0.1532986507053969
 50
139.6764308751023123
 51
156.7925694887308055
  0
ARC
  5
15D3C
  8
0
 10
3478.1898880719268163
 20
168.3822304654389939
 30
0.0
 40
0.2724456376700647
 50
118.3493554482153058
 51
139.6764308751023123
  0
ARC
  5
15D3D
  8
0
 10
3478.4188631063611865
 20
167.9578538476710037
 30
0.0
 40
0.7546541818723578
 50
105.1968957077878031
 51
118.3493554482153058
  0
ARC
  5
15D3E
  8
0
 10
3478.4941649976640292
 20
167.6806374826660999
 30
0.0
 40
1.041915888092374
 50
95.4722868627824113
 51
105.1968957077878031
  0
ARC
  5
15D3F
  8
0
 10
3478.5376416129638528
 20
167.3610383113185094
 30
0.0
 40
1.364264633100996
 50
89.9723383227265288
 51
96.0098685982578388
  0
ARC
  5
15D40
  8
0
 10
3478.5378036915540179
 20
167.3821799670448058
 30
0.0
 40
1.317275581076478
 50
89.9784013287564193
 51
96.9106825497365492
  0
ARC
  5
15D41
  8
0
 10
3478.505979426337035
 20
167.6447516761442103
 30
0.0
 40
1.052782317880665
 50
96.910686673683557
 51
108.2208659773748991
  0
ARC
  5
15D42
  8
0
 10
3478.3409031613919069
 20
168.1462184163027871
 30
0.0
 40
0.5248438131912867
 50
108.2208659773748991
 51
120.8229616123420982
  0
ARC
  5
15D43
  8
0
 10
3478.2353824270630867
 20
168.3230699142185074
 30
0.0
 40
0.3189043131230108
 50
120.8229616123420982
 51
134.7668386539924086
  0
ARC
  5
15D44
  8
0
 10
3478.1167191238560008
 20
168.4427029538215947
 30
0.0
 40
0.1504019579684715
 50
134.7668386539924086
 51
165.4999614058523036
  0
ARC
  5
15D45
  8
0
 10
3478.0732685585339823
 20
168.4586754896403136
 30
0.0
 40
0.1044368651102266
 50
168.0159508071299115
 51
201.711944837528506
  0
ARC
  5
15D46
  8
0
 10
3478.151553319687082
 20
168.4989313444662002
 30
0.0
 40
0.1922453422240799
 50
204.2279342388106045
 51
233.7343408501214981
  0
ARC
  5
15D47
  8
0
 10
3478.3264833797429674
 20
168.737369159200199
 30
0.0
 40
0.4879700747141801
 50
233.7343408501214981
 51
251.519967088838996
  0
ARC
  5
15D48
  8
0
 10
3478.4546327845250744
 20
169.0786701528446088
 30
0.0
 40
0.8523963192721993
 50
250.6220630657149115
 51
257.0055434453619227
  0
ARC
  5
15D49
  8
0
 10
3478.5248944465151908
 20
169.395724158084505
 30
0.0
 40
1.177133361425247
 50
257.1432595411782813
 51
266.8906450102953158
  0
ARC
  5
15D4A
  8
0
 10
3478.5380572281169407
 20
169.5544229123177047
 30
0.0
 40
1.3363201533921261
 50
266.6961905091778249
 51
270.0104202752057745
  0
ARC
  5
15D4B
  8
0
 10
3478.5381596093461667
 20
169.576402159939704
 30
0.0
 40
1.3601437210865299
 50
267.7380793838246973
 51
270.0059249725716199
  0
ARC
  5
15D4C
  8
0
 10
3478.5355884163650444
 20
169.5113061682039017
 30
0.0
 40
1.2949969700285759
 50
260.0445476858379266
 51
267.7380793838246973
  0
ARC
  5
15D4D
  8
0
 10
3478.4583444105642229
 20
169.0961882677397057
 30
0.0
 40
0.8727862523583834
 50
247.5021807519302968
 51
260.3277701754219038
  0
ARC
  5
15D4E
  8
0
 10
3478.276361048976014
 20
168.6669148722947966
 30
0.0
 40
0.4065659223361839
 50
227.4513452348876967
 51
248.0479442537597095
  0
ARC
  5
15D4F
  8
0
 10
3478.1144581415510402
 20
168.4916680782989999
 30
0.0
 40
0.1679814377886813
 50
199.856283471596214
 51
227.713886247143904
  0
ARC
  5
15D50
  8
0
 10
3478.0724899917167932
 20
168.4765120278597976
 30
0.0
 40
0.1233604621681187
 50
181.0358882677602992
 51
199.856283471596214
  0
LINE
  5
15D51
  8
0
 10
3478.0983824795412147
 20
168.301374890860501
 30
0.0
 11
3478.0983238849380541
 21
167.5480304295255962
 31
0.0
  0
ARC
  5
15D52
  8
0
 10
3478.3146734223691965
 20
167.563235446723894
 30
0.0
 40
0.216883182600217
 50
184.0201297648507079
 51
207.7607207786045933
  0
LINE
  5
15D53
  8
0
 10
3478.1220601950940363
 20
167.498207312110992
 30
0.0
 11
3478.1243742649648993
 21
167.3780565387654917
 31
0.0
  0
LINE
  5
15D54
  8
0
 10
3478.1220601950940363
 20
167.498207312110992
 30
0.0
 11
3478.1220596077341725
 21
168.2907674086108045
 31
0.0
  0
ARC
  5
15D55
  8
0
 10
3478.2382963047998601
 20
167.3784885937826914
 30
0.0
 40
0.1139228591279048
 50
180.2172960592793913
 51
199.2043509802672929
  0
ARC
  5
15D56
  8
0
 10
3478.2637628327811399
 20
167.3921377792960072
 30
0.0
 40
0.1425334067398543
 50
201.0186794565927073
 51
231.3290462504814968
  0
ARC
  5
15D57
  8
0
 10
3478.3590965081898503
 20
167.5056405010637945
 30
0.0
 40
0.2907404867294077
 50
230.6373823107877001
 51
245.4501633348615997
  0
ARC
  5
15D58
  8
0
 10
3478.425828167175041
 20
167.6406369118357986
 30
0.0
 40
0.4412833099241519
 50
244.8515681656975005
 51
249.5953072597895925
  0
ARC
  5
15D59
  8
0
 10
3478.537116336211966
 20
168.0918034052969858
 30
0.0
 40
0.5789236787647125
 50
260.0152766446007035
 51
270.117172633082987
  0
ARC
  5
15D5A
  8
0
 10
3478.5044928123497812
 20
167.91439627937811
 30
0.0
 40
0.3985494621938864
 50
246.1241353219299128
 51
260.2121672688243166
  0
ARC
  5
15D5B
  8
0
 10
3478.4155580000438022
 20
167.7134750128415988
 30
0.0
 40
0.1788251891000311
 50
222.8141251989434863
 51
246.1241353219299128
  0
ARC
  5
15D5C
  8
0
 10
3478.3401473680960407
 20
167.6436094612822103
 30
0.0
 40
0.0760246117394714
 50
206.270949132451193
 51
222.8141251989447085
  0
ARC
  5
15D5D
  8
0
 10
3478.3530235778048336
 20
167.6499651591433064
 30
0.0
 40
0.0903839874845942
 50
182.2610959132852884
 51
206.270949132451193
  0
ARC
  5
15D5E
  8
0
 10
3478.3072600695209076
 20
167.6481582296858051
 30
0.0
 40
0.0445848206302332
 50
149.9755514887519894
 51
182.2610959132852884
  0
ARC
  5
15D5F
  8
0
 10
3478.3635894937960984
 20
167.6156043653033976
 30
0.0
 40
0.1096444711476932
 50
124.6761046337718
 51
149.9755514887519894
  0
ARC
  5
15D60
  8
0
 10
3478.4715095008218668
 20
167.4399237876490076
 30
0.0
 40
0.3157192596896905
 50
100.4176483629914003
 51
122.6431894868060937
  0
ARC
  5
15D61
  8
0
 10
3478.5362640630551141
 20
167.1596485017774967
 30
0.0
 40
0.6032237447824769
 50
89.8065960730950508
 51
101.6531994766726967
  0
ARC
  5
15D62
  8
0
 10
3478.5371363628150903
 20
167.1819875955605994
 30
0.0
 40
0.540270076355861
 50
89.8765680788506387
 51
100.3164765933014024
  0
ARC
  5
15D63
  8
0
 10
3478.5088093448562176
 20
167.3376068224083895
 30
0.0
 40
0.382093707352309
 50
100.3164796284661975
 51
110.5214483662950045
  0
ARC
  5
15D64
  8
0
 10
3478.4461155032308852
 20
167.5050979524760066
 30
0.0
 40
0.2032535652449035
 50
110.5214483662950045
 51
127.3399273998574017
  0
ARC
  5
15D65
  8
0
 10
3478.3685273808177953
 20
167.6067998197011946
 30
0.0
 40
0.0753348936729623
 50
127.3399273998574017
 51
158.0822812404670969
  0
ARC
  5
15D66
  8
0
 10
3478.3365291813611293
 20
167.6196745094287053
 30
0.0
 40
0.0408437005359025
 50
158.0822812404670969
 51
205.8011709577363035
  0
ARC
  5
15D67
  8
0
 10
3478.374645801072802
 20
167.6381017643930988
 30
0.0
 40
0.0831809232096844
 50
205.8011709577363035
 51
231.0959339954470124
  0
ARC
  5
15D68
  8
0
 10
3478.4525014204650688
 20
167.7443977001381086
 30
0.0
 40
0.2148835823237135
 50
232.7409487294802091
 51
253.8767220121621904
  0
ARC
  5
15D69
  8
0
 10
3478.5146683934890461
 20
167.9276464435866956
 30
0.0
 40
0.4082841238924958
 50
252.6371141618166973
 51
260.2858387397270121
  0
ARC
  5
15D6A
  8
0
 10
3478.5372238337731687
 20
168.0600915774624013
 30
0.0
 40
0.5426360917945172
 50
260.2980688976911097
 51
270.1136578390410818
  0
LINE
  5
15D6B
  8
0
 10
3478.2627097109880197
 20
167.7986182710486958
 30
0.0
 11
3478.2627097109880197
 21
167.6499108806048923
 31
0.0
  0
ARC
  5
15D6C
  8
0
 10
3478.5371975589250724
 20
167.1475547900261915
 30
0.0
 40
0.7193128043687496
 50
89.9121657957836362
 51
97.4190253061903633
  0
ARC
  5
15D6D
  8
0
 10
3478.5182551387729291
 20
167.2930251358044984
 30
0.0
 40
0.5726143490869025
 50
97.4190253061645279
 51
109.5132957484667031
  0
ARC
  5
15D6E
  8
0
 10
3478.4040002038618695
 20
167.6101326662167139
 30
0.0
 40
0.2355627869705019
 50
109.0826401530423055
 51
131.6378376676790936
  0
ARC
  5
15D6F
  8
0
 10
3478.3121939560710416
 20
167.717495999266788
 30
0.0
 40
0.0943651526375537
 50
133.2908267226007126
 51
154.2476699416133101
  0
ARC
  5
15D70
  8
0
 10
3478.2809986042179844
 20
167.7328089652700953
 30
0.0
 40
0.059615375155017
 50
154.4766750574443961
 51
210.6861918807175016
  0
ARC
  5
15D71
  8
0
 10
3478.3294251874472138
 20
167.7616795244132106
 30
0.0
 40
0.1159947725546983
 50
210.7425784263280093
 51
234.8892085853283049
  0
LINE
  5
15D72
  8
0
 10
3473.601292388138063
 20
159.8370714115256135
 30
0.0
 11
3473.601292388138063
 21
159.8970714115255873
 31
0.0
  0
LINE
  5
15D73
  8
0
 10
3473.601292388138063
 20
159.8970714115255873
 30
0.0
 11
3475.601292388138063
 21
159.8970714115255873
 31
0.0
  0
LINE
  5
15D74
  8
0
 10
3475.601292388138063
 20
159.8970714115255873
 30
0.0
 11
3475.601292388138063
 21
159.8370714115256135
 31
0.0
  0
LINE
  5
15D75
  8
0
 10
3475.601292388138063
 20
159.8970714115255873
 30
0.0
 11
3475.1128109506380497
 21
160.0085153835256051
 31
0.0
  0
ARC
  5
15D76
  8
0
 10
3475.1215679776569232
 20
160.0468992015933054
 30
0.0
 40
0.0393700776180236
 50
179.999992385376288
 51
257.1482897931583125
  0
LINE
  5
15D77
  8
0
 10
3475.0821979000379542
 20
160.0468992068256
 30
0.0
 11
3475.0821979470051701
 21
160.4002997579256089
 31
0.0
  0
LINE
  5
15D78
  8
0
 10
3475.168599947938219
 20
160.4002997579256089
 30
0.0
 11
3474.0339848284252184
 21
160.4002997579256089
 31
0.0
  0
ARC
  5
15D79
  8
0
 10
3474.0339848284252184
 20
160.4199848000972111
 30
0.0
 40
0.0196850421715331
 50
194.0362499621496113
 51
270.0
  0
LINE
  5
15D7A
  8
0
 10
3474.0148875329377915
 20
160.4152104739256117
 30
0.0
 11
3473.9989301834380058
 21
160.476688883760005
 31
0.0
  0
LINE
  5
15D7B
  8
0
 10
3473.9989301834380058
 20
160.476688883760005
 30
0.0
 11
3473.9989301834380058
 21
162.1928194430255985
 31
0.0
  0
LINE
  5
15D7C
  8
0
 10
3473.9989301834380058
 20
162.1928194430255985
 30
0.0
 11
3475.2036545928390296
 21
162.1928194430255985
 31
0.0
  0
LINE
  5
15D7D
  8
0
 10
3475.2036545928390296
 20
162.1928194430255985
 30
0.0
 11
3475.2036545928390296
 21
160.4766888854256024
 31
0.0
  0
LINE
  5
15D7E
  8
0
 10
3475.2036545928390296
 20
160.4766888854256024
 30
0.0
 11
3475.1876972433378796
 21
160.4152104739256117
 31
0.0
  0
ARC
  5
15D7F
  8
0
 10
3475.1685999499850368
 20
160.41998479736489
 30
0.0
 40
0.0196850394392915
 50
270.0000004463240089
 51
345.96375624699931
  0
LINE
  5
15D80
  8
0
 10
3474.1203868763382161
 20
160.4002997579256089
 30
0.0
 11
3474.1203868763382161
 21
160.0468992068256
 31
0.0
  0
ARC
  5
15D81
  8
0
 10
3474.0810167921890752
 20
160.0468992068256
 30
0.0
 40
0.0393700841498683
 50
282.8517176390005829
 51
0.0
  0
LINE
  5
15D82
  8
0
 10
3474.0897738256380762
 20
160.0085153835256051
 30
0.0
 11
3473.601292388138063
 21
159.8970714115255873
 31
0.0
  0
LINE
  5
15D83
  8
0
 10
3473.9989301834380058
 20
162.2243155060255901
 30
0.0
 11
3475.2036545928390296
 21
162.2243155060255901
 31
0.0
  0
LINE
  5
15D84
  8
0
 10
3475.2036545928390296
 20
162.2243155060255901
 30
0.0
 11
3475.2026963485118358
 21
162.2792132919014989
 31
0.0
  0
ARC
  5
15D85
  8
0
 10
3475.1830143073989348
 20
162.2788697406284086
 30
0.0
 40
0.0196850392393152
 50
0.9999999054709913
 51
75.9637639018655904
  0
LINE
  5
15D86
  8
0
 10
3475.1877886282381951
 20
162.2979670344255965
 30
0.0
 11
3475.0495149458329252
 21
162.3325354361294899
 31
0.0
  0
ARC
  5
15D87
  8
0
 10
3475.039966020150132
 20
162.2943397125189051
 30
0.0
 40
0.0393712494572948
 50
75.9637639018655904
 51
85.976518253825887
  0
ARC
  5
15D88
  8
0
 10
3474.6012970787000995
 20
156.0578130026175927
 30
0.0
 40
6.2913066172858736
 50
85.976518253825887
 51
94.0234818370177265
  0
LINE
  5
15D89
  8
0
 10
3474.1598656316377856
 20
162.3336139260256061
 30
0.0
 11
3474.1530698169390234
 21
162.3325354521255974
 31
0.0
  0
LINE
  5
15D8A
  8
0
 10
3474.1530698169390234
 20
162.3325354521255974
 30
0.0
 11
3474.0147961480379308
 21
162.2979670344255965
 31
0.0
  0
ARC
  5
15D8B
  8
0
 10
3474.0195673121220352
 20
162.2788823783523071
 30
0.0
 40
0.0196720132205653
 50
104.0362436531665935
 51
179.0361509557743886
  0
LINE
  5
15D8C
  8
0
 10
3473.9998980823379497
 20
162.2792132920255881
 30
0.0
 11
3473.9989301834380058
 21
162.2243155060255901
 31
0.0
  0
LINE
  5
15D8D
  8
0
 10
3474.0112909728381965
 20
162.2243155060255901
 30
0.0
 11
3474.0107412070378814
 21
162.1928194430255985
 31
0.0
  0
LINE
  5
15D8E
  8
0
 10
3474.1598656316377856
 20
162.3336139260256061
 30
0.0
 11
3475.0427285257628682
 21
162.3336139260256061
 31
0.0
  0
LINE
  5
15D8F
  8
0
 10
3475.1912938034379295
 20
162.2243155060255901
 30
0.0
 11
3475.1918435692377898
 21
162.1928194430255985
 31
0.0
  0
LINE
  5
15D90
  8
0
 10
3481.3571978999389103
 20
159.8370714115256135
 30
0.0
 11
3481.3571978999389103
 21
159.9748666871255978
 31
0.0
  0
ARC
  5
15D91
  8
0
 10
3481.3768996146759491
 20
159.9748500117881918
 30
0.0
 40
0.0197017217943681
 50
90.0484945722936061
 51
179.951505427719411
  0
LINE
  5
15D92
  8
0
 10
3481.3768829393388842
 20
159.9945517265256001
 30
0.0
 11
3483.6997080700380138
 21
159.9945517264256125
 31
0.0
  0
ARC
  5
15D93
  8
0
 10
3483.6997175852061446
 20
159.9748666871948899
 30
0.0
 40
0.0196850392328294
 50
359.9999997984572815
 51
90.0008316445254053
  0
LINE
  5
15D94
  8
0
 10
3483.719402624437862
 20
159.9748666871255978
 30
0.0
 11
3483.7194026239531013
 21
159.8370714111800908
 31
0.0
  0
LINE
  5
15D95
  8
0
 10
3481.3650719146098709
 20
160.0102997580256101
 30
0.0
 11
3483.7115188627381031
 21
160.0102997579255941
 31
0.0
  0
ARC
  5
15D96
  8
0
 10
3483.7115188627381031
 20
160.018183525556509
 30
0.0
 40
0.0078837676309333
 50
269.9999999975509013
 51
359.9291279343020733
  0
ARC
  5
15D97
  8
0
 10
3439.1597661811370017
 20
160.0732918839763101
 30
0.0
 40
44.5596705324031532
 50
359.9291279343020733
 51
0.0708720656963123
  0
ARC
  5
15D98
  8
0
 10
3483.7115188568000121
 20
160.1284002423873005
 30
0.0
 40
0.0078837735696489
 50
0.0708720656946838
 51
89.9291273671211258
  0
LINE
  5
15D99
  8
0
 10
3483.7115286087159802
 20
160.1362840099255891
 30
0.0
 11
3481.365081486138024
 21
160.1362840099255891
 31
0.0
  0
ARC
  5
15D9A
  8
0
 10
3481.365071929043097
 20
160.1284099866203974
 30
0.0
 40
0.0078740291051572
 50
89.9304572886029803
 51
179.9999446603889908
  0
LINE
  5
15D9B
  8
0
 10
3481.3571978999389103
 20
160.1284099942255921
 30
0.0
 11
3481.3571978999389103
 21
160.0181737737256924
 31
0.0
  0
ARC
  5
15D9C
  8
0
 10
3481.3650717262607941
 20
160.0181735843484034
 30
0.0
 40
0.0078738263250761
 50
179.998621951336105
 51
270.0013705711356238
  0
LINE
  5
15D9D
  8
0
 10
3481.5540482936380613
 20
160.0102997579255941
 30
0.0
 11
3481.5540482936380613
 21
159.9945517264256125
 31
0.0
  0
LINE
  5
15D9E
  8
0
 10
3483.5225522306382118
 20
159.9945517264256125
 30
0.0
 11
3483.5225522306382118
 21
160.0102997579255941
 31
0.0
  0
LINE
  5
15D9F
  8
0
 10
3482.2283002621379637
 20
160.1362840099255891
 30
0.0
 11
3482.2283002621379637
 21
160.1412918839255894
 31
0.0
  0
LINE
  5
15DA0
  8
0
 10
3482.2283002621379637
 20
160.1412918839255894
 30
0.0
 11
3482.8483002621378546
 21
160.1412918839255894
 31
0.0
  0
LINE
  5
15DA1
  8
0
 10
3482.8483002621378546
 20
160.1412918839255894
 30
0.0
 11
3482.8483002621378546
 21
160.1362840099255891
 31
0.0
  0
ARC
  5
15DA2
  8
0
 10
3482.5383002621188098
 20
160.2201597190230871
 30
0.0
 40
0.264960629880969
 50
147.5336413603602921
 51
197.3154041107117962
  0
ARC
  5
15DA3
  8
0
 10
3482.2981427818422162
 20
160.372958742924709
 30
0.0
 40
0.0196850393968316
 50
327.5336413603603205
 51
0.0000000026869326
  0
LINE
  5
15DA4
  8
0
 10
3482.3178278212380974
 20
160.4894336162255968
 30
0.0
 11
3482.3178278212380974
 21
160.372958742924709
 31
0.0
  0
LINE
  5
15DA5
  8
0
 10
3482.2154656165380402
 20
160.4894336162255968
 30
0.0
 11
3482.8611345968379283
 21
160.4894336162255968
 31
0.0
  0
ARC
  5
15DA6
  8
0
 10
3482.8611348620929675
 20
160.5012443104361068
 30
0.0
 40
0.0118106942134468
 50
269.9987132018338798
 51
0.0015979272399635
  0
LINE
  5
15DA7
  8
0
 10
3482.8729455563020565
 20
160.5012446398255861
 30
0.0
 11
3482.8729455563020565
 21
163.1021192908239925
 31
0.0
  0
ARC
  5
15DA8
  8
0
 10
3482.8612694454191114
 20
163.1022435559590065
 30
0.0
 40
0.0116767721203699
 50
359.3902422602022284
 51
85.8900567609588279
  0
ARC
  5
15DA9
  8
0
 10
3482.5383002621711057
 20
159.1902210186393916
 30
0.0
 40
3.9370078731862299
 50
85.2822798193154341
 51
94.7177201807629956
  0
ARC
  5
15DAA
  8
0
 10
3482.2153849769360932
 20
163.1021939243854035
 30
0.0
 40
0.0117302463857595
 50
94.3551544687993839
 51
180.3645418117002066
  0
LINE
  5
15DAB
  8
0
 10
3482.2036549679751261
 20
163.102119291725586
 30
0.0
 11
3482.2036549679751261
 21
160.501111532009304
 31
0.0
  0
ARC
  5
15DAC
  8
0
 10
3482.2154658832291716
 20
160.5012452888410905
 30
0.0
 40
0.0118116726184647
 50
180.6488383137385938
 51
269.9987063409517987
  0
LINE
  5
15DAD
  8
0
 10
3482.7587727031382201
 20
160.4894336162255968
 30
0.0
 11
3482.7587727031382201
 21
160.3729587429255901
 31
0.0
  0
ARC
  5
15DAE
  8
0
 10
3482.7784577437469125
 20
160.3729587429255901
 30
0.0
 40
0.0196850406090246
 50
180.0000000000015916
 51
212.4725348107120908
  0
ARC
  5
15DAF
  8
0
 10
3482.5383725043548111
 20
160.2201693231918966
 30
0.0
 40
0.2648945246386515
 50
342.6728837640117717
 51
32.4725348107120624
  0
LINE
  5
15DB0
  8
0
 10
3482.3178278212380974
 20
160.372958742924709
 30
0.0
 11
3482.7587727030381757
 21
160.3729587429255901
 31
0.0
  0
LINE
  5
15DB1
  8
0
 10
3482.2144941982719502
 20
163.1138902996256093
 30
0.0
 11
3482.8621063260047777
 21
163.1138902996256093
 31
0.0
  0
ARC
  5
15DB2
  8
0
 10
3474.6019603624881711
 20
161.8789053989578974
 30
0.0
 40
0.1958049471507922
 50
90.195462113725057
 51
135.0844060084050966
  0
ARC
  5
15DB3
  8
0
 10
3474.6214393314357949
 20
161.8594837370116011
 30
0.0
 40
0.2233118768967609
 50
135.0844060084050966
 51
161.9870726709299902
  0
ARC
  5
15DB4
  8
0
 10
3474.6255623976130664
 20
161.8581430430508874
 30
0.0
 40
0.2276474431807048
 50
161.9870726709299902
 51
210.7571619989138867
  0
ARC
  5
15DB5
  8
0
 10
3474.6101402887461518
 20
161.8489652421409914
 30
0.0
 40
0.2097010376504703
 50
210.7571619989138867
 51
241.7988567762317871
  0
ARC
  5
15DB6
  8
0
 10
3474.6006926294699042
 20
161.8313462761483095
 30
0.0
 40
0.1897088834781252
 50
241.7988567684298005
 51
270.1811377171416098
  0
ARC
  5
15DB7
  8
0
 10
3474.6010837642252227
 20
161.7672995890002028
 30
0.0
 40
0.1215469197194853
 50
89.9016592763974245
 51
104.995792344406496
  0
ARC
  5
15DB8
  8
0
 10
3474.590645935874818
 20
161.8062656563691064
 30
0.0
 40
0.0812070800213345
 50
104.9958134539418069
 51
118.7436415874115028
  0
ARC
  5
15DB9
  8
0
 10
3474.575533895756962
 20
161.833818518647206
 30
0.0
 40
0.0497820267001585
 50
118.7436415874115028
 51
137.5559567011447086
  0
ARC
  5
15DBA
  8
0
 10
3474.5574109785338806
 20
161.85039258091021
 30
0.0
 40
0.0252231246769651
 50
137.5559567011447086
 51
159.3188808747389089
  0
ARC
  5
15DBB
  8
0
 10
3474.5544395158399311
 20
161.8515142842248906
 30
0.0
 40
0.0220469935610762
 50
159.3188808747403868
 51
179.1854270666644879
  0
LINE
  5
15DBC
  8
0
 10
3474.5323947503379713
 20
161.8518277153256122
 30
0.0
 11
3474.5323947503379713
 21
161.818623327726101
 31
0.0
  0
ARC
  5
15DBD
  8
0
 10
3474.5526436658819875
 20
161.8185987583246117
 30
0.0
 40
0.0202489304495301
 50
168.6174552474489019
 51
179.930479125494486
  0
ARC
  5
15DBE
  8
0
 10
3474.5602216912930089
 20
161.8159244577284142
 30
0.0
 40
0.0282281737885379
 50
130.0064667740356015
 51
166.3311378666228961
  0
ARC
  5
15DBF
  8
0
 10
3474.5864977810679193
 20
161.7840206144499859
 30
0.0
 40
0.0695588942490592
 50
103.9872624701477974
 51
129.6906518979261023
  0
ARC
  5
15DC0
  8
0
 10
3474.6008234427758907
 20
161.7360750476547935
 30
0.0
 40
0.119567809184837
 50
89.7752873826035938
 51
105.095296375198302
  0
ARC
  5
15DC1
  8
0
 10
3474.6012110572828533
 20
161.7693706022436118
 30
0.0
 40
0.0704063003573229
 50
89.9338139377698269
 51
102.7424815656142982
  0
ARC
  5
15DC2
  8
0
 10
3474.5973002538521541
 20
161.7866644086404051
 30
0.0
 40
0.0526758146570274
 50
102.7424815656139003
 51
112.0628078509027006
  0
ARC
  5
15DC3
  8
0
 10
3474.5914179259839329
 20
161.801177854887186
 30
0.0
 40
0.0370156134099567
 50
112.0628078509027006
 51
131.7293896976883048
  0
ARC
  5
15DC4
  8
0
 10
3474.5767180097741402
 20
161.8176596499922084
 30
0.0
 40
0.014930842492335
 50
131.7293896976688075
 51
158.6616387606239016
  0
ARC
  5
15DC5
  8
0
 10
3474.5745901085151672
 20
161.8184909257140873
 30
0.0
 40
0.0126463331155432
 50
158.6616387606223952
 51
185.1183016061733042
  0
ARC
  5
15DC6
  8
0
 10
3474.5731384902119316
 20
161.8183609048446954
 30
0.0
 40
0.0111889034864572
 50
185.1183016061733042
 51
211.5668318485053021
  0
ARC
  5
15DC7
  8
0
 10
3474.5825062449212055
 20
161.824116513272088
 30
0.0
 40
0.02218353202303
 50
211.5668318485039094
 51
234.2148335140826134
  0
ARC
  5
15DC8
  8
0
 10
3474.5922989787741244
 20
161.8377018855715903
 30
0.0
 40
0.0389304713507544
 50
234.2148335140826134
 51
255.890691498911707
  0
ARC
  5
15DC9
  8
0
 10
3474.6043557961352235
 20
161.8856691036509119
 30
0.0
 40
0.0883897561728685
 50
255.890691498911707
 51
264.9579904880740173
  0
ARC
  5
15DCA
  8
0
 10
3474.6002968339748804
 20
161.8396634830208995
 30
0.0
 40
0.0422054265429292
 50
264.9579904880740173
 51
271.3516352629151243
  0
ARC
  5
15DCB
  8
0
 10
3474.5548354262418798
 20
161.8189693830892963
 30
0.0
 40
0.0224433439872547
 50
180.8834823175610893
 51
215.9386384794308071
  0
ARC
  5
15DCC
  8
0
 10
3474.5695182316389946
 20
161.8296130590985058
 30
0.0
 40
0.0405781892667642
 50
215.9386384794308071
 51
232.6192295264177119
  0
ARC
  5
15DCD
  8
0
 10
3474.5818327622228026
 20
161.845731004772091
 30
0.0
 40
0.0608620704598518
 50
232.6192295264177119
 51
251.7616164687682101
  0
ARC
  5
15DCE
  8
0
 10
3474.6038106739279101
 20
161.912426582616007
 30
0.0
 40
0.1310854903911274
 50
251.7616164687682101
 51
263.013112255304975
  0
ARC
  5
15DCF
  8
0
 10
3474.6091875928050285
 20
162.0583114957655084
 30
0.0
 40
0.2768193837734407
 50
265.5823272900493066
 51
268.365636464145382
  0
ARC
  5
15DD0
  8
0
 10
3474.601292388138063
 20
161.8581737737256105
 30
0.0
 40
0.1771653543000085
 50
90.0000014876421943
 51
119.2507724299561005
  0
ARC
  5
15DD1
  8
0
 10
3474.601292388138063
 20
161.8581737737256105
 30
0.0
 40
0.1771653543000029
 50
119.2507724299568963
 51
157.1591197022356141
  0
ARC
  5
15DD2
  8
0
 10
3474.601292388138063
 20
161.8581737737256105
 30
0.0
 40
0.17716535429999
 50
157.1591197022356141
 51
185.1300128769900937
  0
ARC
  5
15DD3
  8
0
 10
3474.601292388138063
 20
161.8581737737256105
 30
0.0
 40
0.177165354300024
 50
185.1300128769900937
 51
209.304541557501409
  0
ARC
  5
15DD4
  8
0
 10
3474.601292388138063
 20
161.8581737737256105
 30
0.0
 40
0.177165354299968
 50
209.304541557501409
 51
235.3203919053449908
  0
ARC
  5
15DD5
  8
0
 10
3474.601292388138063
 20
161.8581737737256958
 30
0.0
 40
0.1771653543000439
 50
235.3203919053449908
 51
255.763512129324198
  0
ARC
  5
15DD6
  8
0
 10
3474.601292388138063
 20
161.8581737737254969
 30
0.0
 40
0.1771653542999369
 50
255.763512129324198
 51
270.0
  0
CIRCLE
  5
15DD7
  8
0
 10
3474.601292388138063
 20
161.8598767335255957
 30
0.0
 40
0.1282436827687085
  0
LINE
  5
15DD8
  8
0
 10
3474.1203868763382161
 20
160.0468992068256
 30
0.0
 11
3475.0821979000379542
 21
160.0468992068256
 31
0.0
  0
ARC
  5
15DD9
  8
0
 10
3474.600624414108097
 20
161.8789053991370963
 30
0.0
 40
0.1958049469391285
 50
44.9155939793062515
 51
89.804540671868395
  0
ARC
  5
15DDA
  8
0
 10
3474.5811454450399651
 20
161.8594837370116011
 30
0.0
 40
0.2233118768967609
 50
18.0129273290699885
 51
44.9155939915949034
  0
ARC
  5
15DDB
  8
0
 10
3474.5770223788631483
 20
161.8581430430508874
 30
0.0
 40
0.2276474431807048
 50
329.2428380010861133
 51
18.0129273290699885
  0
ARC
  5
15DDC
  8
0
 10
3474.592444487730063
 20
161.8489652421409914
 30
0.0
 40
0.2097010376504703
 50
298.2011432237683266
 51
329.2428380010861133
  0
ARC
  5
15DDD
  8
0
 10
3474.6018921468289591
 20
161.8313462766060979
 30
0.0
 40
0.1897088839650427
 50
269.8188594976841159
 51
298.2011432132450182
  0
ARC
  5
15DDE
  8
0
 10
3474.6015010120690931
 20
161.7672995880845974
 30
0.0
 40
0.1215469206508962
 50
75.0042076845631698
 51
90.0983450682714988
  0
ARC
  5
15DDF
  8
0
 10
3474.6119388406018516
 20
161.8062656563691064
 30
0.0
 40
0.0812070800213345
 50
61.2563584125884404
 51
75.0041865460581363
  0
ARC
  5
15DE0
  8
0
 10
3474.627050880718798
 20
161.833818518647206
 30
0.0
 40
0.0497820267001585
 50
42.4440432988552772
 51
61.2563584125884404
  0
ARC
  5
15DE1
  8
0
 10
3474.645173797942789
 20
161.85039258091021
 30
0.0
 40
0.0252231246769651
 50
20.6811191252610804
 51
42.4440432988552772
  0
ARC
  5
15DE2
  8
0
 10
3474.6481452606358289
 20
161.8515142842248906
 30
0.0
 40
0.0220469935610762
 50
0.8145729333355117
 51
20.6811191252595599
  0
LINE
  5
15DE3
  8
0
 10
3474.6701900261377887
 20
161.8518277153256122
 30
0.0
 11
3474.6701900261377887
 21
161.818623327726101
 31
0.0
  0
ARC
  5
15DE4
  8
0
 10
3474.6499411105951367
 20
161.8185987583246117
 30
0.0
 40
0.0202489304495301
 50
0.0695208745055001
 51
11.3825447525510395
  0
ARC
  5
15DE5
  8
0
 10
3474.6423630851841153
 20
161.8159244577284142
 30
0.0
 40
0.0282281737885379
 50
13.6688621333771003
 51
49.9935332259643417
  0
ARC
  5
15DE6
  8
0
 10
3474.6160869954078407
 20
161.7840206144499859
 30
0.0
 40
0.0695588942490592
 50
50.3093481020738409
 51
76.0127375298521599
  0
ARC
  5
15DE7
  8
0
 10
3474.6017613332951441
 20
161.7360750456242044
 30
0.0
 40
0.119567811250658
 50
74.9047036910547348
 51
90.2247169241037312
  0
ARC
  5
15DE8
  8
0
 10
3474.6013737191929067
 20
161.7693706022436118
 30
0.0
 40
0.0704063003573229
 50
77.2575184343856876
 51
90.0661860622301873
  0
ARC
  5
15DE9
  8
0
 10
3474.6052845226240606
 20
161.7866644086404051
 30
0.0
 40
0.0526758146570274
 50
67.9371921490972852
 51
77.2575184343860428
  0
ARC
  5
15DEA
  8
0
 10
3474.6111668504918271
 20
161.801177854887186
 30
0.0
 40
0.0370156134099567
 50
48.2706103023117308
 51
67.9371921490972852
  0
ARC
  5
15DEB
  8
0
 10
3474.625866766702984
 20
161.8176596499922084
 30
0.0
 40
0.014930842492335
 50
21.3383612393760913
 51
48.2706103023311712
  0
ARC
  5
15DEC
  8
0
 10
3474.627994667961957
 20
161.8184909257140873
 30
0.0
 40
0.0126463331155432
 50
354.8816983938266958
 51
21.3383612393776083
  0
ARC
  5
15DED
  8
0
 10
3474.6294462862638284
 20
161.8183609048446954
 30
0.0
 40
0.0111889034864572
 50
328.4331681514947263
 51
354.8816983938266958
  0
ARC
  5
15DEE
  8
0
 10
3474.6200785315550092
 20
161.824116513272088
 30
0.0
 40
0.02218353202303
 50
305.7851664859172729
 51
328.4331681514947263
  0
ARC
  5
15DEF
  8
0
 10
3474.6102857977020903
 20
161.8377018855715903
 30
0.0
 40
0.0389304713507544
 50
284.1093085010883215
 51
305.7851664859172729
  0
ARC
  5
15DF0
  8
0
 10
3474.5982289803419008
 20
161.8856691036509119
 30
0.0
 40
0.0883897561728685
 50
275.0420095119259827
 51
284.1093085010883215
  0
ARC
  5
15DF1
  8
0
 10
3474.6022879425008796
 20
161.8396634830208995
 30
0.0
 40
0.0422054265429292
 50
268.6483647370848757
 51
275.0420095119259827
  0
ARC
  5
15DF2
  8
0
 10
3474.6477493502347897
 20
161.8189693830892963
 30
0.0
 40
0.0224433439872547
 50
324.0613615205692213
 51
359.1165176824388254
  0
ARC
  5
15DF3
  8
0
 10
3474.6330665448381296
 20
161.8296130590985058
 30
0.0
 40
0.0405781892667642
 50
307.3807704735821744
 51
324.0613615205692213
  0
ARC
  5
15DF4
  8
0
 10
3474.6207520142529575
 20
161.845731004772091
 30
0.0
 40
0.0608620704598518
 50
288.2383835312318183
 51
307.3807704735821744
  0
ARC
  5
15DF5
  8
0
 10
3474.5987741025478499
 20
161.912426582616007
 30
0.0
 40
0.1310854903911274
 50
276.986887744695025
 51
288.2383835312318183
  0
ARC
  5
15DF6
  8
0
 10
3474.5939655052738999
 20
162.0475607768935902
 30
0.0
 40
0.2660569574557694
 50
271.5780541866195108
 51
274.4739780574481074
  0
ARC
  5
15DF7
  8
0
 10
3474.6012923883390613
 20
161.8581737737256105
 30
0.0
 40
0.1771653542999969
 50
60.7492275700430469
 51
90.0000015523370536
  0
ARC
  5
15DF8
  8
0
 10
3474.6012923883390613
 20
161.8581737737256105
 30
0.0
 40
0.1771653543000029
 50
22.8408802977644001
 51
60.7492275700430469
  0
ARC
  5
15DF9
  8
0
 10
3474.6012923883390613
 20
161.8581737737256105
 30
0.0
 40
0.17716535429999
 50
354.8699871230098211
 51
22.8408802977644001
  0
ARC
  5
15DFA
  8
0
 10
3474.6012923883381518
 20
161.8581737737256105
 30
0.0
 40
0.177165354300024
 50
330.6954584424984773
 51
354.8699871230098211
  0
ARC
  5
15DFB
  8
0
 10
3474.6012923883390613
 20
161.8581737737256105
 30
0.0
 40
0.177165354299968
 50
304.6796080946550092
 51
330.6954584424984773
  0
ARC
  5
15DFC
  8
0
 10
3474.6012923883381518
 20
161.8581737737256958
 30
0.0
 40
0.1771653543000439
 50
284.2364878706757736
 51
304.6796080946550092
  0
ARC
  5
15DFD
  8
0
 10
3474.6012923883390613
 20
161.8581737737254969
 30
0.0
 40
0.1771653542999369
 50
270.0
 51
284.2364878706757736
  0
CIRCLE
  5
15DFE
  8
0
 10
3474.6012923883390613
 20
161.8598767335255957
 30
0.0
 40
0.1282436827687085
  0
ARC
  5
15DFF
  8
0
 10
3478.5380818561297929
 20
167.4313409947797027
 30
0.0
 40
1.25621771253192
 50
89.9900385558854907
 51
96.9240262483501454
  0
ARC
  5
15E00
  8
0
 10
3478.5129555743869787
 20
167.6382458924730088
 30
0.0
 40
1.0477927458804861
 50
96.9240262483501454
 51
103.3843804641583972
  0
ARC
  5
15E01
  8
0
 10
3478.4485615668199898
 20
167.9088708767314984
 30
0.0
 40
0.7696121025647099
 50
103.3843804641583972
 51
111.4588709235818982
  0
ARC
  5
15E02
  8
0
 10
3478.3478977596428194
 20
168.1649597797614035
 30
0.0
 40
0.4944490085088179
 50
111.4588709235818982
 51
122.8332297107105973
  0
ARC
  5
15E03
  8
0
 10
3478.2093289327372077
 20
168.3797028900046939
 30
0.0
 40
0.2388792075010064
 50
122.8332297107105973
 51
137.4639560627769015
  0
ARC
  5
15E04
  8
0
 10
3478.1461193124050624
 20
168.4376970306244914
 30
0.0
 40
0.1530958964856292
 50
137.4639560627769015
 51
161.8552959067953054
  0
ARC
  5
15E05
  8
0
 10
3478.0950852961241253
 20
168.458772281392811
 30
0.0
 40
0.0981235715804995
 50
164.270108147406404
 51
196.1246490022168985
  0
ARC
  5
15E06
  8
0
 10
3478.1542834722167754
 20
168.4837932817883086
 30
0.0
 40
0.1621199437878114
 50
198.8100666607736002
 51
232.8221983586225861
  0
ARC
  5
15E07
  8
0
 10
3478.3477039833887829
 20
168.7426128713061075
 30
0.0
 40
0.4852256839770776
 50
233.0928037765768011
 51
248.6421729023506089
  0
ARC
  5
15E08
  8
0
 10
3478.4848992010920483
 20
169.1298056815610948
 30
0.0
 40
0.8958908333662966
 50
249.4888945626159966
 51
262.7679585909780826
  0
ARC
  5
15E09
  8
0
 10
3478.5370218289690456
 20
169.4667471834250989
 30
0.0
 40
1.2367482974612281
 50
262.3375204726557968
 51
270.0592269591768968
  0
ARC
  5
15E0A
  8
0
 10
3478.5405106701950899
 20
169.3110481950600956
 30
0.0
 40
1.0319310020611689
 50
262.1854516382339852
 51
269.877271691234796
  0
ARC
  5
15E0B
  8
0
 10
3478.4841875056358731
 20
168.9491540311609015
 30
0.0
 40
0.6657723552777478
 50
245.9220374616735114
 51
262.7544640687676178
  0
ARC
  5
15E0C
  8
0
 10
3478.3325807451160472
 20
168.6098828412625039
 30
0.0
 40
0.2941683319812685
 50
229.2397797604245113
 51
245.9220374616735114
  0
ARC
  5
15E0D
  8
0
 10
3478.2510845145161511
 20
168.5153359196467875
 30
0.0
 40
0.1693454334841371
 50
204.4865664404759116
 51
229.2397797604245113
  0
ARC
  5
15E0E
  8
0
 10
3478.1992241997581914
 20
168.4879710864418882
 30
0.0
 40
0.1108597543205152
 50
189.2289022611446967
 51
202.7246483176479046
  0
ARC
  5
15E0F
  8
0
 10
3478.1892233456837857
 20
168.4874707478145126
 30
0.0
 40
0.1009142181456387
 50
177.5062087242511097
 51
189.8591740924427995
  0
ARC
  5
15E10
  8
0
 10
3478.1908799919051489
 20
168.4829432048429112
 30
0.0
 40
0.1028626467905621
 50
136.7075645921991907
 51
175.0260755389658982
  0
ARC
  5
15E11
  8
0
 10
3478.3073193726331738
 20
168.3730875232027131
 30
0.0
 40
0.2629451099579354
 50
114.4169124608509946
 51
136.6825402241574068
  0
ARC
  5
15E12
  8
0
 10
3478.4869914084661104
 20
167.969847393018398
 30
0.0
 40
0.7043984909360751
 50
96.4515524620322253
 51
114.165879939712994
  0
ARC
  5
15E13
  8
0
 10
3478.5374397843570478
 20
167.6456471997231006
 30
0.0
 40
1.032305051657749
 50
89.9522410999228441
 51
97.2120057972901463
  0
ARC
  5
15E14
  8
0
 10
3478.5379319654289247
 20
167.6663767244245093
 30
0.0
 40
0.9690494297885299
 50
89.9782241753760132
 51
96.3850373368871089
  0
ARC
  5
15E15
  8
0
 10
3478.5196448443380177
 20
167.829795316778501
 30
0.0
 40
0.8046108238446265
 50
96.3850372620617009
 51
106.2618374187075005
  0
ARC
  5
15E16
  8
0
 10
3478.4197473793801691
 20
168.172264604575588
 30
0.0
 40
0.4478690172265267
 50
106.2618374187075005
 51
119.4722555745437944
  0
ARC
  5
15E17
  8
0
 10
3478.3024031518739321
 20
168.3799043602994061
 30
0.0
 40
0.2093654829006234
 50
119.4722555745437944
 51
142.0270379028384014
  0
ARC
  5
15E18
  8
0
 10
3478.2005226970850345
 20
168.4594246995359015
 30
0.0
 40
0.0801249651816249
 50
142.0270379028384014
 51
174.4793049170914969
  0
ARC
  5
15E19
  8
0
 10
3478.2014809436850555
 20
168.4593320815457105
 30
0.0
 40
0.0810876773071459
 50
174.4793049170914969
 51
201.9724470658293001
  0
ARC
  5
15E1A
  8
0
 10
3478.2547167552661449
 20
168.488355563815702
 30
0.0
 40
0.1414891874302555
 50
204.8068557562978924
 51
235.2368596529614138
  0
ARC
  5
15E1B
  8
0
 10
3478.3714323860831428
 20
168.6450814855606097
 30
0.0
 40
0.3368547174420913
 50
234.1276334740310006
 51
248.6817413917524107
  0
ARC
  5
15E1C
  8
0
 10
3478.4770120072857935
 20
168.9087783547757908
 30
0.0
 40
0.6208965004976476
 50
248.4520691340534881
 51
258.9774065119078728
  0
ARC
  5
15E1D
  8
0
 10
3478.5266997171847834
 20
169.1421595584102135
 30
0.0
 40
0.8594823676602562
 50
258.700787055250828
 51
264.7787604847925991
  0
ARC
  5
15E1E
  8
0
 10
3478.5379255943071257
 20
169.2536537384492874
 30
0.0
 40
0.9715360523044342
 50
264.7178320666163245
 51
270.0220958232205248
  0
ARC
  5
15E1F
  8
0
 10
3478.5359270860590186
 20
169.068557938619989
 30
0.0
 40
0.7564381307822095
 50
257.2088330649264094
 51
270.1797545546618267
  0
ARC
  5
15E20
  8
0
 10
3478.4486360375822187
 20
168.708590863496795
 30
0.0
 40
0.3861162673556992
 50
237.7298698994133019
 51
258.0144304282185885
  0
ARC
  5
15E21
  8
0
 10
3478.322631728820852
 20
168.5034885910795879
 30
0.0
 40
0.1454490871736241
 50
216.2892487325858895
 51
236.561898621928492
  0
ARC
  5
15E22
  8
0
 10
3478.2658924859269973
 20
168.4613966378296084
 30
0.0
 40
0.074803199327122
 50
186.8512476961205095
 51
216.0242488796471889
  0
ARC
  5
15E23
  8
0
 10
3478.256506416522825
 20
168.4586727395843013
 30
0.0
 40
0.0651784834494252
 50
155.1519443182029931
 51
185.4580083719085906
  0
ARC
  5
15E24
  8
0
 10
3478.3086577282329017
 20
168.4293624569573069
 30
0.0
 40
0.1249062661926519
 50
123.1908427643041932
 51
153.0036598092021904
  0
ARC
  5
15E25
  8
0
 10
3478.4174157702041157
 20
168.2726984655625984
 30
0.0
 40
0.3155918727096274
 50
106.9212238382950062
 51
124.1443663673532001
  0
ARC
  5
15E26
  8
0
 10
3478.5314861393571846
 20
167.9022326265028937
 30
0.0
 40
0.7032208479421019
 50
89.4448023115675142
 51
107.0275715087499009
  0
ARC
  5
15E27
  8
0
 10
3478.5381802214110394
 20
167.8219639707158137
 30
0.0
 40
0.7804584042148194
 50
89.9911871169932738
 51
94.3487815838892914
  0
ARC
  5
15E28
  8
0
 10
3478.5333475117590751
 20
167.8855132518559969
 30
0.0
 40
0.7167256322994958
 50
94.3487815838892914
 51
100.3235946792932936
  0
ARC
  5
15E29
  8
0
 10
3478.4995458348748798
 20
168.0710774544762955
 30
0.0
 40
0.5281079590706614
 50
100.3235946792932936
 51
110.4316430527831017
  0
ARC
  5
15E2A
  8
0
 10
3478.4083903278437901
 20
168.3157735038161888
 30
0.0
 40
0.2669844575914817
 50
110.4316430527831017
 51
122.4364428772820048
  0
ARC
  5
15E2B
  8
0
 10
3478.346792206471946
 20
168.4127002873310062
 30
0.0
 40
0.1521405203589251
 50
122.4364428772820048
 51
131.5647132469086955
  0
ARC
  5
15E2C
  8
0
 10
3478.3036394020800799
 20
168.4613647943579053
 30
0.0
 40
0.0870990046092493
 50
131.5647132469086955
 51
153.2021713820618913
  0
ARC
  5
15E2D
  8
0
 10
3478.2650755325889804
 20
168.4860368358831977
 30
0.0
 40
0.0418113665313394
 50
159.5682361763304868
 51
195.5539437043665885
  0
ARC
  5
15E2E
  8
0
 10
3478.3138597064371424
 20
168.5011584080453133
 30
0.0
 40
0.0928756659748162
 50
196.4710413446798043
 51
233.785139375943487
  0
ARC
  5
15E2F
  8
0
 10
3478.44039960443979
 20
168.6750285357695986
 30
0.0
 40
0.3079176309681019
 50
233.9026982839268101
 51
256.6392703430635152
  0
ARC
  5
15E30
  8
0
 10
3478.5245462343877989
 20
168.9663981415233138
 30
0.0
 40
0.6110188696458591
 50
255.2757930830451016
 51
264.8138432586529802
  0
ARC
  5
15E31
  8
0
 10
3478.5379855035048422
 20
169.0859137128088037
 30
0.0
 40
0.7312645328847666
 50
264.6116168164272722
 51
270.0246618615976217
  0
ARC
  5
15E32
  8
0
 10
3478.1898794639528205
 20
168.4368508492219121
 30
0.0
 40
0.1821082757254119
 50
131.6825266032836055
 51
151.2118779592840951
  0
ARC
  5
15E33
  8
0
 10
3478.1129588794428855
 20
168.4791175349301113
 30
0.0
 40
0.0943401206689813
 50
151.2118779592840951
 51
193.0241679252247025
  0
ARC
  5
15E34
  8
0
 10
3478.1404635307621902
 20
168.4854797053255879
 30
0.0
 40
0.1225710090060185
 50
193.0241679252247025
 51
227.5295275356905904
  0
ARC
  5
15E35
  8
0
 10
3478.3164923248691593
 20
168.6777802932467978
 30
0.0
 40
0.3832732385129975
 50
227.5295275356895104
 51
247.5407212336479006
  0
ARC
  5
15E36
  8
0
 10
3478.455451220624127
 20
169.0139322842169065
 30
0.0
 40
0.7470145418351648
 50
247.5407212336479006
 51
259.1761596039701772
  0
ARC
  5
15E37
  8
0
 10
3478.5428605082452123
 20
169.4711142235032924
 30
0.0
 40
1.21247743957472
 50
259.1761596039701772
 51
266.5364193281499752
  0
ARC
  5
15E38
  8
0
 10
3478.5590036593371224
 20
169.8920430420886021
 30
0.0
 40
1.633639228776449
 50
266.8631690018698919
 51
269.2738610749784129
  0
ARC
  5
15E39
  8
0
 10
3478.3093568844860783
 20
168.3932249906696939
 30
0.0
 40
0.2721098903769547
 50
121.5414927430620935
 51
127.5534380637603959
  0
ARC
  5
15E3A
  8
0
 10
3478.2431647275761861
 20
168.474688715817507
 30
0.0
 40
0.1672063087462367
 50
126.5857283428481992
 51
147.2380112266804133
  0
ARC
  5
15E3B
  8
0
 10
3478.1004317691431424
 20
168.5663217253249115
 30
0.0
 40
0.0024157369369773
 50
303.7372348610037989
 51
331.5930236164726921
  0
ARC
  5
15E3C
  8
0
 10
3478.1015160226788794
 20
168.5646982423446048
 30
0.0
 40
0.0004634811344824
 50
266.6446730098454054
 51
303.7372348611962138
  0
LINE
  5
15E3D
  8
0
 10
3478.1014888960380631
 20
168.5642355557255883
 30
0.0
 11
3478.0597389220888545
 21
168.5642355557255883
 31
0.0
  0
LINE
  5
15E3E
  8
0
 10
3478.0883002621380911
 20
168.5642355557255883
 30
0.0
 11
3478.0883002621380911
 21
168.4877738304255956
 31
0.0
  0
ARC
  5
15E3F
  8
0
 10
3478.0224427694729457
 20
168.5285079140811888
 30
0.0
 40
0.015239229361449
 50
13.8218443670438909
 51
24.2582782652124784
  0
ARC
  5
15E40
  8
0
 10
3477.9445033613719716
 20
168.5093326487632908
 30
0.0
 40
0.0955028084937482
 50
2.2006019913546151
 51
13.8218443670438909
  0
ARC
  5
15E41
  8
0
 10
3476.9640040155541101
 20
168.4716553462980926
 30
0.0
 40
1.076725793482372
 50
0.3924107563101781
 51
2.2006019913546151
  0
ARC
  5
15E42
  8
0
 10
3478.0501035378338202
 20
168.4790940058742876
 30
0.0
 40
0.0093992020654152
 50
180.39241075631179
 51
209.6342764227119062
  0
ARC
  5
15E43
  8
0
 10
3478.1950880812760261
 20
168.5615714544009052
 30
0.0
 40
0.1762016221694818
 50
209.6342764227119062
 51
218.7400098921227993
  0
ARC
  5
15E44
  8
0
 10
3478.2647443720998126
 20
168.6328769071141096
 30
0.0
 40
0.2754179006906798
 50
221.2429672593086138
 51
243.1895400986173001
  0
ARC
  5
15E45
  8
0
 10
3478.0505401841860476
 20
168.4908249482726035
 30
0.0
 40
0.0256503745819047
 50
91.3230764588266055
 51
114.5288900888059942
  0
LINE
  5
15E46
  8
0
 10
3478.0499479173381587
 20
168.5164684842256122
 30
0.0
 11
3478.0883002621380911
 21
168.5164684842256122
 31
0.0
  0
LINE
  5
15E47
  8
0
 10
3478.0885093722381498
 20
168.4830006426255977
 30
0.0
 11
3478.0507020259378805
 21
168.4829998048527955
 31
0.0
  0
ARC
  5
15E48
  8
0
 10
3478.0507024951398307
 20
168.4618255016779074
 30
0.0
 40
0.0211743031800884
 50
90.001269616883377
 51
107.2742406536977029
  0
ARC
  5
15E49
  8
0
 10
3478.0486912911019317
 20
168.4682929741196062
 30
0.0
 40
0.0144013317892655
 50
107.2742406536977029
 51
123.7260694288358991
  0
ARC
  5
15E4A
  8
0
 10
3478.4716659537912165
 20
168.5832020538703944
 30
0.0
 40
0.043536653016005
 50
89.0189756982250486
 51
104.8831748763095959
  0
ARC
  5
15E4B
  8
0
 10
3478.4657900023021284
 20
168.6053116293535936
 30
0.0
 40
0.0206595873399525
 50
104.8831748763095959
 51
124.3848683756934008
  0
ARC
  5
15E4C
  8
0
 10
3478.457555659198988
 20
168.6173443998912092
 30
0.0
 40
0.0060790532914271
 50
124.3848683756898055
 51
171.9412081170208069
  0
ARC
  5
15E4D
  8
0
 10
3478.4542414257171004
 20
168.6178136534784073
 30
0.0
 40
0.0027317644622521
 50
171.9412081170320903
 51
221.6973944447690883
  0
ARC
  5
15E4E
  8
0
 10
3478.4591050014792017
 20
168.6205297354752872
 30
0.0
 40
0.0082586806446165
 50
213.2920132889275067
 51
243.1492268477279879
  0
ARC
  5
15E4F
  8
0
 10
3478.4670745375387924
 20
168.634359148723405
 30
0.0
 40
0.0242120961734874
 50
241.1042137756060981
 51
257.5120700943301131
  0
ARC
  5
15E50
  8
0
 10
3478.4716114705220207
 20
168.6533370963279879
 30
0.0
 40
0.0437233091844516
 50
257.0849750168314927
 51
270.4976251734589141
  0
ARC
  5
15E51
  8
0
 10
3478.4721849000497969
 20
168.650962324194694
 30
0.0
 40
0.0413473416419134
 50
269.7316009645409736
 51
286.242623848594576
  0
ARC
  5
15E52
  8
0
 10
3478.4806930124168503
 20
168.624591842108714
 30
0.0
 40
0.013672639223432
 50
282.9195389106031939
 51
322.5189431402072273
  0
ARC
  5
15E53
  8
0
 10
3478.4880067740159575
 20
168.6182314242032021
 30
0.0
 40
0.0040427727539717
 50
331.0097933760275737
 51
359.5067126158497786
  0
ARC
  5
15E54
  8
0
 10
3478.4875138628967761
 20
168.6179986294033881
 30
0.0
 40
0.0045398533778565
 50
2.49953763368491
 51
41.7668893660406368
  0
ARC
  5
15E55
  8
0
 10
3478.4802432559331464
 20
168.6104720005151023
 30
0.0
 40
0.0149960408638527
 50
44.713421312679877
 51
74.2326686277000789
  0
ARC
  5
15E56
  8
0
 10
3478.4735360811541796
 20
168.5916592065250939
 30
0.0
 40
0.0349493232130413
 50
72.0307876961432925
 51
81.9883983541521673
  0
ARC
  5
15E57
  8
0
 10
3478.471877887356186
 20
168.5809573360172067
 30
0.0
 40
0.0457780977441573
 50
81.8000935401111633
 51
89.3322959608723011
  0
ARC
  5
15E58
  8
0
 10
3478.346576304077189
 20
168.5638791069810907
 30
0.0
 40
0.043536653016005
 50
89.0189756982250486
 51
104.8831748763095959
  0
ARC
  5
15E59
  8
0
 10
3478.3407003525881009
 20
168.5859886824642899
 30
0.0
 40
0.0206595873399525
 50
104.8831748763095959
 51
124.3848683756934008
  0
ARC
  5
15E5A
  8
0
 10
3478.3324660094849605
 20
168.5980214530019907
 30
0.0
 40
0.0060790532914271
 50
124.3848683756898055
 51
171.9412081170208069
  0
ARC
  5
15E5B
  8
0
 10
3478.3291517760021634
 20
168.5984907065891036
 30
0.0
 40
0.0027317644622521
 50
171.9412081170320903
 51
221.6973944447690883
  0
ARC
  5
15E5C
  8
0
 10
3478.3340153517651743
 20
168.601206788586012
 30
0.0
 40
0.0082586806446165
 50
213.2920132889275067
 51
243.1492268477279879
  0
ARC
  5
15E5D
  8
0
 10
3478.3419848878252196
 20
168.6150362018341866
 30
0.0
 40
0.0242120961734874
 50
241.1042137756060981
 51
257.5120700943301131
  0
ARC
  5
15E5E
  8
0
 10
3478.3465218208079932
 20
168.6340141494387126
 30
0.0
 40
0.0437233091844516
 50
257.0849750168314927
 51
270.4976251734589141
  0
ARC
  5
15E5F
  8
0
 10
3478.3470952503362241
 20
168.6316393773053903
 30
0.0
 40
0.0413473416419134
 50
269.7316009645409736
 51
286.242623848594576
  0
ARC
  5
15E60
  8
0
 10
3478.3556033627019133
 20
168.6052688952194103
 30
0.0
 40
0.013672639223432
 50
282.9195389106031939
 51
322.5189431402072273
  0
ARC
  5
15E61
  8
0
 10
3478.3629171243010205
 20
168.5989084773138984
 30
0.0
 40
0.0040427727539717
 50
331.0097933760275737
 51
359.5067126158497786
  0
ARC
  5
15E62
  8
0
 10
3478.3624242131818391
 20
168.5986756825141981
 30
0.0
 40
0.0045398533778565
 50
2.49953763368491
 51
41.7668893660406368
  0
ARC
  5
15E63
  8
0
 10
3478.3551536062182095
 20
168.5911490536257986
 30
0.0
 40
0.0149960408638527
 50
44.713421312679877
 51
74.2326686277000789
  0
ARC
  5
15E64
  8
0
 10
3478.3484464314387878
 20
168.5723362596359038
 30
0.0
 40
0.0349493232130413
 50
72.0307876961432925
 51
81.9883983541521673
  0
ARC
  5
15E65
  8
0
 10
3478.3467882376421585
 20
168.5616343891279882
 30
0.0
 40
0.0457780977441573
 50
81.8000935401111633
 51
89.3322959608723011
  0
ARC
  5
15E66
  8
0
 10
3478.2445819230110828
 20
168.5275775373424949
 30
0.0
 40
0.043536653016005
 50
89.0189756982250486
 51
104.8831748763095959
  0
ARC
  5
15E67
  8
0
 10
3478.2387059715219948
 20
168.5496871128256942
 30
0.0
 40
0.0206595873399525
 50
104.8831748763095959
 51
124.3848683756934008
  0
ARC
  5
15E68
  8
0
 10
3478.2304716284202186
 20
168.561719883363395
 30
0.0
 40
0.0060790532914271
 50
124.3848683756898055
 51
171.9412081170208069
  0
ARC
  5
15E69
  8
0
 10
3478.2271573949369667
 20
168.5621891369505079
 30
0.0
 40
0.0027317644622521
 50
171.9412081170320903
 51
221.6973944447690883
  0
ARC
  5
15E6A
  8
0
 10
3478.2320209706999776
 20
168.5649052189473025
 30
0.0
 40
0.0082586806446165
 50
213.2920132889275067
 51
243.1492268477279879
  0
ARC
  5
15E6B
  8
0
 10
3478.2399905067591135
 20
168.5787346321955908
 30
0.0
 40
0.0242120961734874
 50
241.1042137756060981
 51
257.5120700943301131
  0
ARC
  5
15E6C
  8
0
 10
3478.2445274397418871
 20
168.5977125798000884
 30
0.0
 40
0.0437233091844516
 50
257.0849750168314927
 51
270.4976251734589141
  0
ARC
  5
15E6D
  8
0
 10
3478.245100869270118
 20
168.5953378076667946
 30
0.0
 40
0.0413473416419134
 50
269.7316009645409736
 51
286.242623848594576
  0
ARC
  5
15E6E
  8
0
 10
3478.2536089816358071
 20
168.5689673255807861
 30
0.0
 40
0.013672639223432
 50
282.9195389106031939
 51
322.5189431402072273
  0
ARC
  5
15E6F
  8
0
 10
3478.2609227432349144
 20
168.5626069076753879
 30
0.0
 40
0.0040427727539717
 50
331.0097933760275737
 51
359.5067126158497786
  0
ARC
  5
15E70
  8
0
 10
3478.2604298321180067
 20
168.5623741128756023
 30
0.0
 40
0.0045398533778565
 50
2.49953763368491
 51
41.7668893660406368
  0
ARC
  5
15E71
  8
0
 10
3478.2531592251539223
 20
168.5548474839870892
 30
0.0
 40
0.0149960408638527
 50
44.713421312679877
 51
74.2326686277000789
  0
ARC
  5
15E72
  8
0
 10
3478.2464520503740459
 20
168.5360346899973081
 30
0.0
 40
0.0349493232130413
 50
72.0307876961432925
 51
81.9883983541521673
  0
ARC
  5
15E73
  8
0
 10
3478.2447938565769618
 20
168.5253328194893925
 30
0.0
 40
0.0457780977441573
 50
81.8000935401111633
 51
89.3322959608723011
  0
ARC
  5
15E74
  8
0
 10
3478.1782341610560252
 20
168.4791492092764997
 30
0.0
 40
0.043536653016005
 50
89.0189756982250486
 51
104.8831748763095959
  0
ARC
  5
15E75
  8
0
 10
3478.1723582095678466
 20
168.5012587847596137
 30
0.0
 40
0.0206595873399525
 50
104.8831748763095959
 51
124.3848683756934008
  0
ARC
  5
15E76
  8
0
 10
3478.1641238664637967
 20
168.5132915552972861
 30
0.0
 40
0.0060790532914271
 50
124.3848683756898055
 51
171.9412081170208069
  0
ARC
  5
15E77
  8
0
 10
3478.1608096329819091
 20
168.5137608088845127
 30
0.0
 40
0.0027317644622521
 50
171.9412081170320903
 51
221.6973944447690883
  0
ARC
  5
15E78
  8
0
 10
3478.16567320874492
 20
168.5164768908813073
 30
0.0
 40
0.0082586806446165
 50
213.2920132889275067
 51
243.1492268477279879
  0
ARC
  5
15E79
  8
0
 10
3478.1736427448040558
 20
168.5303063041295104
 30
0.0
 40
0.0242120961734874
 50
241.1042137756060981
 51
257.5120700943301131
  0
ARC
  5
15E7A
  8
0
 10
3478.1781796777868294
 20
168.5492842517340932
 30
0.0
 40
0.0437233091844516
 50
257.0849750168314927
 51
270.4976251734589141
  0
ARC
  5
15E7B
  8
0
 10
3478.1787531073150603
 20
168.5469094796007994
 30
0.0
 40
0.0413473416419134
 50
269.7316009645409736
 51
286.242623848594576
  0
ARC
  5
15E7C
  8
0
 10
3478.1872612196821137
 20
168.5205389975147909
 30
0.0
 40
0.013672639223432
 50
282.9195389106031939
 51
322.5189431402072273
  0
ARC
  5
15E7D
  8
0
 10
3478.194574981281221
 20
168.5141785796093075
 30
0.0
 40
0.0040427727539717
 50
331.0097933760275737
 51
359.5067126158497786
  0
ARC
  5
15E7E
  8
0
 10
3478.1940820701620396
 20
168.5139457848096072
 30
0.0
 40
0.0045398533778565
 50
2.49953763368491
 51
41.7668893660406368
  0
ARC
  5
15E7F
  8
0
 10
3478.1868114631979552
 20
168.506419155921094
 30
0.0
 40
0.0149960408638527
 50
44.713421312679877
 51
74.2326686277000789
  0
ARC
  5
15E80
  8
0
 10
3478.1801042884189883
 20
168.4876063619311992
 30
0.0
 40
0.0349493232130413
 50
72.0307876961432925
 51
81.9883983541521673
  0
ARC
  5
15E81
  8
0
 10
3478.1784460946209947
 20
168.476904491423312
 30
0.0
 40
0.0457780977441573
 50
81.8000935401111633
 51
89.3322959608723011
  0
ARC
  5
15E82
  8
0
 10
3478.1551082940632114
 20
168.4240961196236128
 30
0.0
 40
0.043536653016005
 50
89.0189756982250486
 51
104.8831748763095959
  0
ARC
  5
15E83
  8
0
 10
3478.1492323425732138
 20
168.4462056951068121
 30
0.0
 40
0.0206595873399525
 50
104.8831748763095959
 51
124.3848683756934008
  0
ARC
  5
15E84
  8
0
 10
3478.1409979994709829
 20
168.4582384656445129
 30
0.0
 40
0.0060790532914271
 50
124.3848683756898055
 51
171.9412081170208069
  0
ARC
  5
15E85
  8
0
 10
3478.1376837659881858
 20
168.4587077192315974
 30
0.0
 40
0.0027317644622521
 50
171.9412081170320903
 51
221.6973944447690883
  0
ARC
  5
15E86
  8
0
 10
3478.1425473417511967
 20
168.4614238012285057
 30
0.0
 40
0.0082586806446165
 50
213.2920132889275067
 51
243.1492268477279879
  0
ARC
  5
15E87
  8
0
 10
3478.1505168778107873
 20
168.4752532144767088
 30
0.0
 40
0.0242120961734874
 50
241.1042137756060981
 51
257.5120700943301131
  0
ARC
  5
15E88
  8
0
 10
3478.1550538107940156
 20
168.4942311620812063
 30
0.0
 40
0.0437233091844516
 50
257.0849750168314927
 51
270.4976251734589141
  0
ARC
  5
15E89
  8
0
 10
3478.1556272403217918
 20
168.4918563899479125
 30
0.0
 40
0.0413473416419134
 50
269.7316009645409736
 51
286.242623848594576
  0
ARC
  5
15E8A
  8
0
 10
3478.1641353526879357
 20
168.465485907861904
 30
0.0
 40
0.013672639223432
 50
282.9195389106031939
 51
322.5189431402072273
  0
ARC
  5
15E8B
  8
0
 10
3478.1714491142870429
 20
168.4591254899563921
 30
0.0
 40
0.0040427727539717
 50
331.0097933760275737
 51
359.5067126158497786
  0
ARC
  5
15E8C
  8
0
 10
3478.1709562031692258
 20
168.4588926951566918
 30
0.0
 40
0.0045398533778565
 50
2.49953763368491
 51
41.7668893660406368
  0
ARC
  5
15E8D
  8
0
 10
3478.1636855962060508
 20
168.4513660662682923
 30
0.0
 40
0.0149960408638527
 50
44.713421312679877
 51
74.2326686277000789
  0
ARC
  5
15E8E
  8
0
 10
3478.1569784214261745
 20
168.4325532722783123
 30
0.0
 40
0.0349493232130413
 50
72.0307876961432925
 51
81.9883983541521673
  0
ARC
  5
15E8F
  8
0
 10
3478.1553202276281809
 20
168.4218514017705104
 30
0.0
 40
0.0457780977441573
 50
81.8000935401111633
 51
89.3322959608723011
  0
ARC
  5
15E90
  8
0
 10
3478.1781203593309328
 20
168.3685846250828888
 30
0.0
 40
0.043536653016005
 50
89.0189756982250486
 51
104.8831748763095959
  0
ARC
  5
15E91
  8
0
 10
3478.172244407843209
 20
168.3906942005660881
 30
0.0
 40
0.0206595873399525
 50
104.8831748763095959
 51
124.3848683756934008
  0
ARC
  5
15E92
  8
0
 10
3478.1640100647400686
 20
168.4027269711037889
 30
0.0
 40
0.0060790532914271
 50
124.3848683756898055
 51
171.9412081170208069
  0
ARC
  5
15E93
  8
0
 10
3478.1606958312568167
 20
168.403196224690987
 30
0.0
 40
0.0027317644622521
 50
171.9412081170320903
 51
221.6973944447690883
  0
ARC
  5
15E94
  8
0
 10
3478.1655594070198276
 20
168.4059123066878101
 30
0.0
 40
0.0082586806446165
 50
213.2920132889275067
 51
243.1492268477279879
  0
ARC
  5
15E95
  8
0
 10
3478.1735289430789635
 20
168.4197417199360132
 30
0.0
 40
0.0242120961734874
 50
241.1042137756060981
 51
257.5120700943301131
  0
ARC
  5
15E96
  8
0
 10
3478.1780658760631013
 20
168.4387196675405107
 30
0.0
 40
0.0437233091844516
 50
257.0849750168314927
 51
270.4976251734589141
  0
ARC
  5
15E97
  8
0
 10
3478.178639305589968
 20
168.4363448954073021
 30
0.0
 40
0.0413473416419134
 50
269.7316009645409736
 51
286.242623848594576
  0
ARC
  5
15E98
  8
0
 10
3478.1871474179570214
 20
168.4099744133212937
 30
0.0
 40
0.013672639223432
 50
282.9195389106031939
 51
322.5189431402072273
  0
ARC
  5
15E99
  8
0
 10
3478.1944611795561286
 20
168.4036139954158102
 30
0.0
 40
0.0040427727539717
 50
331.0097933760275737
 51
359.5067126158497786
  0
ARC
  5
15E9A
  8
0
 10
3478.1939682684369473
 20
168.4033812006159962
 30
0.0
 40
0.0045398533778565
 50
2.49953763368491
 51
41.7668893660406368
  0
ARC
  5
15E9B
  8
0
 10
3478.1866976614742271
 20
168.3958545717275967
 30
0.0
 40
0.0149960408638527
 50
44.713421312679877
 51
74.2326686277000789
  0
ARC
  5
15E9C
  8
0
 10
3478.1799904866938959
 20
168.377041777737702
 30
0.0
 40
0.0349493232130413
 50
72.0307876961432925
 51
81.9883983541521673
  0
ARC
  5
15E9D
  8
0
 10
3478.1783322928968119
 20
168.3663399072297864
 30
0.0
 40
0.0457780977441573
 50
81.8000935401111633
 51
89.3322959608723011
  0
ARC
  5
15E9E
  8
0
 10
3478.244960106489998
 20
168.3201372323815974
 30
0.0
 40
0.043536653016005
 50
89.0189756982250486
 51
104.8831748763095959
  0
ARC
  5
15E9F
  8
0
 10
3478.23908415500091
 20
168.3422468078647967
 30
0.0
 40
0.0206595873399525
 50
104.8831748763095959
 51
124.3848683756934008
  0
ARC
  5
15EA0
  8
0
 10
3478.2308498118991338
 20
168.3542795784024975
 30
0.0
 40
0.0060790532914271
 50
124.3848683756898055
 51
171.9412081170208069
  0
ARC
  5
15EA1
  8
0
 10
3478.2275355784158819
 20
168.3547488319896104
 30
0.0
 40
0.0027317644622521
 50
171.9412081170320903
 51
221.6973944447690883
  0
ARC
  5
15EA2
  8
0
 10
3478.2323991541788928
 20
168.3574649139864903
 30
0.0
 40
0.0082586806446165
 50
213.2920132889275067
 51
243.1492268477279879
  0
ARC
  5
15EA3
  8
0
 10
3478.2403686902389381
 20
168.3712943272346934
 30
0.0
 40
0.0242120961734874
 50
241.1042137756060981
 51
257.5120700943301131
  0
ARC
  5
15EA4
  8
0
 10
3478.2449056232221665
 20
168.3902722748391909
 30
0.0
 40
0.0437233091844516
 50
257.0849750168314927
 51
270.4976251734589141
  0
ARC
  5
15EA5
  8
0
 10
3478.2454790527490331
 20
168.3878975027060108
 30
0.0
 40
0.0413473416419134
 50
269.7316009645409736
 51
286.242623848594576
  0
ARC
  5
15EA6
  8
0
 10
3478.253987165115177
 20
168.3615270206198886
 30
0.0
 40
0.013672639223432
 50
282.9195389106031939
 51
322.5189431402072273
  0
ARC
  5
15EA7
  8
0
 10
3478.2613009267138295
 20
168.3551666027144904
 30
0.0
 40
0.0040427727539717
 50
331.0097933760275737
 51
359.5067126158497786
  0
ARC
  5
15EA8
  8
0
 10
3478.2608080155960124
 20
168.3549338079147049
 30
0.0
 40
0.0045398533778565
 50
2.49953763368491
 51
41.7668893660406368
  0
ARC
  5
15EA9
  8
0
 10
3478.253537408631928
 20
168.3474071790263054
 30
0.0
 40
0.0149960408638527
 50
44.713421312679877
 51
74.2326686277000789
  0
ARC
  5
15EAA
  8
0
 10
3478.2468302338538706
 20
168.3285943850362969
 30
0.0
 40
0.0349493232130413
 50
72.0307876961432925
 51
81.9883983541521673
  0
ARC
  5
15EAB
  8
0
 10
3478.2451720400549675
 20
168.317892514528495
 30
0.0
 40
0.0457780977441573
 50
81.8000935401111633
 51
89.3322959608723011
  0
ARC
  5
15EAC
  8
0
 10
3478.347375629301041
 20
168.2835777495274101
 30
0.0
 40
0.043536653016005
 50
89.0189756982250486
 51
104.8831748763095959
  0
ARC
  5
15EAD
  8
0
 10
3478.3414996778128625
 20
168.3056873250106094
 30
0.0
 40
0.0206595873399525
 50
104.8831748763095959
 51
124.3848683756934008
  0
ARC
  5
15EAE
  8
0
 10
3478.3332653347101768
 20
168.3177200955483102
 30
0.0
 40
0.0060790532914271
 50
124.3848683756898055
 51
171.9412081170208069
  0
ARC
  5
15EAF
  8
0
 10
3478.3299511012278344
 20
168.3181893491355083
 30
0.0
 40
0.0027317644622521
 50
171.9412081170320903
 51
221.6973944447690883
  0
ARC
  5
15EB0
  8
0
 10
3478.3348146769908453
 20
168.320905431132303
 30
0.0
 40
0.0082586806446165
 50
213.2920132889275067
 51
243.1492268477279879
  0
ARC
  5
15EB1
  8
0
 10
3478.3427842130499812
 20
168.334734844380506
 30
0.0
 40
0.0242120961734874
 50
241.1042137756060981
 51
257.5120700943301131
  0
ARC
  5
15EB2
  8
0
 10
3478.3473211460332095
 20
168.3537127919850036
 30
0.0
 40
0.0437233091844516
 50
257.0849750168314927
 51
270.4976251734589141
  0
ARC
  5
15EB3
  8
0
 10
3478.3478945755609857
 20
168.351338019851795
 30
0.0
 40
0.0413473416419134
 50
269.7316009645409736
 51
286.242623848594576
  0
ARC
  5
15EB4
  8
0
 10
3478.3564026879271296
 20
168.3249675377657866
 30
0.0
 40
0.013672639223432
 50
282.9195389106031939
 51
322.5189431402072273
  0
ARC
  5
15EB5
  8
0
 10
3478.3637164495257821
 20
168.3186071198603031
 30
0.0
 40
0.0040427727539717
 50
331.0097933760275737
 51
359.5067126158497786
  0
ARC
  5
15EB6
  8
0
 10
3478.363223538407965
 20
168.3183743250604891
 30
0.0
 40
0.0045398533778565
 50
2.49953763368491
 51
41.7668893660406368
  0
ARC
  5
15EB7
  8
0
 10
3478.3559529314438805
 20
168.3108476961720896
 30
0.0
 40
0.0149960408638527
 50
44.713421312679877
 51
74.2326686277000789
  0
ARC
  5
15EB8
  8
0
 10
3478.3492457566640041
 20
168.2920349021821949
 30
0.0
 40
0.0349493232130413
 50
72.0307876961432925
 51
81.9883983541521673
  0
ARC
  5
15EB9
  8
0
 10
3478.3475875628669201
 20
168.2813330316743077
 30
0.0
 40
0.0457780977441573
 50
81.8000935401111633
 51
89.3322959608723011
  0
ARC
  5
15EBA
  8
0
 10
3478.4715284873359451
 20
168.2643025495904965
 30
0.0
 40
0.043536653016005
 50
89.0189756982250486
 51
104.8831748763095959
  0
ARC
  5
15EBB
  8
0
 10
3478.4656525358468571
 20
168.2864121250736105
 30
0.0
 40
0.0206595873399525
 50
104.8831748763095959
 51
124.3848683756934008
  0
ARC
  5
15EBC
  8
0
 10
3478.4574181927450809
 20
168.2984448956113113
 30
0.0
 40
0.0060790532914271
 50
124.3848683756898055
 51
171.9412081170208069
  0
ARC
  5
15EBD
  8
0
 10
3478.4541039592631932
 20
168.2989141491985094
 30
0.0
 40
0.0027317644622521
 50
171.9412081170320903
 51
221.6973944447690883
  0
ARC
  5
15EBE
  8
0
 10
3478.4589675350262041
 20
168.3016302311953041
 30
0.0
 40
0.0082586806446165
 50
213.2920132889275067
 51
243.1492268477279879
  0
ARC
  5
15EBF
  8
0
 10
3478.4669370710848852
 20
168.3154596444435072
 30
0.0
 40
0.0242120961734874
 50
241.1042137756060981
 51
257.5120700943301131
  0
ARC
  5
15EC0
  8
0
 10
3478.4714740040681136
 20
168.3344375920480047
 30
0.0
 40
0.0437233091844516
 50
257.0849750168314927
 51
270.4976251734589141
  0
ARC
  5
15EC1
  8
0
 10
3478.4720474335967992
 20
168.3320628199147961
 30
0.0
 40
0.0413473416419134
 50
269.7316009645409736
 51
286.242623848594576
  0
ARC
  5
15EC2
  8
0
 10
3478.4805555459620336
 20
168.3056923378287877
 30
0.0
 40
0.013672639223432
 50
282.9195389106031939
 51
322.5189431402072273
  0
ARC
  5
15EC3
  8
0
 10
3478.4878693075597766
 20
168.2993319199233042
 30
0.0
 40
0.0040427727539717
 50
331.0097933760275737
 51
359.5067126158497786
  0
ARC
  5
15EC4
  8
0
 10
3478.487376396442869
 20
168.2990991251234902
 30
0.0
 40
0.0045398533778565
 50
2.49953763368491
 51
41.7668893660406368
  0
ARC
  5
15EC5
  8
0
 10
3478.4801057894801488
 20
168.2915724962350907
 30
0.0
 40
0.0149960408638527
 50
44.713421312679877
 51
74.2326686277000789
  0
ARC
  5
15EC6
  8
0
 10
3478.4733986146998177
 20
168.272759702245196
 30
0.0
 40
0.0349493232130413
 50
72.0307876961432925
 51
81.9883983541521673
  0
ARC
  5
15EC7
  8
0
 10
3478.4717404209031884
 20
168.2620578317373088
 30
0.0
 40
0.0457780977441573
 50
81.8000935401111633
 51
89.3322959608723011
  0
ARC
  5
15EC8
  8
0
 10
3478.5380273423120343
 20
167.988395742573914
 30
0.0
 40
0.6059729118108899
 50
89.9741949560929868
 51
97.4779269817266538
  0
ARC
  5
15EC9
  8
0
 10
3478.4957222266421013
 20
168.2337766879437027
 30
0.0
 40
0.3573133986911523
 50
95.8725332837614843
 51
120.0637074401500968
  0
ARC
  5
15ECA
  8
0
 10
3478.3558599631760444
 20
168.4708111335968965
 30
0.0
 40
0.0821339258187493
 50
118.4583137421633978
 51
145.1633577857409136
  0
ARC
  5
15ECB
  8
0
 10
3478.3578122790509042
 20
168.4694523862164033
 30
0.0
 40
0.0845125245070743
 50
145.1633577857421926
 51
164.9049456259405133
  0
ARC
  5
15ECC
  8
0
 10
3478.3291320070670736
 20
168.4826332798911039
 30
0.0
 40
0.0536474840186253
 50
170.5286207551874895
 51
184.6269174923777996
  0
ARC
  5
15ECD
  8
0
 10
3478.3416689183641211
 20
168.4854960467608009
 30
0.0
 40
0.0664000277146087
 50
186.216664348668786
 51
215.2597541200429987
  0
ARC
  5
15ECE
  8
0
 10
3478.3684222249908089
 20
168.50341306788971
 30
0.0
 40
0.0985918363792333
 50
214.7865614458480934
 51
227.4552410512831102
  0
ARC
  5
15ECF
  8
0
 10
3478.4029317876970708
 20
168.5413511902941082
 30
0.0
 40
0.1498770875028918
 50
227.5422373313016919
 51
238.8893582505642996
  0
ARC
  5
15ED0
  8
0
 10
3478.4524516940759895
 20
168.6244846496445859
 30
0.0
 40
0.2466407414375057
 50
239.0187308345020085
 51
249.8239781154047989
  0
ARC
  5
15ED1
  8
0
 10
3478.5192094934191118
 20
168.8165880761243898
 30
0.0
 40
0.4499957070127429
 50
250.2818622709324075
 51
264.549359751111524
  0
ARC
  5
15ED2
  8
0
 10
3478.5380090142330118
 20
168.9584426640155073
 30
0.0
 40
0.5930177688351107
 50
264.0430779057512041
 51
270.0281395939862819
  0
LINE
  5
15ED3
  8
0
 10
3479.1608807952379721
 20
160.0260477894256042
 30
0.0
 11
3479.1608807952379721
 21
160.0142367658255864
 31
0.0
  0
LINE
  5
15ED4
  8
0
 10
3479.1608807952379721
 20
160.0142367658255864
 30
0.0
 11
3479.1580054034388922
 21
159.9945517264256125
 31
0.0
  0
ARC
  5
15ED5
  8
0
 10
3478.3004857382120463
 20
168.5242424198787035
 30
0.0
 40
0.0782384422262319
 50
197.56361583433889
 51
225.4400261727465988
  0
ARC
  5
15ED6
  8
0
 10
3478.384914332003973
 20
168.6099778832441132
 30
0.0
 40
0.1985661494600508
 50
225.4400261727477925
 51
236.3978003437412951
  0
ARC
  5
15ED7
  8
0
 10
3478.409116796438866
 20
168.654840057282513
 30
0.0
 40
0.2493697906164309
 50
237.4707496612273019
 51
245.1038236880087027
  0
ARC
  5
15ED8
  8
0
 10
3478.3264315958949737
 20
168.5325871471995072
 30
0.0
 40
0.0509879892199202
 50
161.4559445219830138
 51
182.8116432854839104
  0
LINE
  5
15ED9
  8
0
 10
3478.2755049865381807
 20
168.5300860466290942
 30
0.0
 11
3478.2755117719711961
 21
168.4843429376533948
 31
0.0
  0
ARC
  5
15EDA
  8
0
 10
3478.3155590070850849
 20
168.5165527396002005
 30
0.0
 40
0.0560347274820205
 50
154.0134772232748048
 51
171.6565701174444882
  0
ARC
  5
15EDB
  8
0
 10
3478.3092007305372135
 20
168.5174852344887029
 30
0.0
 40
0.0496084355982882
 50
171.6565701174444882
 51
200.9918009950455939
  0
ARC
  5
15EDC
  8
0
 10
3478.3303163749937994
 20
168.5254360876081137
 30
0.0
 40
0.0721710774088827
 50
200.8797192251232104
 51
220.770988963908195
  0
ARC
  5
15EDD
  8
0
 10
3478.3248346173791106
 20
168.5494539951822048
 30
0.0
 40
0.0635941687276354
 50
192.7387408791271071
 51
219.1319821129505101
  0
ARC
  5
15EDE
  8
0
 10
3478.5400078749671593
 20
167.9905701035849006
 30
0.0
 40
0.5831132664461776
 50
90.1677875478863768
 51
96.0191841398480506
  0
ARC
  5
15EDF
  8
0
 10
3478.4697964783390489
 20
168.4053191410530985
 30
0.0
 40
0.0090667712926778
 50
313.362328950367214
 51
359.6727180842627263
  0
ARC
  5
15EE0
  8
0
 10
3478.4759493061028479
 20
168.4053594324842891
 30
0.0
 40
0.0066324685970772
 50
235.0105316404319069
 51
270.6263592686698871
  0
ARC
  5
15EE1
  8
0
 10
3478.4783432550111684
 20
168.4029814971048893
 30
0.0
 40
0.0048463164361414
 50
241.3791023532783981
 51
256.6429645069093226
  0
ARC
  5
15EE2
  8
0
 10
3478.5134193310741466
 20
168.4053328875702107
 30
0.0
 40
0.0090985006964213
 50
180.4127079999387036
 51
226.5522449654183106
  0
ARC
  5
15EE3
  8
0
 10
3478.5072384506411254
 20
168.405346911650696
 30
0.0
 40
0.0066199887898959
 50
269.3413985867783822
 51
305.0377738637370157
  0
ARC
  5
15EE4
  8
0
 10
3478.5048272672647727
 20
168.403014424317405
 30
0.0
 40
0.0048817582195363
 50
283.4358509138741056
 51
298.5763675238461019
  0
LINE
  5
15EE5
  8
0
 10
3478.467458714714212
 20
168.4136153198041086
 30
0.0
 11
3478.4788631017140688
 21
168.405267350604106
 31
0.0
  0
LINE
  5
15EE6
  8
0
 10
3478.4788631017140688
 20
168.405267350604106
 30
0.0
 11
3478.5043210664139224
 21
168.405267350604106
 31
0.0
  0
LINE
  5
15EE7
  8
0
 10
3478.5043210664139224
 20
168.405267350604106
 30
0.0
 11
3478.5157254535138236
 21
168.4136153198041086
 31
0.0
  0
LINE
  5
15EE8
  8
0
 10
3478.5243413375969794
 20
168.4096636588041065
 30
0.0
 11
3478.5110390945142171
 21
168.3999266388042031
 31
0.0
  0
LINE
  5
15EE9
  8
0
 10
3478.4772236668341066
 20
168.3982662765041027
 30
0.0
 11
3478.5059615757140818
 21
168.3982662765041027
 31
0.0
  0
LINE
  5
15EEA
  8
0
 10
3478.4588428327051588
 20
168.4096636588041065
 30
0.0
 11
3478.4721460771138482
 21
168.3999257331041974
 31
0.0
  0
LINE
  5
15EEB
  8
0
 10
3478.4788631017140688
 20
168.405267350604106
 30
0.0
 11
3478.4788631017140688
 21
168.4204319494041897
 31
0.0
  0
LINE
  5
15EEC
  8
0
 10
3478.4788631017140688
 20
168.4204319494041897
 30
0.0
 11
3478.5043210664139224
 21
168.4204319494041897
 31
0.0
  0
LINE
  5
15EED
  8
0
 10
3478.5043210664139224
 20
168.4204319494041897
 30
0.0
 11
3478.5043324476951057
 21
168.4048732514530116
 31
0.0
  0
LINE
  5
15EEE
  8
0
 10
3478.4788631017140688
 20
168.4204319494041897
 30
0.0
 11
3478.4780036827141885
 21
168.4210610410042079
 31
0.0
  0
LINE
  5
15EEF
  8
0
 10
3478.5043210664139224
 20
168.4204319494041897
 30
0.0
 11
3478.5051804854138027
 21
168.4210610410042079
 31
0.0
  0
ARC
  5
15EF0
  8
0
 10
3478.4230856593389944
 20
168.4167165233531023
 30
0.0
 40
0.0090667712926778
 50
313.362328950367214
 51
359.6727180842627263
  0
ARC
  5
15EF1
  8
0
 10
3478.4292384871018839
 20
168.4167568147842928
 30
0.0
 40
0.0066324685970772
 50
235.0105316404319069
 51
270.6263592686698871
  0
ARC
  5
15EF2
  8
0
 10
3478.4316324360111139
 20
168.4143788794050067
 30
0.0
 40
0.0048463164361414
 50
241.3791023532783981
 51
256.6429645069093226
  0
ARC
  5
15EF3
  8
0
 10
3478.4667085120750016
 20
168.4167302698701008
 30
0.0
 40
0.0090985006964213
 50
180.4127079999387036
 51
226.5522449654170885
  0
ARC
  5
15EF4
  8
0
 10
3478.4605276316419804
 20
168.4167442939506998
 30
0.0
 40
0.0066199887898959
 50
269.3413985867783822
 51
305.0377738637370157
  0
ARC
  5
15EF5
  8
0
 10
3478.4581164482651729
 20
168.4144118066174087
 30
0.0
 40
0.0048817582195363
 50
283.4358509138741056
 51
298.5763675238461019
  0
LINE
  5
15EF6
  8
0
 10
3478.4207478957141575
 20
168.4250127021041123
 30
0.0
 11
3478.4321522827140143
 21
168.416664732904195
 31
0.0
  0
LINE
  5
15EF7
  8
0
 10
3478.4321522827140143
 20
168.416664732904195
 30
0.0
 11
3478.4576102474138679
 21
168.416664732904195
 31
0.0
  0
LINE
  5
15EF8
  8
0
 10
3478.4576102474138679
 20
168.416664732904195
 30
0.0
 11
3478.4690146345142239
 21
168.4250127021041123
 31
0.0
  0
LINE
  5
15EF9
  8
0
 10
3478.477630518596925
 20
168.4210610411041102
 30
0.0
 11
3478.4643282755141627
 21
168.4113240211042068
 31
0.0
  0
LINE
  5
15EFA
  8
0
 10
3478.4305128478349616
 20
168.4096636588041065
 30
0.0
 11
3478.4592507567140274
 21
168.4096636588041065
 31
0.0
  0
LINE
  5
15EFB
  8
0
 10
3478.4121320137051043
 20
168.4210610411041102
 30
0.0
 11
3478.4254352581137937
 21
168.4113231154040875
 31
0.0
  0
LINE
  5
15EFC
  8
0
 10
3478.4321522827140143
 20
168.416664732904195
 30
0.0
 11
3478.4321522827140143
 21
168.4318293317041082
 31
0.0
  0
LINE
  5
15EFD
  8
0
 10
3478.4321522827140143
 20
168.4318293317041082
 30
0.0
 11
3478.4576102474138679
 21
168.4318293317041082
 31
0.0
  0
LINE
  5
15EFE
  8
0
 10
3478.4576102474138679
 20
168.4318293317041082
 30
0.0
 11
3478.4576216286941417
 21
168.4162706337529869
 31
0.0
  0
LINE
  5
15EFF
  8
0
 10
3478.4321522827140143
 20
168.4318293317041082
 30
0.0
 11
3478.431292863714134
 21
168.4324584233042117
 31
0.0
  0
LINE
  5
15F00
  8
0
 10
3478.4576102474138679
 20
168.4318293317041082
 30
0.0
 11
3478.4584696664142029
 21
168.4324584233042117
 31
0.0
  0
ARC
  5
15F01
  8
0
 10
3478.3763748402889178
 20
168.4281139055530048
 30
0.0
 40
0.0090667712926778
 50
313.362328950367214
 51
359.6727180842627263
  0
ARC
  5
15F02
  8
0
 10
3478.3825276680531715
 20
168.428154196984309
 30
0.0
 40
0.0066324685970772
 50
235.0105316404319069
 51
270.6263592686698871
  0
ARC
  5
15F03
  8
0
 10
3478.3849216169610372
 20
168.4257762616049945
 30
0.0
 40
0.0048463164361414
 50
241.3791023532783981
 51
256.6429645069093226
  0
ARC
  5
15F04
  8
0
 10
3478.419997693024925
 20
168.4281276520700885
 30
0.0
 40
0.0090985006964213
 50
180.4127079999387036
 51
226.5522449654170885
  0
ARC
  5
15F05
  8
0
 10
3478.4138168125909942
 20
168.4281416761506875
 30
0.0
 40
0.0066199887898959
 50
269.3413985867783822
 51
305.0377738637370157
  0
ARC
  5
15F06
  8
0
 10
3478.4114056292150963
 20
168.4258091888173965
 30
0.0
 40
0.0048817582195363
 50
283.4358509138741056
 51
298.5763675238461019
  0
LINE
  5
15F07
  8
0
 10
3478.3740370766640808
 20
168.4364100843042138
 30
0.0
 11
3478.3854414636648471
 21
168.4280621151042112
 31
0.0
  0
LINE
  5
15F08
  8
0
 10
3478.3854414636648471
 20
168.4280621151042112
 30
0.0
 11
3478.4108994283637912
 21
168.4280621151042112
 31
0.0
  0
LINE
  5
15F09
  8
0
 10
3478.4108994283637912
 20
168.4280621151042112
 30
0.0
 11
3478.4223038154641472
 21
168.4364100843042138
 31
0.0
  0
LINE
  5
15F0A
  8
0
 10
3478.4309196995468483
 20
168.4324584233042117
 30
0.0
 11
3478.417617456464086
 21
168.4227214033041093
 31
0.0
  0
LINE
  5
15F0B
  8
0
 10
3478.3838020287839754
 20
168.4210610410042079
 30
0.0
 11
3478.4125399376639507
 21
168.4210610410042079
 31
0.0
  0
LINE
  5
15F0C
  8
0
 10
3478.3654211946550276
 20
168.4324584233042117
 30
0.0
 11
3478.3787244390641717
 21
168.4227204976041889
 31
0.0
  0
LINE
  5
15F0D
  8
0
 10
3478.3854414636648471
 20
168.4280621151042112
 30
0.0
 11
3478.3854414636648471
 21
168.4432267139042096
 31
0.0
  0
LINE
  5
15F0E
  8
0
 10
3478.3854414636648471
 20
168.4432267139042096
 30
0.0
 11
3478.4108994283637912
 21
168.4432267139042096
 31
0.0
  0
LINE
  5
15F0F
  8
0
 10
3478.4108994283637912
 20
168.4432267139042096
 30
0.0
 11
3478.4109108096449745
 21
168.4276680159528894
 31
0.0
  0
LINE
  5
15F10
  8
0
 10
3478.3854414636648471
 20
168.4432267139042096
 30
0.0
 11
3478.3845820446649668
 21
168.4438558055041995
 31
0.0
  0
LINE
  5
15F11
  8
0
 10
3478.4108994283637912
 20
168.4432267139042096
 30
0.0
 11
3478.4117588473641263
 21
168.4438558055041995
 31
0.0
  0
ARC
  5
15F12
  8
0
 10
3478.3296640212888633
 20
168.4623060523531137
 30
0.0
 40
0.0090667712926778
 50
313.362328950367214
 51
359.6727180842627263
  0
ARC
  5
15F13
  8
0
 10
3478.3358168490522075
 20
168.4623463437843043
 30
0.0
 40
0.0066324685970772
 50
235.0105316404319069
 51
270.6263592686698871
  0
ARC
  5
15F14
  8
0
 10
3478.3382107979609827
 20
168.4599684084049898
 30
0.0
 40
0.0048463164361414
 50
241.3791023532783981
 51
256.6429645069093226
  0
ARC
  5
15F15
  8
0
 10
3478.373286874023961
 20
168.4623197988701122
 30
0.0
 40
0.0090985006964213
 50
180.4127079999387036
 51
226.5522449654170885
  0
ARC
  5
15F16
  8
0
 10
3478.3671059935909398
 20
168.4623338229507112
 30
0.0
 40
0.0066199887898959
 50
269.3413985867783822
 51
305.0377738637370157
  0
ARC
  5
15F17
  8
0
 10
3478.3646948102159513
 20
168.4600013356173918
 30
0.0
 40
0.0048817582195363
 50
283.4358509138741056
 51
298.5763675238461019
  0
LINE
  5
15F18
  8
0
 10
3478.3273262576649358
 20
168.4706022311042091
 30
0.0
 11
3478.3387306446638831
 21
168.4622542619042065
 31
0.0
  0
LINE
  5
15F19
  8
0
 10
3478.3387306446638831
 20
168.4622542619042065
 30
0.0
 11
3478.3641886093641915
 21
168.4622542619042065
 31
0.0
  0
LINE
  5
15F1A
  8
0
 10
3478.3641886093641915
 20
168.4622542619042065
 30
0.0
 11
3478.3755929964640927
 21
168.4706022311042091
 31
0.0
  0
LINE
  5
15F1B
  8
0
 10
3478.384208880548158
 20
168.466650570104207
 30
0.0
 11
3478.3709066374640315
 21
168.4569135501041046
 31
0.0
  0
LINE
  5
15F1C
  8
0
 10
3478.3370912097839209
 20
168.4552531878042032
 30
0.0
 11
3478.3658291186638962
 21
168.4552531878042032
 31
0.0
  0
LINE
  5
15F1D
  8
0
 10
3478.3187103756549732
 20
168.466650570104207
 30
0.0
 11
3478.3320136200650268
 21
168.456912644404099
 31
0.0
  0
LINE
  5
15F1E
  8
0
 10
3478.3387306446638831
 20
168.4622542619042065
 30
0.0
 11
3478.3387306446638831
 21
168.4774188607040912
 31
0.0
  0
LINE
  5
15F1F
  8
0
 10
3478.3387306446638831
 20
168.4774188607040912
 30
0.0
 11
3478.3641886093641915
 21
168.4774188607040912
 31
0.0
  0
LINE
  5
15F20
  8
0
 10
3478.3641886093641915
 20
168.4774188607040912
 30
0.0
 11
3478.3641999906440105
 21
168.4618601627529131
 31
0.0
  0
LINE
  5
15F21
  8
0
 10
3478.3387306446638831
 20
168.4774188607040912
 30
0.0
 11
3478.3378712256640028
 21
168.4780479523041095
 31
0.0
  0
LINE
  5
15F22
  8
0
 10
3478.3641886093641915
 20
168.4774188607040912
 30
0.0
 11
3478.3650480283640718
 21
168.4780479523041095
 31
0.0
  0
ARC
  5
15F23
  8
0
 10
3478.3296640212888633
 20
168.4851008168531052
 30
0.0
 40
0.0090667712926778
 50
313.362328950367214
 51
359.6727180842627263
  0
ARC
  5
15F24
  8
0
 10
3478.3358168490522075
 20
168.4851411082842958
 30
0.0
 40
0.0066324685970772
 50
235.0105316404319069
 51
270.6263592686698871
  0
ARC
  5
15F25
  8
0
 10
3478.3382107979609827
 20
168.482763172904896
 30
0.0
 40
0.0048463164361414
 50
241.3791023532783981
 51
256.6429645069093226
  0
ARC
  5
15F26
  8
0
 10
3478.373286874023961
 20
168.4851145633701037
 30
0.0
 40
0.0090985006964213
 50
180.4127079999387036
 51
226.5522449654170885
  0
ARC
  5
15F27
  8
0
 10
3478.3671059935909398
 20
168.4851285874507028
 30
0.0
 40
0.0066199887898959
 50
269.3413985867783822
 51
305.0377738637370157
  0
ARC
  5
15F28
  8
0
 10
3478.3646948102159513
 20
168.4827961001174117
 30
0.0
 40
0.0048817582195363
 50
283.4358509138741056
 51
298.5763675238461019
  0
LINE
  5
15F29
  8
0
 10
3478.3273262576649358
 20
168.4933969956040869
 30
0.0
 11
3478.3387306446638831
 21
168.4850490264041127
 31
0.0
  0
LINE
  5
15F2A
  8
0
 10
3478.3387306446638831
 20
168.4850490264041127
 30
0.0
 11
3478.3641886093641915
 21
168.4850490264041127
 31
0.0
  0
LINE
  5
15F2B
  8
0
 10
3478.3641886093641915
 20
168.4850490264041127
 30
0.0
 11
3478.3755929964640927
 21
168.4933969956040869
 31
0.0
  0
LINE
  5
15F2C
  8
0
 10
3478.384208880548158
 20
168.4894453346041132
 30
0.0
 11
3478.3709066374640315
 21
168.4797083146042098
 31
0.0
  0
LINE
  5
15F2D
  8
0
 10
3478.3370912097839209
 20
168.4780479523041095
 30
0.0
 11
3478.3658291186638962
 21
168.4780479523041095
 31
0.0
  0
LINE
  5
15F2E
  8
0
 10
3478.3187103756549732
 20
168.4894453346041132
 30
0.0
 11
3478.3320136200650268
 21
168.4797074089042042
 31
0.0
  0
LINE
  5
15F2F
  8
0
 10
3478.3387306446638831
 20
168.4850490264041127
 30
0.0
 11
3478.3387306446638831
 21
168.5002136252041112
 31
0.0
  0
LINE
  5
15F30
  8
0
 10
3478.3387306446638831
 20
168.5002136252041112
 30
0.0
 11
3478.3641886093641915
 21
168.5002136252041112
 31
0.0
  0
LINE
  5
15F31
  8
0
 10
3478.3641886093641915
 20
168.5002136252041112
 30
0.0
 11
3478.3641999906440105
 21
168.4846549272529046
 31
0.0
  0
LINE
  5
15F32
  8
0
 10
3478.3387306446638831
 20
168.5002136252041112
 30
0.0
 11
3478.3378712256640028
 21
168.5008427168041862
 31
0.0
  0
LINE
  5
15F33
  8
0
 10
3478.3641886093641915
 20
168.5002136252041112
 30
0.0
 11
3478.3650480283640718
 21
168.5008427168041862
 31
0.0
  0
ARC
  5
15F34
  8
0
 10
3478.3296640212888633
 20
168.5078955813530115
 30
0.0
 40
0.0090667712926778
 50
313.362328950367214
 51
359.6727180842627263
  0
ARC
  5
15F35
  8
0
 10
3478.3358168490522075
 20
168.5079358727842873
 30
0.0
 40
0.0066324685970772
 50
235.0105316404319069
 51
270.6263592686698871
  0
ARC
  5
15F36
  8
0
 10
3478.3382107979609827
 20
168.5055579374050012
 30
0.0
 40
0.0048463164361414
 50
241.3791023532783981
 51
256.6429645069093226
  0
ARC
  5
15F37
  8
0
 10
3478.373286874023961
 20
168.5079093278700952
 30
0.0
 40
0.0090985006964213
 50
180.4127079999387036
 51
226.5522449654170885
  0
ARC
  5
15F38
  8
0
 10
3478.3671059935909398
 20
168.5079233519506943
 30
0.0
 40
0.0066199887898959
 50
269.3413985867783822
 51
305.0377738637370157
  0
ARC
  5
15F39
  8
0
 10
3478.3646948102159513
 20
168.5055908646174032
 30
0.0
 40
0.0048817582195363
 50
283.4358509138741056
 51
298.5763675238461019
  0
LINE
  5
15F3A
  8
0
 10
3478.3273262576649358
 20
168.5161917601041068
 30
0.0
 11
3478.3387306446638831
 21
168.5078437909041895
 31
0.0
  0
LINE
  5
15F3B
  8
0
 10
3478.3387306446638831
 20
168.5078437909041895
 30
0.0
 11
3478.3641886093641915
 21
168.5078437909041043
 31
0.0
  0
LINE
  5
15F3C
  8
0
 10
3478.3641886093641915
 20
168.5078437909041043
 30
0.0
 11
3478.3755929964640927
 21
168.5161917601041068
 31
0.0
  0
LINE
  5
15F3D
  8
0
 10
3478.384208880548158
 20
168.51224009910419
 30
0.0
 11
3478.3709066374640315
 21
168.5025030791040876
 31
0.0
  0
LINE
  5
15F3E
  8
0
 10
3478.3370912097839209
 20
168.5008427168041862
 30
0.0
 11
3478.3658291186638962
 21
168.5008427168041862
 31
0.0
  0
LINE
  5
15F3F
  8
0
 10
3478.3185681303589263
 20
168.5123442221342032
 30
0.0
 11
3478.3320136200650268
 21
168.5025021734041104
 31
0.0
  0
LINE
  5
15F40
  8
0
 10
3478.3387306446638831
 20
168.5078437909041895
 30
0.0
 11
3478.3387306446638831
 21
168.5230083897041027
 31
0.0
  0
LINE
  5
15F41
  8
0
 10
3478.3387306446638831
 20
168.5230083897041027
 30
0.0
 11
3478.3641886093641915
 21
168.5230083897041027
 31
0.0
  0
LINE
  5
15F42
  8
0
 10
3478.3641886093641915
 20
168.5230083897041027
 30
0.0
 11
3478.3641999906440105
 21
168.5074496917528961
 31
0.0
  0
LINE
  5
15F43
  8
0
 10
3478.3387306446638831
 20
168.5230083897041027
 30
0.0
 11
3478.3378712256640028
 21
168.5236374813042062
 31
0.0
  0
LINE
  5
15F44
  8
0
 10
3478.3641886093641915
 20
168.5230083897041027
 30
0.0
 11
3478.3650480283640718
 21
168.5236374813042062
 31
0.0
  0
ARC
  5
15F45
  8
0
 10
3478.3358168490522075
 20
168.5307306372843072
 30
0.0
 40
0.0066324685970772
 50
247.0575301317221886
 51
270.6263592686698871
  0
ARC
  5
15F46
  8
0
 10
3478.3382107979609827
 20
168.5283527019049927
 30
0.0
 40
0.0048463164361414
 50
241.3791023532783981
 51
256.6429645069093226
  0
ARC
  5
15F47
  8
0
 10
3478.373286874023961
 20
168.5307040923700868
 30
0.0
 40
0.0090985006964213
 50
180.4127079999387036
 51
226.5522449654170885
  0
ARC
  5
15F48
  8
0
 10
3478.3671059935909398
 20
168.5307181164507142
 30
0.0
 40
0.0066199887898959
 50
269.3413985867783822
 51
305.0377738637370157
  0
ARC
  5
15F49
  8
0
 10
3478.3646948102159513
 20
168.5283856291173947
 30
0.0
 40
0.0048817582195363
 50
283.4358509138741056
 51
298.5763675238461019
  0
LINE
  5
15F4A
  8
0
 10
3478.3424794412590018
 20
168.5306385554040958
 30
0.0
 11
3478.3641886093641915
 21
168.5306385554040958
 31
0.0
  0
LINE
  5
15F4B
  8
0
 10
3478.3641886093641915
 20
168.5306385554040958
 30
0.0
 11
3478.3755929964640927
 21
168.538986524604212
 31
0.0
  0
LINE
  5
15F4C
  8
0
 10
3478.384208880548158
 20
168.5350348636042099
 30
0.0
 11
3478.3709066374640315
 21
168.5252978436041076
 31
0.0
  0
LINE
  5
15F4D
  8
0
 10
3478.3370912097839209
 20
168.5236374813042062
 30
0.0
 11
3478.3658291186638962
 21
168.5236374813042062
 31
0.0
  0
LINE
  5
15F4E
  8
0
 10
3478.3641914762388296
 20
168.5418840128774036
 30
0.0
 11
3478.3641999906440105
 21
168.5302444562528876
 31
0.0
  0
ARC
  5
15F4F
  8
0
 10
3478.3763748402889178
 20
168.5192929636529868
 30
0.0
 40
0.0090667712926778
 50
313.362328950367214
 51
359.6727180842627263
  0
ARC
  5
15F50
  8
0
 10
3478.3825276680531715
 20
168.5193332550842911
 30
0.0
 40
0.0066324685970772
 50
235.0105316404319069
 51
270.6263592686698871
  0
ARC
  5
15F51
  8
0
 10
3478.3849216169610372
 20
168.516955319705005
 30
0.0
 40
0.0048463164361414
 50
241.3791023532783981
 51
256.6429645069093226
  0
ARC
  5
15F52
  8
0
 10
3478.419997693024925
 20
168.519306710170099
 30
0.0
 40
0.0090985006964213
 50
180.4127079999387036
 51
226.5522449654170885
  0
ARC
  5
15F53
  8
0
 10
3478.4138168125909942
 20
168.519320734250698
 30
0.0
 40
0.0066199887898959
 50
269.3413985867783822
 51
305.0377738637370157
  0
ARC
  5
15F54
  8
0
 10
3478.4114056292150963
 20
168.516988246917407
 30
0.0
 40
0.0048817582195363
 50
283.4358509138741056
 51
298.5763675238461019
  0
LINE
  5
15F55
  8
0
 10
3478.3740370766640808
 20
168.5275891424041106
 30
0.0
 11
3478.3854414636648471
 21
168.519241173204108
 31
0.0
  0
LINE
  5
15F56
  8
0
 10
3478.3854414636648471
 20
168.519241173204108
 30
0.0
 11
3478.4108994283637912
 21
168.519241173204108
 31
0.0
  0
LINE
  5
15F57
  8
0
 10
3478.4108994283637912
 20
168.519241173204108
 30
0.0
 11
3478.4223038154641472
 21
168.5275891424041106
 31
0.0
  0
LINE
  5
15F58
  8
0
 10
3478.4309196995468483
 20
168.5236374814041085
 30
0.0
 11
3478.417617456464086
 21
168.5139004614040914
 31
0.0
  0
LINE
  5
15F59
  8
0
 10
3478.3838020287839754
 20
168.51224009910419
 30
0.0
 11
3478.4125399376639507
 21
168.51224009910419
 31
0.0
  0
LINE
  5
15F5A
  8
0
 10
3478.3654211946550276
 20
168.5236374814041085
 30
0.0
 11
3478.3787244390641717
 21
168.5138995557041142
 31
0.0
  0
LINE
  5
15F5B
  8
0
 10
3478.3854414636648471
 20
168.519241173204108
 30
0.0
 11
3478.3854414636648471
 21
168.5344057720041064
 31
0.0
  0
LINE
  5
15F5C
  8
0
 10
3478.3854414636648471
 20
168.5344057720041064
 30
0.0
 11
3478.4108994283637912
 21
168.5344057720041064
 31
0.0
  0
LINE
  5
15F5D
  8
0
 10
3478.4108994283637912
 20
168.5344057720041064
 30
0.0
 11
3478.4109108096449745
 21
168.5188470740530136
 31
0.0
  0
LINE
  5
15F5E
  8
0
 10
3478.3854414636648471
 20
168.5344057720041064
 30
0.0
 11
3478.3845820446649668
 21
168.5350348636042099
 31
0.0
  0
LINE
  5
15F5F
  8
0
 10
3478.4108994283637912
 20
168.5344057720041064
 30
0.0
 11
3478.4117588473641263
 21
168.5350348636042099
 31
0.0
  0
ARC
  5
15F60
  8
0
 10
3478.3763748402889178
 20
168.496498199153109
 30
0.0
 40
0.0090667712926778
 50
313.362328950367214
 51
359.6727180842627263
  0
ARC
  5
15F61
  8
0
 10
3478.3825276680531715
 20
168.4965384905842996
 30
0.0
 40
0.0066324685970772
 50
235.0105316404319069
 51
270.6263592686698871
  0
ARC
  5
15F62
  8
0
 10
3478.3849216169610372
 20
168.4941605552050135
 30
0.0
 40
0.0048463164361414
 50
241.3791023532783981
 51
256.6429645069093226
  0
ARC
  5
15F63
  8
0
 10
3478.419997693024925
 20
168.4965119456701075
 30
0.0
 40
0.0090985006964213
 50
180.4127079999387036
 51
226.5522449654170885
  0
ARC
  5
15F64
  8
0
 10
3478.4138168125909942
 20
168.4965259697507065
 30
0.0
 40
0.0066199887898959
 50
269.3413985867783822
 51
305.0377738637370157
  0
ARC
  5
15F65
  8
0
 10
3478.4114056292150963
 20
168.494193482417387
 30
0.0
 40
0.0048817582195363
 50
283.4358509138741056
 51
298.5763675238461019
  0
LINE
  5
15F66
  8
0
 10
3478.3740370766640808
 20
168.5047943779040907
 30
0.0
 11
3478.3854414636648471
 21
168.4964464087042018
 31
0.0
  0
LINE
  5
15F67
  8
0
 10
3478.3854414636648471
 20
168.4964464087042018
 30
0.0
 11
3478.4108994283637912
 21
168.4964464087042018
 31
0.0
  0
LINE
  5
15F68
  8
0
 10
3478.4108994283637912
 20
168.4964464087042018
 30
0.0
 11
3478.4223038154641472
 21
168.5047943779040907
 31
0.0
  0
LINE
  5
15F69
  8
0
 10
3478.4309196995468483
 20
168.5008427169042022
 30
0.0
 11
3478.417617456464086
 21
168.4911056969042136
 31
0.0
  0
LINE
  5
15F6A
  8
0
 10
3478.3838020287839754
 20
168.4894453346041132
 30
0.0
 11
3478.4125399376639507
 21
168.4894453346041132
 31
0.0
  0
LINE
  5
15F6B
  8
0
 10
3478.3654211946550276
 20
168.5008427169042022
 30
0.0
 11
3478.3787244390641717
 21
168.4911047912042079
 31
0.0
  0
LINE
  5
15F6C
  8
0
 10
3478.3854414636648471
 20
168.4964464087042018
 30
0.0
 11
3478.3854414636648471
 21
168.5116110075042002
 31
0.0
  0
LINE
  5
15F6D
  8
0
 10
3478.3854414636648471
 20
168.5116110075042002
 30
0.0
 11
3478.4108994283637912
 21
168.5116110075042002
 31
0.0
  0
LINE
  5
15F6E
  8
0
 10
3478.4108994283637912
 20
168.5116110075042002
 30
0.0
 11
3478.4109108096449745
 21
168.4960523095529084
 31
0.0
  0
LINE
  5
15F6F
  8
0
 10
3478.3854414636648471
 20
168.5116110075042002
 30
0.0
 11
3478.3845820446649668
 21
168.51224009910419
 31
0.0
  0
LINE
  5
15F70
  8
0
 10
3478.4108994283637912
 20
168.5116110075042002
 30
0.0
 11
3478.4117588473641263
 21
168.51224009910419
 31
0.0
  0
ARC
  5
15F71
  8
0
 10
3478.3763748402889178
 20
168.4737034346530891
 30
0.0
 40
0.0090667712926778
 50
313.362328950367214
 51
359.6727180842627263
  0
ARC
  5
15F72
  8
0
 10
3478.3825276680531715
 20
168.473743726084308
 30
0.0
 40
0.0066324685970772
 50
235.0105316404319069
 51
270.6263592686698871
  0
ARC
  5
15F73
  8
0
 10
3478.3849216169610372
 20
168.4713657907049935
 30
0.0
 40
0.0048463164361414
 50
241.3791023532783981
 51
256.6429645069093226
  0
ARC
  5
15F74
  8
0
 10
3478.419997693024925
 20
168.4737171811700875
 30
0.0
 40
0.0090985006964213
 50
180.4127079999387036
 51
226.5522449654170885
  0
ARC
  5
15F75
  8
0
 10
3478.4138168125909942
 20
168.4737312052506866
 30
0.0
 40
0.0066199887898959
 50
269.3413985867783822
 51
305.0377738637370157
  0
ARC
  5
15F76
  8
0
 10
3478.4114056292150963
 20
168.4713987179173955
 30
0.0
 40
0.0048817582195363
 50
283.4358509138741056
 51
298.5763675238461019
  0
LINE
  5
15F77
  8
0
 10
3478.3740370766640808
 20
168.4819996134042128
 30
0.0
 11
3478.3854414636648471
 21
168.4736516442042102
 31
0.0
  0
LINE
  5
15F78
  8
0
 10
3478.3854414636648471
 20
168.4736516442042102
 30
0.0
 11
3478.4108994283637912
 21
168.4736516442040966
 31
0.0
  0
LINE
  5
15F79
  8
0
 10
3478.4108994283637912
 20
168.4736516442040966
 30
0.0
 11
3478.4223038154641472
 21
168.4819996134042128
 31
0.0
  0
LINE
  5
15F7A
  8
0
 10
3478.4309196995468483
 20
168.478047952404097
 30
0.0
 11
3478.417617456464086
 21
168.4683109324041084
 31
0.0
  0
LINE
  5
15F7B
  8
0
 10
3478.3838020287839754
 20
168.466650570104207
 30
0.0
 11
3478.4125399376639507
 21
168.466650570104207
 31
0.0
  0
LINE
  5
15F7C
  8
0
 10
3478.3654211946550276
 20
168.478047952404097
 30
0.0
 11
3478.3787244390641717
 21
168.4683100267041027
 31
0.0
  0
LINE
  5
15F7D
  8
0
 10
3478.3854414636648471
 20
168.4736516442042102
 30
0.0
 11
3478.3854414636648471
 21
168.488816243004095
 31
0.0
  0
LINE
  5
15F7E
  8
0
 10
3478.3854414636648471
 20
168.488816243004095
 30
0.0
 11
3478.4108994283637912
 21
168.488816243004095
 31
0.0
  0
LINE
  5
15F7F
  8
0
 10
3478.4108994283637912
 20
168.488816243004095
 30
0.0
 11
3478.4109108096449745
 21
168.4732575450530021
 31
0.0
  0
LINE
  5
15F80
  8
0
 10
3478.3854414636648471
 20
168.488816243004095
 30
0.0
 11
3478.3845820446649668
 21
168.4894453346041132
 31
0.0
  0
LINE
  5
15F81
  8
0
 10
3478.4108994283637912
 20
168.488816243004095
 30
0.0
 11
3478.4117588473641263
 21
168.4894453346041132
 31
0.0
  0
ARC
  5
15F82
  8
0
 10
3478.3763748402889178
 20
168.45090867005311
 30
0.0
 40
0.0090667712926778
 50
313.362328950367214
 51
359.6727180842627263
  0
ARC
  5
15F83
  8
0
 10
3478.3825276680531715
 20
168.4509489614843005
 30
0.0
 40
0.0066324685970772
 50
235.0105316404319069
 51
270.6263592686698871
  0
ARC
  5
15F84
  8
0
 10
3478.3849216169610372
 20
168.448571026104986
 30
0.0
 40
0.0048463164361414
 50
241.3791023532783981
 51
256.6429645069093226
  0
ARC
  5
15F85
  8
0
 10
3478.419997693024925
 20
168.4509224165701085
 30
0.0
 40
0.0090985006964213
 50
180.4127079999387036
 51
226.5522449654170885
  0
ARC
  5
15F86
  8
0
 10
3478.4138168125909942
 20
168.4509364406507075
 30
0.0
 40
0.0066199887898959
 50
269.3413985867783822
 51
305.0377738637370157
  0
ARC
  5
15F87
  8
0
 10
3478.4114056292150963
 20
168.448603953317388
 30
0.0
 40
0.0048817582195363
 50
283.4358509138741056
 51
298.5763675238461019
  0
LINE
  5
15F88
  8
0
 10
3478.3740370766640808
 20
168.4592048488042053
 30
0.0
 11
3478.3854414636648471
 21
168.450856879604089
 31
0.0
  0
LINE
  5
15F89
  8
0
 10
3478.3854414636648471
 20
168.450856879604089
 30
0.0
 11
3478.4108994283637912
 21
168.450856879604089
 31
0.0
  0
LINE
  5
15F8A
  8
0
 10
3478.4108994283637912
 20
168.450856879604089
 30
0.0
 11
3478.4223038154641472
 21
168.4592048488042053
 31
0.0
  0
LINE
  5
15F8B
  8
0
 10
3478.4309196995468483
 20
168.4552531878042032
 30
0.0
 11
3478.417617456464086
 21
168.4455161678041009
 31
0.0
  0
LINE
  5
15F8C
  8
0
 10
3478.3838020287839754
 20
168.4438558055041995
 30
0.0
 11
3478.4125399376639507
 21
168.4438558055041995
 31
0.0
  0
LINE
  5
15F8D
  8
0
 10
3478.3654211946550276
 20
168.4552531878042032
 30
0.0
 11
3478.3787244390641717
 21
168.4455152621042089
 31
0.0
  0
LINE
  5
15F8E
  8
0
 10
3478.3854414636648471
 20
168.450856879604089
 30
0.0
 11
3478.3854414636648471
 21
168.4660214784040875
 31
0.0
  0
LINE
  5
15F8F
  8
0
 10
3478.3854414636648471
 20
168.4660214784040875
 30
0.0
 11
3478.4108994283637912
 21
168.4660214784040875
 31
0.0
  0
LINE
  5
15F90
  8
0
 10
3478.4108994283637912
 20
168.4660214784040875
 30
0.0
 11
3478.4109108096449745
 21
168.4504627804529093
 31
0.0
  0
LINE
  5
15F91
  8
0
 10
3478.3854414636648471
 20
168.4660214784040875
 30
0.0
 11
3478.3845820446649668
 21
168.4666505700041057
 31
0.0
  0
LINE
  5
15F92
  8
0
 10
3478.4108994283637912
 20
168.4660214784040875
 30
0.0
 11
3478.4117588473641263
 21
168.4666505700041057
 31
0.0
  0
ARC
  5
15F93
  8
0
 10
3478.4230856593389944
 20
168.4623060523531137
 30
0.0
 40
0.0090667712926778
 50
313.362328950367214
 51
359.6727180842627263
  0
ARC
  5
15F94
  8
0
 10
3478.4292384871018839
 20
168.4623463437843043
 30
0.0
 40
0.0066324685970772
 50
235.0105316404319069
 51
270.6263592686698871
  0
ARC
  5
15F95
  8
0
 10
3478.4316324360111139
 20
168.4599684084049898
 30
0.0
 40
0.0048463164361414
 50
241.3791023532783981
 51
256.6429645069093226
  0
ARC
  5
15F96
  8
0
 10
3478.4667085120750016
 20
168.4623197988701122
 30
0.0
 40
0.0090985006964213
 50
180.4127079999387036
 51
226.5522449654170885
  0
ARC
  5
15F97
  8
0
 10
3478.4605276316419804
 20
168.4623338229507112
 30
0.0
 40
0.0066199887898959
 50
269.3413985867783822
 51
305.0377738637370157
  0
ARC
  5
15F98
  8
0
 10
3478.4581164482651729
 20
168.4600013356173918
 30
0.0
 40
0.0048817582195363
 50
283.4358509138741056
 51
298.5763675238461019
  0
LINE
  5
15F99
  8
0
 10
3478.4207478957141575
 20
168.4706022311042091
 30
0.0
 11
3478.4321522827140143
 21
168.4622542619042065
 31
0.0
  0
LINE
  5
15F9A
  8
0
 10
3478.4321522827140143
 20
168.4622542619042065
 30
0.0
 11
3478.4576102474138679
 21
168.4622542619042065
 31
0.0
  0
LINE
  5
15F9B
  8
0
 10
3478.4576102474138679
 20
168.4622542619042065
 30
0.0
 11
3478.4690146345142239
 21
168.4706022311042091
 31
0.0
  0
LINE
  5
15F9C
  8
0
 10
3478.477630518596925
 20
168.466650570104207
 30
0.0
 11
3478.4643282755141627
 21
168.4569135501041046
 31
0.0
  0
LINE
  5
15F9D
  8
0
 10
3478.4305128478349616
 20
168.4552531878042032
 30
0.0
 11
3478.4592507567140274
 21
168.4552531878042032
 31
0.0
  0
LINE
  5
15F9E
  8
0
 10
3478.4121320137051043
 20
168.466650570104207
 30
0.0
 11
3478.4254352581137937
 21
168.456912644404099
 31
0.0
  0
LINE
  5
15F9F
  8
0
 10
3478.4321522827140143
 20
168.4622542619042065
 30
0.0
 11
3478.4321522827140143
 21
168.4774188607040912
 31
0.0
  0
LINE
  5
15FA0
  8
0
 10
3478.4321522827140143
 20
168.4774188607040912
 30
0.0
 11
3478.4576102474138679
 21
168.4774188607040912
 31
0.0
  0
LINE
  5
15FA1
  8
0
 10
3478.4576102474138679
 20
168.4774188607040912
 30
0.0
 11
3478.4576216286941417
 21
168.4618601627529131
 31
0.0
  0
LINE
  5
15FA2
  8
0
 10
3478.4321522827140143
 20
168.4774188607040912
 30
0.0
 11
3478.431292863714134
 21
168.4780479523041095
 31
0.0
  0
LINE
  5
15FA3
  8
0
 10
3478.4576102474138679
 20
168.4774188607040912
 30
0.0
 11
3478.4584696664142029
 21
168.4780479523041095
 31
0.0
  0
ARC
  5
15FA4
  8
0
 10
3478.4230856593389944
 20
168.4395112878530085
 30
0.0
 40
0.0090667712926778
 50
313.362328950367214
 51
359.6727180842627263
  0
ARC
  5
15FA5
  8
0
 10
3478.4292384871018839
 20
168.4395515792843128
 30
0.0
 40
0.0066324685970772
 50
235.0105316404319069
 51
270.6263592686698871
  0
ARC
  5
15FA6
  8
0
 10
3478.4316324360111139
 20
168.4371736439049982
 30
0.0
 40
0.0048463164361414
 50
241.3791023532783981
 51
256.6429645069093226
  0
ARC
  5
15FA7
  8
0
 10
3478.4667085120750016
 20
168.439525034370206
 30
0.0
 40
0.0090985006964213
 50
180.4127079999387036
 51
226.5522449654170885
  0
ARC
  5
15FA8
  8
0
 10
3478.4581164482651729
 20
168.4372065711174002
 30
0.0
 40
0.0048817582195363
 50
283.4358509138741056
 51
298.5763675238461019
  0
LINE
  5
15FA9
  8
0
 10
3478.4207478957141575
 20
168.4478074666041039
 30
0.0
 11
3478.4321522827140143
 21
168.4394594974041865
 31
0.0
  0
LINE
  5
15FAA
  8
0
 10
3478.4321522827140143
 20
168.4394594974041865
 30
0.0
 11
3478.4576102474138679
 21
168.4394594974041865
 31
0.0
  0
LINE
  5
15FAB
  8
0
 10
3478.4576102474138679
 20
168.4394594974041865
 30
0.0
 11
3478.4690146345142239
 21
168.4478074666041039
 31
0.0
  0
LINE
  5
15FAC
  8
0
 10
3478.4305128478349616
 20
168.4324584233042117
 30
0.0
 11
3478.4592507567140274
 21
168.4324584233042117
 31
0.0
  0
LINE
  5
15FAD
  8
0
 10
3478.4121320137051043
 20
168.443855805604187
 30
0.0
 11
3478.4254352581137937
 21
168.4341178799041074
 31
0.0
  0
LINE
  5
15FAE
  8
0
 10
3478.4321522827140143
 20
168.4394594974041865
 30
0.0
 11
3478.4321522827140143
 21
168.4546240962040997
 31
0.0
  0
LINE
  5
15FAF
  8
0
 10
3478.4321522827140143
 20
168.4546240962040997
 30
0.0
 11
3478.4576102474138679
 21
168.4546240962040997
 31
0.0
  0
LINE
  5
15FB0
  8
0
 10
3478.4576102474138679
 20
168.4546240962040997
 30
0.0
 11
3478.4576216286941417
 21
168.4390653982528931
 31
0.0
  0
LINE
  5
15FB1
  8
0
 10
3478.4321522827140143
 20
168.4546240962040997
 30
0.0
 11
3478.431292863714134
 21
168.4552531878042032
 31
0.0
  0
LINE
  5
15FB2
  8
0
 10
3478.4576102474138679
 20
168.4546240962040997
 30
0.0
 11
3478.4584696664142029
 21
168.4552531878042032
 31
0.0
  0
ARC
  5
15FB3
  8
0
 10
3478.4697964783390489
 20
168.4737034346530891
 30
0.0
 40
0.0090667712926778
 50
313.362328950367214
 51
359.6727180842627263
  0
ARC
  5
15FB4
  8
0
 10
3478.4759493061028479
 20
168.473743726084308
 30
0.0
 40
0.0066324685970772
 50
235.0105316404319069
 51
270.6263592686698871
  0
ARC
  5
15FB5
  8
0
 10
3478.4783432550111684
 20
168.4713657907049935
 30
0.0
 40
0.0048463164361414
 50
241.3791023532783981
 51
256.6429645069093226
  0
ARC
  5
15FB6
  8
0
 10
3478.5134193310741466
 20
168.4737171811700875
 30
0.0
 40
0.0090985006964213
 50
180.4127079999387036
 51
226.5522449654170885
  0
ARC
  5
15FB7
  8
0
 10
3478.5072384506411254
 20
168.4737312052506866
 30
0.0
 40
0.0066199887898959
 50
269.3413985867783822
 51
305.0377738637370157
  0
ARC
  5
15FB8
  8
0
 10
3478.5048272672647727
 20
168.4713987179173955
 30
0.0
 40
0.0048817582195363
 50
283.4358509138741056
 51
298.5763675238461019
  0
LINE
  5
15FB9
  8
0
 10
3478.467458714714212
 20
168.4819996134042128
 30
0.0
 11
3478.4788631017140688
 21
168.4736516442042102
 31
0.0
  0
LINE
  5
15FBA
  8
0
 10
3478.4788631017140688
 20
168.4736516442042102
 30
0.0
 11
3478.5043210664139224
 21
168.4736516442040966
 31
0.0
  0
LINE
  5
15FBB
  8
0
 10
3478.5043210664139224
 20
168.4736516442040966
 30
0.0
 11
3478.5157254535138236
 21
168.4819996134042128
 31
0.0
  0
LINE
  5
15FBC
  8
0
 10
3478.5243413375969794
 20
168.478047952404097
 30
0.0
 11
3478.5110390945142171
 21
168.4683109324041084
 31
0.0
  0
LINE
  5
15FBD
  8
0
 10
3478.4772236668341066
 20
168.466650570104207
 30
0.0
 11
3478.5059615757140818
 21
168.466650570104207
 31
0.0
  0
LINE
  5
15FBE
  8
0
 10
3478.4588428327051588
 20
168.478047952404097
 30
0.0
 11
3478.4721460771138482
 21
168.4683100267041027
 31
0.0
  0
LINE
  5
15FBF
  8
0
 10
3478.4788631017140688
 20
168.4736516442042102
 30
0.0
 11
3478.4788631017140688
 21
168.488816243004095
 31
0.0
  0
LINE
  5
15FC0
  8
0
 10
3478.4788631017140688
 20
168.488816243004095
 30
0.0
 11
3478.5043210664139224
 21
168.488816243004095
 31
0.0
  0
LINE
  5
15FC1
  8
0
 10
3478.5043210664139224
 20
168.488816243004095
 30
0.0
 11
3478.5043324476951057
 21
168.4732575450530021
 31
0.0
  0
LINE
  5
15FC2
  8
0
 10
3478.4788631017140688
 20
168.488816243004095
 30
0.0
 11
3478.4780036827141885
 21
168.4894453346041132
 31
0.0
  0
LINE
  5
15FC3
  8
0
 10
3478.5043210664139224
 20
168.488816243004095
 30
0.0
 11
3478.5051804854138027
 21
168.4894453346041132
 31
0.0
  0
ARC
  5
15FC4
  8
0
 10
3478.4697964783390489
 20
168.496498199153109
 30
0.0
 40
0.0090667712926778
 50
313.362328950367214
 51
359.6727180842627263
  0
ARC
  5
15FC5
  8
0
 10
3478.4759493061028479
 20
168.4965384905842996
 30
0.0
 40
0.0066324685970772
 50
235.0105316404319069
 51
270.6263592686698871
  0
ARC
  5
15FC6
  8
0
 10
3478.4783432550111684
 20
168.4941605552050135
 30
0.0
 40
0.0048463164361414
 50
241.3791023532783981
 51
256.6429645069093226
  0
ARC
  5
15FC7
  8
0
 10
3478.5134193310741466
 20
168.4965119456701075
 30
0.0
 40
0.0090985006964213
 50
180.4127079999387036
 51
226.5522449654170885
  0
ARC
  5
15FC8
  8
0
 10
3478.5048272672647727
 20
168.494193482417387
 30
0.0
 40
0.0048817582195363
 50
283.4358509138741056
 51
298.5763675238461019
  0
LINE
  5
15FC9
  8
0
 10
3478.467458714714212
 20
168.5047943779040907
 30
0.0
 11
3478.4788631017140688
 21
168.4964464087042018
 31
0.0
  0
LINE
  5
15FCA
  8
0
 10
3478.4788631017140688
 20
168.4964464087042018
 30
0.0
 11
3478.5043210664139224
 21
168.4964464087042018
 31
0.0
  0
LINE
  5
15FCB
  8
0
 10
3478.5043210664139224
 20
168.4964464087042018
 30
0.0
 11
3478.5157254535138236
 21
168.5047943779040907
 31
0.0
  0
LINE
  5
15FCC
  8
0
 10
3478.4772236668341066
 20
168.4894453346041132
 30
0.0
 11
3478.5059615757140818
 21
168.4894453346041132
 31
0.0
  0
LINE
  5
15FCD
  8
0
 10
3478.4588428327051588
 20
168.5008427169042022
 30
0.0
 11
3478.4721460771138482
 21
168.4911047912042079
 31
0.0
  0
LINE
  5
15FCE
  8
0
 10
3478.4788631017140688
 20
168.4964464087042018
 30
0.0
 11
3478.4788631017140688
 21
168.5116110075042002
 31
0.0
  0
LINE
  5
15FCF
  8
0
 10
3478.4788631017140688
 20
168.5116110075042002
 30
0.0
 11
3478.5043210664139224
 21
168.5116110075042002
 31
0.0
  0
LINE
  5
15FD0
  8
0
 10
3478.5043210664139224
 20
168.5116110075042002
 30
0.0
 11
3478.5043324476951057
 21
168.4960523095529084
 31
0.0
  0
LINE
  5
15FD1
  8
0
 10
3478.4788631017140688
 20
168.5116110075042002
 30
0.0
 11
3478.4780036827141885
 21
168.51224009910419
 31
0.0
  0
LINE
  5
15FD2
  8
0
 10
3478.5043210664139224
 20
168.5116110075042002
 30
0.0
 11
3478.5051804854138027
 21
168.51224009910419
 31
0.0
  0
ARC
  5
15FD3
  8
0
 10
3478.4230856593389944
 20
168.4851008168531052
 30
0.0
 40
0.0090667712926778
 50
313.362328950367214
 51
359.6727180842627263
  0
ARC
  5
15FD4
  8
0
 10
3478.4292384871018839
 20
168.4851411082842958
 30
0.0
 40
0.0066324685970772
 50
235.0105316404319069
 51
270.6263592686698871
  0
ARC
  5
15FD5
  8
0
 10
3478.4316324360111139
 20
168.482763172904896
 30
0.0
 40
0.0048463164361414
 50
241.3791023532783981
 51
256.6429645069093226
  0
ARC
  5
15FD6
  8
0
 10
3478.4667085120750016
 20
168.4851145633701037
 30
0.0
 40
0.0090985006964213
 50
180.4127079999387036
 51
226.5522449654170885
  0
ARC
  5
15FD7
  8
0
 10
3478.4605276316419804
 20
168.4851285874507028
 30
0.0
 40
0.0066199887898959
 50
269.3413985867783822
 51
305.0377738637370157
  0
ARC
  5
15FD8
  8
0
 10
3478.4581164482651729
 20
168.4827961001174117
 30
0.0
 40
0.0048817582195363
 50
283.4358509138741056
 51
298.5763675238461019
  0
LINE
  5
15FD9
  8
0
 10
3478.4207478957141575
 20
168.4933969956040869
 30
0.0
 11
3478.4321522827140143
 21
168.4850490264041127
 31
0.0
  0
LINE
  5
15FDA
  8
0
 10
3478.4321522827140143
 20
168.4850490264041127
 30
0.0
 11
3478.4576102474138679
 21
168.4850490264041127
 31
0.0
  0
LINE
  5
15FDB
  8
0
 10
3478.4576102474138679
 20
168.4850490264041127
 30
0.0
 11
3478.4690146345142239
 21
168.4933969956040869
 31
0.0
  0
LINE
  5
15FDC
  8
0
 10
3478.477630518596925
 20
168.4894453346041132
 30
0.0
 11
3478.4643282755141627
 21
168.4797083146042098
 31
0.0
  0
LINE
  5
15FDD
  8
0
 10
3478.4305128478349616
 20
168.4780479523041095
 30
0.0
 11
3478.4592507567140274
 21
168.4780479523041095
 31
0.0
  0
LINE
  5
15FDE
  8
0
 10
3478.4121320137051043
 20
168.4894453346041132
 30
0.0
 11
3478.4254352581137937
 21
168.4797074089042042
 31
0.0
  0
LINE
  5
15FDF
  8
0
 10
3478.4321522827140143
 20
168.4850490264041127
 30
0.0
 11
3478.4321522827140143
 21
168.5002136252041112
 31
0.0
  0
LINE
  5
15FE0
  8
0
 10
3478.4321522827140143
 20
168.5002136252041112
 30
0.0
 11
3478.4576102474138679
 21
168.5002136252041112
 31
0.0
  0
LINE
  5
15FE1
  8
0
 10
3478.4576102474138679
 20
168.5002136252041112
 30
0.0
 11
3478.4576216286941417
 21
168.4846549272529046
 31
0.0
  0
LINE
  5
15FE2
  8
0
 10
3478.4321522827140143
 20
168.5002136252041112
 30
0.0
 11
3478.431292863714134
 21
168.5008427168041862
 31
0.0
  0
LINE
  5
15FE3
  8
0
 10
3478.4576102474138679
 20
168.5002136252041112
 30
0.0
 11
3478.4584696664142029
 21
168.5008427168041862
 31
0.0
  0
ARC
  5
15FE4
  8
0
 10
3478.4230856593389944
 20
168.5078955813530115
 30
0.0
 40
0.0090667712926778
 50
313.362328950367214
 51
359.6727180842627263
  0
ARC
  5
15FE5
  8
0
 10
3478.4292384871018839
 20
168.5079358727842873
 30
0.0
 40
0.0066324685970772
 50
235.0105316404319069
 51
270.6263592686698871
  0
ARC
  5
15FE6
  8
0
 10
3478.4316324360111139
 20
168.5055579374050012
 30
0.0
 40
0.0048463164361414
 50
241.3791023532783981
 51
256.6429645069093226
  0
ARC
  5
15FE7
  8
0
 10
3478.4667085120750016
 20
168.5079093278700952
 30
0.0
 40
0.0090985006964213
 50
180.4127079999387036
 51
226.5522449654170885
  0
ARC
  5
15FE8
  8
0
 10
3478.4605276316419804
 20
168.5079233519506943
 30
0.0
 40
0.0066199887898959
 50
269.3413985867783822
 51
305.0377738637370157
  0
ARC
  5
15FE9
  8
0
 10
3478.4581164482651729
 20
168.5055908646174032
 30
0.0
 40
0.0048817582195363
 50
283.4358509138741056
 51
298.5763675238461019
  0
LINE
  5
15FEA
  8
0
 10
3478.4207478957141575
 20
168.5161917601041068
 30
0.0
 11
3478.4321522827140143
 21
168.5078437909041895
 31
0.0
  0
LINE
  5
15FEB
  8
0
 10
3478.4321522827140143
 20
168.5078437909041895
 30
0.0
 11
3478.4576102474138679
 21
168.5078437909041043
 31
0.0
  0
LINE
  5
15FEC
  8
0
 10
3478.4576102474138679
 20
168.5078437909041043
 30
0.0
 11
3478.4690146345142239
 21
168.5161917601041068
 31
0.0
  0
LINE
  5
15FED
  8
0
 10
3478.477630518596925
 20
168.51224009910419
 30
0.0
 11
3478.4643282755141627
 21
168.5025030791040876
 31
0.0
  0
LINE
  5
15FEE
  8
0
 10
3478.4305128478349616
 20
168.5008427168041862
 30
0.0
 11
3478.4592507567140274
 21
168.5008427168041862
 31
0.0
  0
LINE
  5
15FEF
  8
0
 10
3478.4121320137051043
 20
168.51224009910419
 30
0.0
 11
3478.4254352581137937
 21
168.5025021734041104
 31
0.0
  0
LINE
  5
15FF0
  8
0
 10
3478.4321522827140143
 20
168.5078437909041895
 30
0.0
 11
3478.4321522827140143
 21
168.5230083897041027
 31
0.0
  0
LINE
  5
15FF1
  8
0
 10
3478.4321522827140143
 20
168.5230083897041027
 30
0.0
 11
3478.4576102474138679
 21
168.5230083897041027
 31
0.0
  0
LINE
  5
15FF2
  8
0
 10
3478.4576102474138679
 20
168.5230083897041027
 30
0.0
 11
3478.4576216286941417
 21
168.5074496917528961
 31
0.0
  0
LINE
  5
15FF3
  8
0
 10
3478.4321522827140143
 20
168.5230083897041027
 30
0.0
 11
3478.431292863714134
 21
168.5236374813042062
 31
0.0
  0
LINE
  5
15FF4
  8
0
 10
3478.4576102474138679
 20
168.5230083897041027
 30
0.0
 11
3478.4584696664142029
 21
168.5236374813042062
 31
0.0
  0
ARC
  5
15FF5
  8
0
 10
3478.3763748402889178
 20
168.542087728153092
 30
0.0
 40
0.0090667712926778
 50
313.362328950367214
 51
359.6727180842627263
  0
ARC
  5
15FF6
  8
0
 10
3478.3825276680531715
 20
168.542128019584311
 30
0.0
 40
0.0066324685970772
 50
235.0105316404319069
 51
270.6263592686698871
  0
ARC
  5
15FF7
  8
0
 10
3478.3849216169610372
 20
168.5397500842049965
 30
0.0
 40
0.0048463164361414
 50
241.3791023532783981
 51
256.6429645069093226
  0
ARC
  5
15FF8
  8
0
 10
3478.419997693024925
 20
168.5421014746700905
 30
0.0
 40
0.0090985006964213
 50
180.4127079999387036
 51
226.5522449654170885
  0
ARC
  5
15FF9
  8
0
 10
3478.4114056292150963
 20
168.5397830114173985
 30
0.0
 40
0.0048817582195363
 50
283.4358509138741056
 51
298.5763675238461019
  0
LINE
  5
15FFA
  8
0
 10
3478.37789018316289
 20
168.5475634471654018
 30
0.0
 11
3478.3854414636648471
 21
168.5420359377040995
 31
0.0
  0
LINE
  5
15FFB
  8
0
 10
3478.3854414636648471
 20
168.5420359377040995
 30
0.0
 11
3478.4108994283637912
 21
168.5420359377040995
 31
0.0
  0
LINE
  5
15FFC
  8
0
 10
3478.4108994283637912
 20
168.5420359377040995
 30
0.0
 11
3478.4223038154641472
 21
168.5503839069041874
 31
0.0
  0
LINE
  5
15FFD
  8
0
 10
3478.3838020287839754
 20
168.5350348636042099
 30
0.0
 11
3478.4125399376639507
 21
168.5350348636042099
 31
0.0
  0
LINE
  5
15FFE
  8
0
 10
3478.3688617564889682
 20
168.5439137673677976
 30
0.0
 11
3478.3787244390641717
 21
168.5366943202041057
 31
0.0
  0
LINE
  5
15FFF
  8
0
 10
3478.3854414636648471
 20
168.5420359377040995
 30
0.0
 11
3478.3854414636648471
 21
168.5503471928865054
 31
0.0
  0
LINE
  5
16000
  8
0
 10
3478.4074884195651975
 20
168.5572005365042116
 30
0.0
 11
3478.4108994283637912
 21
168.5572005365042116
 31
0.0
  0
LINE
  5
16001
  8
0
 10
3478.4108994283637912
 20
168.5572005365042116
 30
0.0
 11
3478.4109108096449745
 21
168.5416418385528914
 31
0.0
  0
LINE
  5
16002
  8
0
 10
3478.4108994283637912
 20
168.5572005365042116
 30
0.0
 11
3478.4129069113109836
 21
168.5586700067619006
 31
0.0
  0
ARC
  5
16003
  8
0
 10
3478.4697964783390489
 20
168.542087728153092
 30
0.0
 40
0.0090667712926778
 50
313.362328950367214
 51
359.6727180842627263
  0
ARC
  5
16004
  8
0
 10
3478.4783432550111684
 20
168.5397500842049965
 30
0.0
 40
0.0048463164361414
 50
241.3791023532783981
 51
256.6429645069093226
  0
ARC
  5
16005
  8
0
 10
3478.5134193310741466
 20
168.5421014746700905
 30
0.0
 40
0.0090985006964213
 50
180.4127079999387036
 51
226.5522449654170885
  0
ARC
  5
16006
  8
0
 10
3478.5072384506411254
 20
168.5421154987506895
 30
0.0
 40
0.0066199887898959
 50
269.3413985867783822
 51
305.0377738637370157
  0
ARC
  5
16007
  8
0
 10
3478.5048272672647727
 20
168.5397830114173985
 30
0.0
 40
0.0048817582195363
 50
283.4358509138741056
 51
298.5763675238461019
  0
LINE
  5
16008
  8
0
 10
3478.467458714714212
 20
168.5503839069041874
 30
0.0
 11
3478.4788631017140688
 21
168.5420359377040995
 31
0.0
  0
LINE
  5
16009
  8
0
 10
3478.4788631017140688
 20
168.5420359377040995
 30
0.0
 11
3478.5043210664139224
 21
168.5420359377040995
 31
0.0
  0
LINE
  5
1600A
  8
0
 10
3478.5043210664139224
 20
168.5420359377040995
 30
0.0
 11
3478.5157254535138236
 21
168.5503839069041874
 31
0.0
  0
LINE
  5
1600B
  8
0
 10
3478.5243413375969794
 20
168.5464322459041
 30
0.0
 11
3478.5110390945142171
 21
168.5366952259041113
 31
0.0
  0
LINE
  5
1600C
  8
0
 10
3478.4772236668341066
 20
168.5350348636042099
 30
0.0
 11
3478.5059615757140818
 21
168.5350348636042099
 31
0.0
  0
LINE
  5
1600D
  8
0
 10
3478.4788631017140688
 20
168.5420359377040995
 30
0.0
 11
3478.4788631017140688
 21
168.5572005365042116
 31
0.0
  0
LINE
  5
1600E
  8
0
 10
3478.4788631017140688
 20
168.5572005365042116
 30
0.0
 11
3478.5043210664139224
 21
168.5572005365042116
 31
0.0
  0
LINE
  5
1600F
  8
0
 10
3478.5043210664139224
 20
168.5572005365042116
 30
0.0
 11
3478.5043324476951057
 21
168.5416418385528914
 31
0.0
  0
LINE
  5
16010
  8
0
 10
3478.4788631017140688
 20
168.5572005365042116
 30
0.0
 11
3478.4780036827141885
 21
168.5578296281040878
 31
0.0
  0
LINE
  5
16011
  8
0
 10
3478.5043210664139224
 20
168.5572005365042116
 30
0.0
 11
3478.5051804854138027
 21
168.5578296281040878
 31
0.0
  0
ARC
  5
16012
  8
0
 10
3478.4697964783390489
 20
168.5192929636529868
 30
0.0
 40
0.0090667712926778
 50
313.362328950367214
 51
359.6727180842627263
  0
ARC
  5
16013
  8
0
 10
3478.4759493061028479
 20
168.5193332550842911
 30
0.0
 40
0.0066324685970772
 50
235.0105316404319069
 51
270.6263592686698871
  0
ARC
  5
16014
  8
0
 10
3478.4783432550111684
 20
168.516955319705005
 30
0.0
 40
0.0048463164361414
 50
241.3791023532783981
 51
256.6429645069093226
  0
ARC
  5
16015
  8
0
 10
3478.5134193310741466
 20
168.519306710170099
 30
0.0
 40
0.0090985006964213
 50
180.4127079999387036
 51
226.5522449654170885
  0
ARC
  5
16016
  8
0
 10
3478.5072384506411254
 20
168.519320734250698
 30
0.0
 40
0.0066199887898959
 50
269.3413985867783822
 51
305.0377738637370157
  0
ARC
  5
16017
  8
0
 10
3478.5048272672647727
 20
168.516988246917407
 30
0.0
 40
0.0048817582195363
 50
283.4358509138741056
 51
298.5763675238461019
  0
LINE
  5
16018
  8
0
 10
3478.467458714714212
 20
168.5275891424041106
 30
0.0
 11
3478.4788631017140688
 21
168.519241173204108
 31
0.0
  0
LINE
  5
16019
  8
0
 10
3478.4788631017140688
 20
168.519241173204108
 30
0.0
 11
3478.5043210664139224
 21
168.519241173204108
 31
0.0
  0
LINE
  5
1601A
  8
0
 10
3478.5043210664139224
 20
168.519241173204108
 30
0.0
 11
3478.5157254535138236
 21
168.5275891424041106
 31
0.0
  0
LINE
  5
1601B
  8
0
 10
3478.5243413375969794
 20
168.5236374814041085
 30
0.0
 11
3478.5110390945142171
 21
168.5139004614040914
 31
0.0
  0
LINE
  5
1601C
  8
0
 10
3478.4772236668341066
 20
168.51224009910419
 30
0.0
 11
3478.5059615757140818
 21
168.51224009910419
 31
0.0
  0
LINE
  5
1601D
  8
0
 10
3478.4588428327051588
 20
168.5236374814041085
 30
0.0
 11
3478.4721460771138482
 21
168.5138995557041142
 31
0.0
  0
LINE
  5
1601E
  8
0
 10
3478.4788631017140688
 20
168.519241173204108
 30
0.0
 11
3478.4788631017140688
 21
168.5344057720041064
 31
0.0
  0
LINE
  5
1601F
  8
0
 10
3478.4788631017140688
 20
168.5344057720041064
 30
0.0
 11
3478.5043210664139224
 21
168.5344057720041064
 31
0.0
  0
LINE
  5
16020
  8
0
 10
3478.5043210664139224
 20
168.5344057720041064
 30
0.0
 11
3478.5043324476951057
 21
168.5188470740530136
 31
0.0
  0
LINE
  5
16021
  8
0
 10
3478.4788631017140688
 20
168.5344057720041064
 30
0.0
 11
3478.4780036827141885
 21
168.5350348636042099
 31
0.0
  0
LINE
  5
16022
  8
0
 10
3478.5043210664139224
 20
168.5344057720041064
 30
0.0
 11
3478.5051804854138027
 21
168.5350348636042099
 31
0.0
  0
ARC
  5
16023
  8
0
 10
3478.5165072973891256
 20
168.5306903458530883
 30
0.0
 40
0.0090667712926778
 50
313.362328950367214
 51
359.6727180842627263
  0
ARC
  5
16024
  8
0
 10
3478.5226601251529246
 20
168.5307306372843072
 30
0.0
 40
0.0066324685970772
 50
235.0105316404319069
 51
270.6263592686698871
  0
ARC
  5
16025
  8
0
 10
3478.5250540740607903
 20
168.5283527019049927
 30
0.0
 40
0.0048463164361414
 50
241.3791023532783981
 51
256.6429645069093226
  0
ARC
  5
16026
  8
0
 10
3478.5601301501251328
 20
168.5307040923700868
 30
0.0
 40
0.0090985006964213
 50
180.4127079999387036
 51
226.5522449654170885
  0
ARC
  5
16027
  8
0
 10
3478.5539492696912021
 20
168.5307181164507142
 30
0.0
 40
0.0066199887898959
 50
269.3413985867783822
 51
305.0377738637370157
  0
ARC
  5
16028
  8
0
 10
3478.5515380863148494
 20
168.5283856291173947
 30
0.0
 40
0.0048817582195363
 50
283.4358509138741056
 51
298.5763675238461019
  0
LINE
  5
16029
  8
0
 10
3478.5141695337638339
 20
168.538986524604212
 30
0.0
 11
3478.5255739207650549
 21
168.5306385554040958
 31
0.0
  0
LINE
  5
1602A
  8
0
 10
3478.5255739207650549
 20
168.5306385554040958
 30
0.0
 11
3478.5510318854639991
 21
168.5306385554040958
 31
0.0
  0
LINE
  5
1602B
  8
0
 10
3478.5510318854639991
 20
168.5306385554040958
 30
0.0
 11
3478.5624362725639003
 21
168.538986524604212
 31
0.0
  0
LINE
  5
1602C
  8
0
 10
3478.5710521566479656
 20
168.5350348636042099
 30
0.0
 11
3478.5577499135638391
 21
168.5252978436041076
 31
0.0
  0
LINE
  5
1602D
  8
0
 10
3478.5239344858850927
 20
168.5236374813042062
 30
0.0
 11
3478.5526723947641585
 21
168.5236374813042062
 31
0.0
  0
LINE
  5
1602E
  8
0
 10
3478.5055536517547807
 20
168.5350348636042099
 30
0.0
 11
3478.5188568961639248
 21
168.5252969379041019
 31
0.0
  0
LINE
  5
1602F
  8
0
 10
3478.5255739207650549
 20
168.5306385554040958
 30
0.0
 11
3478.5255739207650549
 21
168.5458031542040942
 31
0.0
  0
LINE
  5
16030
  8
0
 10
3478.5255739207650549
 20
168.5458031542040942
 30
0.0
 11
3478.5510318854639991
 21
168.5458031542040942
 31
0.0
  0
LINE
  5
16031
  8
0
 10
3478.5510318854639991
 20
168.5458031542040942
 30
0.0
 11
3478.5510432667438181
 21
168.5302444562528876
 31
0.0
  0
LINE
  5
16032
  8
0
 10
3478.5255739207650549
 20
168.5458031542040942
 30
0.0
 11
3478.5247145017651746
 21
168.5464322458041124
 31
0.0
  0
LINE
  5
16033
  8
0
 10
3478.5510318854639991
 20
168.5458031542040942
 30
0.0
 11
3478.5518913044638794
 21
168.5464322458041124
 31
0.0
  0
ARC
  5
16034
  8
0
 10
3478.5165072973891256
 20
168.5534851103531082
 30
0.0
 40
0.0090667712926778
 50
313.362328950367214
 51
359.6727180842627263
  0
ARC
  5
16035
  8
0
 10
3478.5226601251529246
 20
168.5535254017842988
 30
0.0
 40
0.0066324685970772
 50
235.0105316404319069
 51
270.6263592686698871
  0
ARC
  5
16036
  8
0
 10
3478.5250540740607903
 20
168.5511474664050127
 30
0.0
 40
0.0048463164361414
 50
241.3791023532783981
 51
256.6429645069093226
  0
ARC
  5
16037
  8
0
 10
3478.5601301501251328
 20
168.5534988568701067
 30
0.0
 40
0.0090985006964213
 50
180.4127079999387036
 51
226.5522449654170885
  0
ARC
  5
16038
  8
0
 10
3478.5539492696912021
 20
168.5535128809507057
 30
0.0
 40
0.0066199887898959
 50
269.3413985867783822
 51
305.0377738637370157
  0
ARC
  5
16039
  8
0
 10
3478.5515380863148494
 20
168.5511803936173862
 30
0.0
 40
0.0048817582195363
 50
283.4358509138741056
 51
298.5763675238461019
  0
LINE
  5
1603A
  8
0
 10
3478.5141695337638339
 20
168.5617812891040899
 30
0.0
 11
3478.5255739207650549
 21
168.553433319904201
 31
0.0
  0
LINE
  5
1603B
  8
0
 10
3478.5255739207650549
 20
168.553433319904201
 30
0.0
 11
3478.5510318854639991
 21
168.553433319904201
 31
0.0
  0
LINE
  5
1603C
  8
0
 10
3478.5510318854639991
 20
168.553433319904201
 30
0.0
 11
3478.5624362725639003
 21
168.5617812891040899
 31
0.0
  0
LINE
  5
1603D
  8
0
 10
3478.5710521566479656
 20
168.5578296281040878
 30
0.0
 11
3478.5577499135638391
 21
168.5480926081042128
 31
0.0
  0
LINE
  5
1603E
  8
0
 10
3478.5239344858850927
 20
168.5464322458041124
 30
0.0
 11
3478.5526723947641585
 21
168.5464322458041124
 31
0.0
  0
LINE
  5
1603F
  8
0
 10
3478.5055536517547807
 20
168.5578296281040878
 30
0.0
 11
3478.5188568961639248
 21
168.5480917024042071
 31
0.0
  0
LINE
  5
16040
  8
0
 10
3478.5255739207650549
 20
168.553433319904201
 30
0.0
 11
3478.5255739207650549
 21
168.5685979187041141
 31
0.0
  0
LINE
  5
16041
  8
0
 10
3478.5255739207650549
 20
168.5685979187041141
 30
0.0
 11
3478.5510318854639991
 21
168.5685979187041141
 31
0.0
  0
LINE
  5
16042
  8
0
 10
3478.5510318854639991
 20
168.5685979187041141
 30
0.0
 11
3478.5510432667438181
 21
168.5530392207529076
 31
0.0
  0
LINE
  5
16043
  8
0
 10
3478.5255739207650549
 20
168.5685979187041141
 30
0.0
 11
3478.5247145017651746
 21
168.5692270103041892
 31
0.0
  0
LINE
  5
16044
  8
0
 10
3478.5510318854639991
 20
168.5685979187041141
 30
0.0
 11
3478.5518913044638794
 21
168.5692270103041892
 31
0.0
  0
ARC
  5
16045
  8
0
 10
3478.4697964783390489
 20
168.564882492653112
 30
0.0
 40
0.0090667712926778
 50
313.362328950367214
 51
359.6727180842627263
  0
ARC
  5
16046
  8
0
 10
3478.4759493061028479
 20
168.5649227840843025
 30
0.0
 40
0.0066324685970772
 50
235.0105316404319069
 51
270.6263592686698871
  0
ARC
  5
16047
  8
0
 10
3478.4783432550111684
 20
168.562544848704988
 30
0.0
 40
0.0048463164361414
 50
241.3791023532783981
 51
256.6429645069093226
  0
ARC
  5
16048
  8
0
 10
3478.5134193310741466
 20
168.5648962391701104
 30
0.0
 40
0.0090985006964213
 50
180.4127079999387036
 51
226.5522449654170885
  0
ARC
  5
16049
  8
0
 10
3478.5072384506411254
 20
168.5649102632507095
 30
0.0
 40
0.0066199887898959
 50
269.3413985867783822
 51
305.0377738637370157
  0
ARC
  5
1604A
  8
0
 10
3478.5048272672647727
 20
168.56257777591739
 30
0.0
 40
0.0048817582195363
 50
283.4358509138741056
 51
298.5763675238461019
  0
LINE
  5
1604B
  8
0
 10
3478.472109525875112
 20
168.5697742947967868
 30
0.0
 11
3478.4788631017140688
 21
168.5648307022042047
 31
0.0
  0
LINE
  5
1604C
  8
0
 10
3478.4788631017140688
 20
168.5648307022042047
 30
0.0
 11
3478.5043210664139224
 21
168.5648307022042047
 31
0.0
  0
LINE
  5
1604D
  8
0
 10
3478.5043210664139224
 20
168.5648307022042047
 30
0.0
 11
3478.5157238400938695
 21
168.5731774903865983
 31
0.0
  0
LINE
  5
1604E
  8
0
 10
3478.5243413375969794
 20
168.5692270104040915
 30
0.0
 11
3478.5110390945142171
 21
168.5594899904041881
 31
0.0
  0
LINE
  5
1604F
  8
0
 10
3478.4772236668341066
 20
168.5578296281040878
 30
0.0
 11
3478.5059615757140818
 21
168.5578296281040878
 31
0.0
  0
LINE
  5
16050
  8
0
 10
3478.4602843120851503
 20
168.5681718528300053
 30
0.0
 11
3478.4721460771138482
 21
168.5594890847042109
 31
0.0
  0
LINE
  5
16051
  8
0
 10
3478.4788631017140688
 20
168.5648307022042047
 30
0.0
 11
3478.4788631017140688
 21
168.5704687198550005
 31
0.0
  0
LINE
  5
16052
  8
0
 10
3478.504326482957822
 20
168.5725906528901987
 30
0.0
 11
3478.5043324476951057
 21
168.5644366030529966
 31
0.0
  0
ARC
  5
16053
  8
0
 10
3478.5632181163891801
 20
168.564882492653112
 30
0.0
 40
0.0090667712926778
 50
313.362328950367214
 51
359.6727180842627263
  0
ARC
  5
16054
  8
0
 10
3478.5693709441520696
 20
168.5649227840843025
 30
0.0
 40
0.0066324685970772
 50
235.0105316404319069
 51
270.6263592686698871
  0
ARC
  5
16055
  8
0
 10
3478.5717648930608448
 20
168.562544848704988
 30
0.0
 40
0.0048463164361414
 50
241.3791023532783981
 51
256.6429645069093226
  0
ARC
  5
16056
  8
0
 10
3478.6068409691251873
 20
168.5648962391701104
 30
0.0
 40
0.0090985006964213
 50
180.4127079999387036
 51
226.5522449654170885
  0
ARC
  5
16057
  8
0
 10
3478.6006600886908018
 20
168.5649102632507095
 30
0.0
 40
0.0066199887898959
 50
269.3413985867783822
 51
305.0377738637370157
  0
ARC
  5
16058
  8
0
 10
3478.5982489053149038
 20
168.56257777591739
 30
0.0
 40
0.0048817582195363
 50
283.4358509138741056
 51
298.5763675238461019
  0
LINE
  5
16059
  8
0
 10
3478.5608822851481818
 20
168.5731772569062912
 30
0.0
 11
3478.5722847397641999
 21
168.5648307022042047
 31
0.0
  0
LINE
  5
1605A
  8
0
 10
3478.5722847397641999
 20
168.5648307022042047
 30
0.0
 11
3478.5977427044640535
 21
168.5648307022042047
 31
0.0
  0
LINE
  5
1605B
  8
0
 10
3478.5977427044640535
 20
168.5648307022042047
 30
0.0
 11
3478.604495565094112
 21
168.5697737712229127
 31
0.0
  0
LINE
  5
1605C
  8
0
 10
3478.616320544464088
 20
168.5681711748432861
 30
0.0
 11
3478.6044607325638935
 21
168.5594899904041881
 31
0.0
  0
LINE
  5
1605D
  8
0
 10
3478.570645304883783
 20
168.5578296281040878
 30
0.0
 11
3478.599383213764213
 21
168.5578296281040878
 31
0.0
  0
LINE
  5
1605E
  8
0
 10
3478.5522644707548352
 20
168.5692270104040915
 30
0.0
 11
3478.5655677151639793
 21
168.5594890847042109
 31
0.0
  0
LINE
  5
1605F
  8
0
 10
3478.5722847397641999
 20
168.5648307022042047
 30
0.0
 11
3478.5722847397641999
 21
168.5725903216689119
 31
0.0
  0
LINE
  5
16060
  8
0
 10
3478.5977496737759793
 20
168.5704679522397953
 30
0.0
 11
3478.5977540857447821
 21
168.5644366030529966
 31
0.0
  0
ARC
  5
16061
  8
0
 10
3478.5632181163891801
 20
168.542087728153092
 30
0.0
 40
0.0090667712926778
 50
313.362328950367214
 51
359.6727180842627263
  0
ARC
  5
16062
  8
0
 10
3478.5693709441520696
 20
168.542128019584311
 30
0.0
 40
0.0066324685970772
 50
235.0105316404319069
 51
270.6263592686698871
  0
ARC
  5
16063
  8
0
 10
3478.5717648930608448
 20
168.5397500842049965
 30
0.0
 40
0.0048463164361414
 50
241.3791023532783981
 51
256.6429645069093226
  0
ARC
  5
16064
  8
0
 10
3478.6068409691251873
 20
168.5421014746700905
 30
0.0
 40
0.0090985006964213
 50
180.4127079999387036
 51
226.5522449654170885
  0
ARC
  5
16065
  8
0
 10
3478.6006600886908018
 20
168.5421154987506895
 30
0.0
 40
0.0066199887898959
 50
269.3413985867783822
 51
305.0377738637370157
  0
ARC
  5
16066
  8
0
 10
3478.5982489053149038
 20
168.5397830114173985
 30
0.0
 40
0.0048817582195363
 50
283.4358509138741056
 51
298.5763675238461019
  0
LINE
  5
16067
  8
0
 10
3478.5608803527638884
 20
168.5503839069041874
 30
0.0
 11
3478.5722847397641999
 21
168.5420359377040995
 31
0.0
  0
LINE
  5
16068
  8
0
 10
3478.5722847397641999
 20
168.5420359377040995
 30
0.0
 11
3478.5977427044640535
 21
168.5420359377040995
 31
0.0
  0
LINE
  5
16069
  8
0
 10
3478.5977427044640535
 20
168.5420359377040995
 30
0.0
 11
3478.6091470915639547
 21
168.5503839069041874
 31
0.0
  0
LINE
  5
1606A
  8
0
 10
3478.6177629756471106
 20
168.5464322459041
 30
0.0
 11
3478.6044607325638935
 21
168.5366952259041113
 31
0.0
  0
LINE
  5
1606B
  8
0
 10
3478.570645304883783
 20
168.5350348636042099
 30
0.0
 11
3478.599383213764213
 21
168.5350348636042099
 31
0.0
  0
LINE
  5
1606C
  8
0
 10
3478.5522644707548352
 20
168.5464322459041
 30
0.0
 11
3478.5655677151639793
 21
168.5366943202041057
 31
0.0
  0
LINE
  5
1606D
  8
0
 10
3478.5722847397641999
 20
168.5420359377040995
 30
0.0
 11
3478.5722847397641999
 21
168.5572005365042116
 31
0.0
  0
LINE
  5
1606E
  8
0
 10
3478.5722847397641999
 20
168.5572005365042116
 30
0.0
 11
3478.5977427044640535
 21
168.5572005365042116
 31
0.0
  0
LINE
  5
1606F
  8
0
 10
3478.5977427044640535
 20
168.5572005365042116
 30
0.0
 11
3478.5977540857447821
 21
168.5416418385528914
 31
0.0
  0
LINE
  5
16070
  8
0
 10
3478.5722847397641999
 20
168.5572005365042116
 30
0.0
 11
3478.5714253207638649
 21
168.5578296281040878
 31
0.0
  0
LINE
  5
16071
  8
0
 10
3478.5977427044640535
 20
168.5572005365042116
 30
0.0
 11
3478.5986021234639338
 21
168.5578296281040878
 31
0.0
  0
ARC
  5
16072
  8
0
 10
3478.5632181163891801
 20
168.5192929636529868
 30
0.0
 40
0.0090667712926778
 50
313.362328950367214
 51
359.6727180842627263
  0
ARC
  5
16073
  8
0
 10
3478.5693709441520696
 20
168.5193332550842911
 30
0.0
 40
0.0066324685970772
 50
235.0105316404319069
 51
270.6263592686698871
  0
ARC
  5
16074
  8
0
 10
3478.5717648930608448
 20
168.516955319705005
 30
0.0
 40
0.0048463164361414
 50
241.3791023532783981
 51
256.6429645069093226
  0
ARC
  5
16075
  8
0
 10
3478.6068409691251873
 20
168.519306710170099
 30
0.0
 40
0.0090985006964213
 50
180.4127079999387036
 51
226.5522449654170885
  0
ARC
  5
16076
  8
0
 10
3478.6006600886908018
 20
168.519320734250698
 30
0.0
 40
0.0066199887898959
 50
269.3413985867783822
 51
305.0377738637370157
  0
ARC
  5
16077
  8
0
 10
3478.5982489053149038
 20
168.516988246917407
 30
0.0
 40
0.0048817582195363
 50
283.4358509138741056
 51
298.5763675238461019
  0
LINE
  5
16078
  8
0
 10
3478.5608803527638884
 20
168.5275891424041106
 30
0.0
 11
3478.5722847397641999
 21
168.519241173204108
 31
0.0
  0
LINE
  5
16079
  8
0
 10
3478.5722847397641999
 20
168.519241173204108
 30
0.0
 11
3478.5977427044640535
 21
168.519241173204108
 31
0.0
  0
LINE
  5
1607A
  8
0
 10
3478.5977427044640535
 20
168.519241173204108
 30
0.0
 11
3478.6091470915639547
 21
168.5275891424041106
 31
0.0
  0
LINE
  5
1607B
  8
0
 10
3478.6177629756471106
 20
168.5236374814041085
 30
0.0
 11
3478.6044607325638935
 21
168.5139004614040914
 31
0.0
  0
LINE
  5
1607C
  8
0
 10
3478.570645304883783
 20
168.51224009910419
 30
0.0
 11
3478.599383213764213
 21
168.51224009910419
 31
0.0
  0
LINE
  5
1607D
  8
0
 10
3478.5522644707548352
 20
168.5236374814041085
 30
0.0
 11
3478.5655677151639793
 21
168.5138995557041142
 31
0.0
  0
LINE
  5
1607E
  8
0
 10
3478.5722847397641999
 20
168.519241173204108
 30
0.0
 11
3478.5722847397641999
 21
168.5344057720041064
 31
0.0
  0
LINE
  5
1607F
  8
0
 10
3478.5722847397641999
 20
168.5344057720041064
 30
0.0
 11
3478.5977427044640535
 21
168.5344057720041064
 31
0.0
  0
LINE
  5
16080
  8
0
 10
3478.5977427044640535
 20
168.5344057720041064
 30
0.0
 11
3478.5977540857447821
 21
168.5188470740530136
 31
0.0
  0
LINE
  5
16081
  8
0
 10
3478.5722847397641999
 20
168.5344057720041064
 30
0.0
 11
3478.5714253207638649
 21
168.5350348636042099
 31
0.0
  0
LINE
  5
16082
  8
0
 10
3478.5977427044640535
 20
168.5344057720041064
 30
0.0
 11
3478.5986021234639338
 21
168.5350348636042099
 31
0.0
  0
ARC
  5
16083
  8
0
 10
3478.5632181163891801
 20
168.496498199153109
 30
0.0
 40
0.0090667712926778
 50
313.362328950367214
 51
359.6727180842627263
  0
ARC
  5
16084
  8
0
 10
3478.5717648930608448
 20
168.4941605552050135
 30
0.0
 40
0.0048463164361414
 50
241.3791023532783981
 51
256.6429645069093226
  0
ARC
  5
16085
  8
0
 10
3478.6068409691251873
 20
168.4965119456701075
 30
0.0
 40
0.0090985006964213
 50
180.4127079999387036
 51
226.5522449654170885
  0
ARC
  5
16086
  8
0
 10
3478.6006600886908018
 20
168.4965259697507065
 30
0.0
 40
0.0066199887898959
 50
269.3413985867783822
 51
305.0377738637370157
  0
ARC
  5
16087
  8
0
 10
3478.5982489053149038
 20
168.494193482417387
 30
0.0
 40
0.0048817582195363
 50
283.4358509138741056
 51
298.5763675238461019
  0
LINE
  5
16088
  8
0
 10
3478.5608803527638884
 20
168.5047943779040907
 30
0.0
 11
3478.5722847397641999
 21
168.4964464087042018
 31
0.0
  0
LINE
  5
16089
  8
0
 10
3478.5722847397641999
 20
168.4964464087042018
 30
0.0
 11
3478.5977427044640535
 21
168.4964464087042018
 31
0.0
  0
LINE
  5
1608A
  8
0
 10
3478.5977427044640535
 20
168.4964464087042018
 30
0.0
 11
3478.6091470915639547
 21
168.5047943779040907
 31
0.0
  0
LINE
  5
1608B
  8
0
 10
3478.6177629756471106
 20
168.5008427169042022
 30
0.0
 11
3478.6044607325638935
 21
168.4911056969042136
 31
0.0
  0
LINE
  5
1608C
  8
0
 10
3478.570645304883783
 20
168.4894453346041132
 30
0.0
 11
3478.599383213764213
 21
168.4894453346041132
 31
0.0
  0
LINE
  5
1608D
  8
0
 10
3478.5722847397641999
 20
168.4964464087042018
 30
0.0
 11
3478.5722847397641999
 21
168.5116110075042002
 31
0.0
  0
LINE
  5
1608E
  8
0
 10
3478.5722847397641999
 20
168.5116110075042002
 30
0.0
 11
3478.5977427044640535
 21
168.5116110075042002
 31
0.0
  0
LINE
  5
1608F
  8
0
 10
3478.5977427044640535
 20
168.5116110075042002
 30
0.0
 11
3478.5977540857447821
 21
168.4960523095529084
 31
0.0
  0
LINE
  5
16090
  8
0
 10
3478.5722847397641999
 20
168.5116110075042002
 30
0.0
 11
3478.5714253207638649
 21
168.51224009910419
 31
0.0
  0
LINE
  5
16091
  8
0
 10
3478.5977427044640535
 20
168.5116110075042002
 30
0.0
 11
3478.5986021234639338
 21
168.51224009910419
 31
0.0
  0
ARC
  5
16092
  8
0
 10
3478.5632181163891801
 20
168.4737034346530891
 30
0.0
 40
0.0090667712926778
 50
313.362328950367214
 51
359.6727180842627263
  0
ARC
  5
16093
  8
0
 10
3478.5693709441520696
 20
168.473743726084308
 30
0.0
 40
0.0066324685970772
 50
235.0105316404319069
 51
270.6263592686698871
  0
ARC
  5
16094
  8
0
 10
3478.5717648930608448
 20
168.4713657907049935
 30
0.0
 40
0.0048463164361414
 50
241.3791023532783981
 51
256.6429645069093226
  0
ARC
  5
16095
  8
0
 10
3478.6068409691251873
 20
168.4737171811700875
 30
0.0
 40
0.0090985006964213
 50
180.4127079999387036
 51
226.5522449654170885
  0
ARC
  5
16096
  8
0
 10
3478.6006600886908018
 20
168.4737312052506866
 30
0.0
 40
0.0066199887898959
 50
269.3413985867783822
 51
305.0377738637370157
  0
ARC
  5
16097
  8
0
 10
3478.5982489053149038
 20
168.4713987179173955
 30
0.0
 40
0.0048817582195363
 50
283.4358509138741056
 51
298.5763675238461019
  0
LINE
  5
16098
  8
0
 10
3478.5608803527638884
 20
168.4819996134042128
 30
0.0
 11
3478.5722847397641999
 21
168.4736516442042102
 31
0.0
  0
LINE
  5
16099
  8
0
 10
3478.5722847397641999
 20
168.4736516442042102
 30
0.0
 11
3478.5977427044640535
 21
168.4736516442040966
 31
0.0
  0
LINE
  5
1609A
  8
0
 10
3478.5977427044640535
 20
168.4736516442040966
 30
0.0
 11
3478.6091470915639547
 21
168.4819996134042128
 31
0.0
  0
LINE
  5
1609B
  8
0
 10
3478.6177629756471106
 20
168.478047952404097
 30
0.0
 11
3478.6044607325638935
 21
168.4683109324041084
 31
0.0
  0
LINE
  5
1609C
  8
0
 10
3478.570645304883783
 20
168.466650570104207
 30
0.0
 11
3478.599383213764213
 21
168.466650570104207
 31
0.0
  0
LINE
  5
1609D
  8
0
 10
3478.5522644707548352
 20
168.478047952404097
 30
0.0
 11
3478.5655677151639793
 21
168.4683100267041027
 31
0.0
  0
LINE
  5
1609E
  8
0
 10
3478.5722847397641999
 20
168.4736516442042102
 30
0.0
 11
3478.5722847397641999
 21
168.488816243004095
 31
0.0
  0
LINE
  5
1609F
  8
0
 10
3478.5722847397641999
 20
168.488816243004095
 30
0.0
 11
3478.5977427044640535
 21
168.488816243004095
 31
0.0
  0
LINE
  5
160A0
  8
0
 10
3478.5977427044640535
 20
168.488816243004095
 30
0.0
 11
3478.5977540857447821
 21
168.4732575450530021
 31
0.0
  0
LINE
  5
160A1
  8
0
 10
3478.5722847397641999
 20
168.488816243004095
 30
0.0
 11
3478.5714253207638649
 21
168.4894453346041132
 31
0.0
  0
LINE
  5
160A2
  8
0
 10
3478.5977427044640535
 20
168.488816243004095
 30
0.0
 11
3478.5986021234639338
 21
168.4894453346041132
 31
0.0
  0
ARC
  5
160A3
  8
0
 10
3478.5632181163891801
 20
168.45090867005311
 30
0.0
 40
0.0090667712926778
 50
313.362328950367214
 51
359.6727180842627263
  0
ARC
  5
160A4
  8
0
 10
3478.5693709441520696
 20
168.4509489614843005
 30
0.0
 40
0.0066324685970772
 50
235.0105316404319069
 51
270.6263592686698871
  0
ARC
  5
160A5
  8
0
 10
3478.5717648930608448
 20
168.448571026104986
 30
0.0
 40
0.0048463164361414
 50
241.3791023532783981
 51
256.6429645069093226
  0
ARC
  5
160A6
  8
0
 10
3478.6068409691251873
 20
168.4509224165701085
 30
0.0
 40
0.0090985006964213
 50
180.4127079999387036
 51
226.5522449654170885
  0
ARC
  5
160A7
  8
0
 10
3478.6006600886908018
 20
168.4509364406507075
 30
0.0
 40
0.0066199887898959
 50
269.3413985867783822
 51
305.0377738637370157
  0
ARC
  5
160A8
  8
0
 10
3478.5982489053149038
 20
168.448603953317388
 30
0.0
 40
0.0048817582195363
 50
283.4358509138741056
 51
298.5763675238461019
  0
LINE
  5
160A9
  8
0
 10
3478.5608803527638884
 20
168.4592048488042053
 30
0.0
 11
3478.5722847397641999
 21
168.450856879604089
 31
0.0
  0
LINE
  5
160AA
  8
0
 10
3478.5722847397641999
 20
168.450856879604089
 30
0.0
 11
3478.5977427044640535
 21
168.450856879604089
 31
0.0
  0
LINE
  5
160AB
  8
0
 10
3478.5977427044640535
 20
168.450856879604089
 30
0.0
 11
3478.6091470915639547
 21
168.4592048488042053
 31
0.0
  0
LINE
  5
160AC
  8
0
 10
3478.6177629756471106
 20
168.4552531878042032
 30
0.0
 11
3478.6044607325638935
 21
168.4455161678041009
 31
0.0
  0
LINE
  5
160AD
  8
0
 10
3478.570645304883783
 20
168.4438558055041995
 30
0.0
 11
3478.599383213764213
 21
168.4438558055041995
 31
0.0
  0
LINE
  5
160AE
  8
0
 10
3478.5522644707548352
 20
168.4552531878042032
 30
0.0
 11
3478.5655677151639793
 21
168.4455152621042089
 31
0.0
  0
LINE
  5
160AF
  8
0
 10
3478.5722847397641999
 20
168.450856879604089
 30
0.0
 11
3478.5722847397641999
 21
168.4660214784040875
 31
0.0
  0
LINE
  5
160B0
  8
0
 10
3478.5722847397641999
 20
168.4660214784040875
 30
0.0
 11
3478.5977427044640535
 21
168.4660214784040875
 31
0.0
  0
LINE
  5
160B1
  8
0
 10
3478.5977427044640535
 20
168.4660214784040875
 30
0.0
 11
3478.5977540857447821
 21
168.4504627804529093
 31
0.0
  0
LINE
  5
160B2
  8
0
 10
3478.5722847397641999
 20
168.4660214784040875
 30
0.0
 11
3478.5714253207638649
 21
168.4666505700041057
 31
0.0
  0
LINE
  5
160B3
  8
0
 10
3478.5977427044640535
 20
168.4660214784040875
 30
0.0
 11
3478.5986021234639338
 21
168.4666505700041057
 31
0.0
  0
ARC
  5
160B4
  8
0
 10
3478.5165072973891256
 20
168.4623060523531137
 30
0.0
 40
0.0090667712926778
 50
313.362328950367214
 51
359.6727180842627263
  0
ARC
  5
160B5
  8
0
 10
3478.5226601251529246
 20
168.4623463437843043
 30
0.0
 40
0.0066324685970772
 50
235.0105316404319069
 51
270.6263592686698871
  0
ARC
  5
160B6
  8
0
 10
3478.5250540740607903
 20
168.4599684084049898
 30
0.0
 40
0.0048463164361414
 50
241.3791023532783981
 51
256.6429645069093226
  0
ARC
  5
160B7
  8
0
 10
3478.5601301501251328
 20
168.4623197988701122
 30
0.0
 40
0.0090985006964213
 50
180.4127079999387036
 51
226.5522449654170885
  0
ARC
  5
160B8
  8
0
 10
3478.5539492696912021
 20
168.4623338229507112
 30
0.0
 40
0.0066199887898959
 50
269.3413985867783822
 51
305.0377738637370157
  0
ARC
  5
160B9
  8
0
 10
3478.5515380863148494
 20
168.4600013356173918
 30
0.0
 40
0.0048817582195363
 50
283.4358509138741056
 51
298.5763675238461019
  0
LINE
  5
160BA
  8
0
 10
3478.5141695337638339
 20
168.4706022311042091
 30
0.0
 11
3478.5255739207650549
 21
168.4622542619042065
 31
0.0
  0
LINE
  5
160BB
  8
0
 10
3478.5255739207650549
 20
168.4622542619042065
 30
0.0
 11
3478.5510318854639991
 21
168.4622542619042065
 31
0.0
  0
LINE
  5
160BC
  8
0
 10
3478.5510318854639991
 20
168.4622542619042065
 30
0.0
 11
3478.5624362725639003
 21
168.4706022311042091
 31
0.0
  0
LINE
  5
160BD
  8
0
 10
3478.5710521566479656
 20
168.466650570104207
 30
0.0
 11
3478.5577499135638391
 21
168.4569135501041046
 31
0.0
  0
LINE
  5
160BE
  8
0
 10
3478.5239344858850927
 20
168.4552531878042032
 30
0.0
 11
3478.5526723947641585
 21
168.4552531878042032
 31
0.0
  0
LINE
  5
160BF
  8
0
 10
3478.5055536517547807
 20
168.466650570104207
 30
0.0
 11
3478.5188568961639248
 21
168.456912644404099
 31
0.0
  0
LINE
  5
160C0
  8
0
 10
3478.5255739207650549
 20
168.4622542619042065
 30
0.0
 11
3478.5255739207650549
 21
168.4774188607040912
 31
0.0
  0
LINE
  5
160C1
  8
0
 10
3478.5255739207650549
 20
168.4774188607040912
 30
0.0
 11
3478.5510318854639991
 21
168.4774188607040912
 31
0.0
  0
LINE
  5
160C2
  8
0
 10
3478.5510318854639991
 20
168.4774188607040912
 30
0.0
 11
3478.5510432667438181
 21
168.4618601627529131
 31
0.0
  0
LINE
  5
160C3
  8
0
 10
3478.5255739207650549
 20
168.4774188607040912
 30
0.0
 11
3478.5247145017651746
 21
168.4780479523041095
 31
0.0
  0
LINE
  5
160C4
  8
0
 10
3478.5510318854639991
 20
168.4774188607040912
 30
0.0
 11
3478.5518913044638794
 21
168.4780479523041095
 31
0.0
  0
ARC
  5
160C5
  8
0
 10
3478.5165072973891256
 20
168.4395112878530085
 30
0.0
 40
0.0090667712926778
 50
313.362328950367214
 51
359.6727180842627263
  0
ARC
  5
160C6
  8
0
 10
3478.5250540740607903
 20
168.4371736439049982
 30
0.0
 40
0.0048463164361414
 50
241.3791023532783981
 51
256.6429645069093226
  0
ARC
  5
160C7
  8
0
 10
3478.5601301501251328
 20
168.439525034370206
 30
0.0
 40
0.0090985006964213
 50
180.4127079999387036
 51
226.5522449654170885
  0
ARC
  5
160C8
  8
0
 10
3478.5539492696912021
 20
168.4395390584506913
 30
0.0
 40
0.0066199887898959
 50
269.3413985867783822
 51
305.0377738637370157
  0
ARC
  5
160C9
  8
0
 10
3478.5515380863148494
 20
168.4372065711174002
 30
0.0
 40
0.0048817582195363
 50
283.4358509138741056
 51
298.5763675238461019
  0
LINE
  5
160CA
  8
0
 10
3478.5141695337638339
 20
168.4478074666041039
 30
0.0
 11
3478.5255739207650549
 21
168.4394594974041865
 31
0.0
  0
LINE
  5
160CB
  8
0
 10
3478.5255739207650549
 20
168.4394594974041865
 30
0.0
 11
3478.5510318854639991
 21
168.4394594974041865
 31
0.0
  0
LINE
  5
160CC
  8
0
 10
3478.5510318854639991
 20
168.4394594974041865
 30
0.0
 11
3478.5624362725639003
 21
168.4478074666041039
 31
0.0
  0
LINE
  5
160CD
  8
0
 10
3478.5710521566479656
 20
168.443855805604187
 30
0.0
 11
3478.5577499135638391
 21
168.4341187856041131
 31
0.0
  0
LINE
  5
160CE
  8
0
 10
3478.5239344858850927
 20
168.4324584233042117
 30
0.0
 11
3478.5526723947641585
 21
168.4324584233042117
 31
0.0
  0
LINE
  5
160CF
  8
0
 10
3478.5255739207650549
 20
168.4394594974041865
 30
0.0
 11
3478.5255739207650549
 21
168.4546240962040997
 31
0.0
  0
LINE
  5
160D0
  8
0
 10
3478.5255739207650549
 20
168.4546240962040997
 30
0.0
 11
3478.5510318854639991
 21
168.4546240962040997
 31
0.0
  0
LINE
  5
160D1
  8
0
 10
3478.5510318854639991
 20
168.4546240962040997
 30
0.0
 11
3478.5510432667438181
 21
168.4390653982528931
 31
0.0
  0
LINE
  5
160D2
  8
0
 10
3478.5255739207650549
 20
168.4546240962040997
 30
0.0
 11
3478.5247145017651746
 21
168.4552531878042032
 31
0.0
  0
LINE
  5
160D3
  8
0
 10
3478.5510318854639991
 20
168.4546240962040997
 30
0.0
 11
3478.5518913044638794
 21
168.4552531878042032
 31
0.0
  0
ARC
  5
160D4
  8
0
 10
3478.5632181163891801
 20
168.4053191410530985
 30
0.0
 40
0.0090667712926778
 50
313.362328950367214
 51
359.6727180842627263
  0
ARC
  5
160D5
  8
0
 10
3478.5693709441520696
 20
168.4053594324842891
 30
0.0
 40
0.0066324685970772
 50
235.0105316404319069
 51
270.6263592686698871
  0
ARC
  5
160D6
  8
0
 10
3478.5717648930608448
 20
168.4029814971048893
 30
0.0
 40
0.0048463164361414
 50
241.3791023532783981
 51
256.6429645069093226
  0
ARC
  5
160D7
  8
0
 10
3478.6068409691251873
 20
168.4053328875702107
 30
0.0
 40
0.0090985006964213
 50
180.4127079999387036
 51
226.5522449654170885
  0
ARC
  5
160D8
  8
0
 10
3478.6006600886908018
 20
168.405346911650696
 30
0.0
 40
0.0066199887898959
 50
269.3413985867783822
 51
305.0377738637370157
  0
ARC
  5
160D9
  8
0
 10
3478.5982489053149038
 20
168.403014424317405
 30
0.0
 40
0.0048817582195363
 50
283.4358509138741056
 51
298.5763675238461019
  0
LINE
  5
160DA
  8
0
 10
3478.5608803527638884
 20
168.4136153198041086
 30
0.0
 11
3478.5722847397641999
 21
168.405267350604106
 31
0.0
  0
LINE
  5
160DB
  8
0
 10
3478.5722847397641999
 20
168.405267350604106
 30
0.0
 11
3478.5977427044640535
 21
168.405267350604106
 31
0.0
  0
LINE
  5
160DC
  8
0
 10
3478.5977427044640535
 20
168.405267350604106
 30
0.0
 11
3478.6091470915639547
 21
168.4136153198041086
 31
0.0
  0
LINE
  5
160DD
  8
0
 10
3478.6177629756471106
 20
168.4096636588041065
 30
0.0
 11
3478.6044607325638935
 21
168.3999266388042031
 31
0.0
  0
LINE
  5
160DE
  8
0
 10
3478.570645304883783
 20
168.3982662765041027
 30
0.0
 11
3478.599383213764213
 21
168.3982662765041027
 31
0.0
  0
LINE
  5
160DF
  8
0
 10
3478.5522644707548352
 20
168.4096636588041065
 30
0.0
 11
3478.5655677151639793
 21
168.3999257331041974
 31
0.0
  0
LINE
  5
160E0
  8
0
 10
3478.5722847397641999
 20
168.405267350604106
 30
0.0
 11
3478.5722847397641999
 21
168.4204319494041897
 31
0.0
  0
LINE
  5
160E1
  8
0
 10
3478.5722847397641999
 20
168.4204319494041897
 30
0.0
 11
3478.5977427044640535
 21
168.4204319494041897
 31
0.0
  0
LINE
  5
160E2
  8
0
 10
3478.5977427044640535
 20
168.4204319494041897
 30
0.0
 11
3478.5977540857447821
 21
168.4048732514530116
 31
0.0
  0
LINE
  5
160E3
  8
0
 10
3478.5722847397641999
 20
168.4204319494041897
 30
0.0
 11
3478.5714253207638649
 21
168.4210610410042079
 31
0.0
  0
LINE
  5
160E4
  8
0
 10
3478.5977427044640535
 20
168.4204319494041897
 30
0.0
 11
3478.5986021234639338
 21
168.4210610410042079
 31
0.0
  0
ARC
  5
160E5
  8
0
 10
3478.6099289354401662
 20
168.4167165233531023
 30
0.0
 40
0.0090667712926778
 50
313.362328950367214
 51
359.6727180842627263
  0
ARC
  5
160E6
  8
0
 10
3478.6160817632030557
 20
168.4167568147842928
 30
0.0
 40
0.0066324685970772
 50
235.0105316404319069
 51
270.6263592686698871
  0
ARC
  5
160E7
  8
0
 10
3478.6184757121109214
 20
168.4143788794050067
 30
0.0
 40
0.0048463164361414
 50
241.3791023532783981
 51
256.6429645069093226
  0
ARC
  5
160E8
  8
0
 10
3478.6535517881748092
 20
168.4167302698701008
 30
0.0
 40
0.0090985006964213
 50
180.4127079999387036
 51
226.5522449654170885
  0
ARC
  5
160E9
  8
0
 10
3478.6473709077408785
 20
168.4167442939506998
 30
0.0
 40
0.0066199887898959
 50
269.3413985867783822
 51
305.0377738637370157
  0
ARC
  5
160EA
  8
0
 10
3478.6449597243649805
 20
168.4144118066174087
 30
0.0
 40
0.0048817582195363
 50
283.4358509138741056
 51
298.5763675238461019
  0
LINE
  5
160EB
  8
0
 10
3478.607591171813965
 20
168.4250127021041123
 30
0.0
 11
3478.6189955588138218
 21
168.416664732904195
 31
0.0
  0
LINE
  5
160EC
  8
0
 10
3478.6189955588138218
 20
168.416664732904195
 30
0.0
 11
3478.6444535235141302
 21
168.416664732904195
 31
0.0
  0
LINE
  5
160ED
  8
0
 10
3478.6444535235141302
 20
168.416664732904195
 30
0.0
 11
3478.6558579106140314
 21
168.4250127021041123
 31
0.0
  0
LINE
  5
160EE
  8
0
 10
3478.6644737946980968
 20
168.4210610411041102
 30
0.0
 11
3478.6511715516139702
 21
168.4113240211042068
 31
0.0
  0
LINE
  5
160EF
  8
0
 10
3478.6173561239338596
 20
168.4096636588041065
 30
0.0
 11
3478.6460940328138349
 21
168.4096636588041065
 31
0.0
  0
LINE
  5
160F0
  8
0
 10
3478.5989752898049119
 20
168.4210610411041102
 30
0.0
 11
3478.612278534214056
 21
168.4113231154040875
 31
0.0
  0
LINE
  5
160F1
  8
0
 10
3478.6189955588138218
 20
168.416664732904195
 30
0.0
 11
3478.6189955588138218
 21
168.4318293317041082
 31
0.0
  0
LINE
  5
160F2
  8
0
 10
3478.6189955588138218
 20
168.4318293317041082
 30
0.0
 11
3478.6444535235141302
 21
168.4318293317041082
 31
0.0
  0
LINE
  5
160F3
  8
0
 10
3478.6444535235141302
 20
168.4318293317041082
 30
0.0
 11
3478.6444649047948587
 21
168.4162706337529869
 31
0.0
  0
LINE
  5
160F4
  8
0
 10
3478.6189955588138218
 20
168.4318293317041082
 30
0.0
 11
3478.6181361398139416
 21
168.4324584233042117
 31
0.0
  0
LINE
  5
160F5
  8
0
 10
3478.6444535235141302
 20
168.4318293317041082
 30
0.0
 11
3478.6453129425140105
 21
168.4324584233042117
 31
0.0
  0
ARC
  5
160F6
  8
0
 10
3478.5632181163891801
 20
168.4281139055530048
 30
0.0
 40
0.0090667712926778
 50
313.362328950367214
 51
359.6727180842627263
  0
ARC
  5
160F7
  8
0
 10
3478.5693709441520696
 20
168.428154196984309
 30
0.0
 40
0.0066324685970772
 50
235.0105316404319069
 51
270.6263592686698871
  0
ARC
  5
160F8
  8
0
 10
3478.5717648930608448
 20
168.4257762616049945
 30
0.0
 40
0.0048463164361414
 50
241.3791023532783981
 51
256.6429645069093226
  0
ARC
  5
160F9
  8
0
 10
3478.6068409691251873
 20
168.4281276520700885
 30
0.0
 40
0.0090985006964213
 50
180.4127079999387036
 51
226.5522449654170885
  0
ARC
  5
160FA
  8
0
 10
3478.6006600886908018
 20
168.4281416761506875
 30
0.0
 40
0.0066199887898959
 50
269.3413985867783822
 51
305.0377738637370157
  0
ARC
  5
160FB
  8
0
 10
3478.5982489053149038
 20
168.4258091888173965
 30
0.0
 40
0.0048817582195363
 50
283.4358509138741056
 51
298.5763675238461019
  0
LINE
  5
160FC
  8
0
 10
3478.5608803527638884
 20
168.4364100843042138
 30
0.0
 11
3478.5722847397641999
 21
168.4280621151042112
 31
0.0
  0
LINE
  5
160FD
  8
0
 10
3478.5722847397641999
 20
168.4280621151042112
 30
0.0
 11
3478.5977427044640535
 21
168.4280621151042112
 31
0.0
  0
LINE
  5
160FE
  8
0
 10
3478.5977427044640535
 20
168.4280621151042112
 30
0.0
 11
3478.6091470915639547
 21
168.4364100843042138
 31
0.0
  0
LINE
  5
160FF
  8
0
 10
3478.6177629756471106
 20
168.4324584233042117
 30
0.0
 11
3478.6044607325638935
 21
168.4227214033041093
 31
0.0
  0
LINE
  5
16100
  8
0
 10
3478.570645304883783
 20
168.4210610410042079
 30
0.0
 11
3478.599383213764213
 21
168.4210610410042079
 31
0.0
  0
LINE
  5
16101
  8
0
 10
3478.5522644707548352
 20
168.4324584233042117
 30
0.0
 11
3478.5655677151639793
 21
168.4227204976041889
 31
0.0
  0
LINE
  5
16102
  8
0
 10
3478.5722847397641999
 20
168.4280621151042112
 30
0.0
 11
3478.5722847397641999
 21
168.4432267139042096
 31
0.0
  0
LINE
  5
16103
  8
0
 10
3478.5722847397641999
 20
168.4432267139042096
 30
0.0
 11
3478.5977427044640535
 21
168.4432267139042096
 31
0.0
  0
LINE
  5
16104
  8
0
 10
3478.5977427044640535
 20
168.4432267139042096
 30
0.0
 11
3478.5977540857447821
 21
168.4276680159528894
 31
0.0
  0
LINE
  5
16105
  8
0
 10
3478.5722847397641999
 20
168.4432267139042096
 30
0.0
 11
3478.5714253207638649
 21
168.4438558055041995
 31
0.0
  0
LINE
  5
16106
  8
0
 10
3478.5977427044640535
 20
168.4432267139042096
 30
0.0
 11
3478.5986021234639338
 21
168.4438558055041995
 31
0.0
  0
ARC
  5
16107
  8
0
 10
3478.6099289354401662
 20
168.4395112878530085
 30
0.0
 40
0.0090667712926778
 50
313.362328950367214
 51
359.6727180842627263
  0
ARC
  5
16108
  8
0
 10
3478.6160817632030557
 20
168.4395515792843128
 30
0.0
 40
0.0066324685970772
 50
235.0105316404319069
 51
270.6263592686698871
  0
ARC
  5
16109
  8
0
 10
3478.6184757121109214
 20
168.4371736439049982
 30
0.0
 40
0.0048463164361414
 50
241.3791023532783981
 51
256.6429645069093226
  0
ARC
  5
1610A
  8
0
 10
3478.6535517881748092
 20
168.439525034370206
 30
0.0
 40
0.0090985006964213
 50
180.4127079999387036
 51
226.5522449654170885
  0
ARC
  5
1610B
  8
0
 10
3478.6473709077408785
 20
168.4395390584506913
 30
0.0
 40
0.0066199887898959
 50
269.3413985867783822
 51
305.0377738637370157
  0
ARC
  5
1610C
  8
0
 10
3478.6449597243649805
 20
168.4372065711174002
 30
0.0
 40
0.0048817582195363
 50
283.4358509138741056
 51
298.5763675238461019
  0
LINE
  5
1610D
  8
0
 10
3478.607591171813965
 20
168.4478074666041039
 30
0.0
 11
3478.6189955588138218
 21
168.4394594974041865
 31
0.0
  0
LINE
  5
1610E
  8
0
 10
3478.6189955588138218
 20
168.4394594974041865
 30
0.0
 11
3478.6444535235141302
 21
168.4394594974041865
 31
0.0
  0
LINE
  5
1610F
  8
0
 10
3478.6444535235141302
 20
168.4394594974041865
 30
0.0
 11
3478.6558579106140314
 21
168.4478074666041039
 31
0.0
  0
LINE
  5
16110
  8
0
 10
3478.6644737946980968
 20
168.443855805604187
 30
0.0
 11
3478.6511715516139702
 21
168.4341187856041131
 31
0.0
  0
LINE
  5
16111
  8
0
 10
3478.6173561239338596
 20
168.4324584233042117
 30
0.0
 11
3478.6460940328138349
 21
168.4324584233042117
 31
0.0
  0
LINE
  5
16112
  8
0
 10
3478.5989752898049119
 20
168.443855805604187
 30
0.0
 11
3478.612278534214056
 21
168.4341178799041074
 31
0.0
  0
LINE
  5
16113
  8
0
 10
3478.6189955588138218
 20
168.4394594974041865
 30
0.0
 11
3478.6189955588138218
 21
168.4546240962040997
 31
0.0
  0
LINE
  5
16114
  8
0
 10
3478.6189955588138218
 20
168.4546240962040997
 30
0.0
 11
3478.6444535235141302
 21
168.4546240962040997
 31
0.0
  0
LINE
  5
16115
  8
0
 10
3478.6444535235141302
 20
168.4546240962040997
 30
0.0
 11
3478.6444649047948587
 21
168.4390653982528931
 31
0.0
  0
LINE
  5
16116
  8
0
 10
3478.6189955588138218
 20
168.4546240962040997
 30
0.0
 11
3478.6181361398139416
 21
168.4552531878042032
 31
0.0
  0
LINE
  5
16117
  8
0
 10
3478.6444535235141302
 20
168.4546240962040997
 30
0.0
 11
3478.6453129425140105
 21
168.4552531878042032
 31
0.0
  0
ARC
  5
16118
  8
0
 10
3478.6566397544388565
 20
168.4281139055530048
 30
0.0
 40
0.0090667712926778
 50
313.362328950367214
 51
359.6727180842627263
  0
ARC
  5
16119
  8
0
 10
3478.6627925822022007
 20
168.428154196984309
 30
0.0
 40
0.0066324685970772
 50
235.0105316404319069
 51
270.6263592686698871
  0
ARC
  5
1611A
  8
0
 10
3478.6651865311109759
 20
168.4257762616049945
 30
0.0
 40
0.0048463164361414
 50
241.3791023532783981
 51
256.6429645069093226
  0
ARC
  5
1611B
  8
0
 10
3478.7002626071748637
 20
168.4281276520700885
 30
0.0
 40
0.0090985006964213
 50
180.4127079999387036
 51
226.5522449654170885
  0
ARC
  5
1611C
  8
0
 10
3478.6940817267418424
 20
168.4281416761506875
 30
0.0
 40
0.0066199887898959
 50
269.3413985867783822
 51
305.0377738637370157
  0
ARC
  5
1611D
  8
0
 10
3478.6916705433659445
 20
168.4258091888173965
 30
0.0
 40
0.0048817582195363
 50
283.4358509138741056
 51
298.5763675238461019
  0
LINE
  5
1611E
  8
0
 10
3478.654301990814929
 20
168.4364100843042138
 30
0.0
 11
3478.6657063778138763
 21
168.4280621151042112
 31
0.0
  0
LINE
  5
1611F
  8
0
 10
3478.6657063778138763
 20
168.4280621151042112
 30
0.0
 11
3478.6911643425141847
 21
168.4280621151042112
 31
0.0
  0
LINE
  5
16120
  8
0
 10
3478.6911643425141847
 20
168.4280621151042112
 30
0.0
 11
3478.7025687296149954
 21
168.4364100843042138
 31
0.0
  0
LINE
  5
16121
  8
0
 10
3478.7111846136981512
 20
168.4324584233042117
 30
0.0
 11
3478.6978823706140247
 21
168.4227214033041093
 31
0.0
  0
LINE
  5
16122
  8
0
 10
3478.6640669429339141
 20
168.4210610410042079
 30
0.0
 11
3478.6928048518138894
 21
168.4210610410042079
 31
0.0
  0
LINE
  5
16123
  8
0
 10
3478.6456861088049664
 20
168.4324584233042117
 30
0.0
 11
3478.6589893532150199
 21
168.4227204976041889
 31
0.0
  0
LINE
  5
16124
  8
0
 10
3478.6657063778138763
 20
168.4280621151042112
 30
0.0
 11
3478.6657063778138763
 21
168.4432267139042096
 31
0.0
  0
LINE
  5
16125
  8
0
 10
3478.6657063778138763
 20
168.4432267139042096
 30
0.0
 11
3478.6911643425141847
 21
168.4432267139042096
 31
0.0
  0
LINE
  5
16126
  8
0
 10
3478.6911643425141847
 20
168.4432267139042096
 30
0.0
 11
3478.6911757237949132
 21
168.4276680159528894
 31
0.0
  0
LINE
  5
16127
  8
0
 10
3478.6657063778138763
 20
168.4432267139042096
 30
0.0
 11
3478.664846958813996
 21
168.4438558055041995
 31
0.0
  0
LINE
  5
16128
  8
0
 10
3478.6911643425141847
 20
168.4432267139042096
 30
0.0
 11
3478.692023761514065
 21
168.4438558055041995
 31
0.0
  0
ARC
  5
16129
  8
0
 10
3478.6566397544388565
 20
168.45090867005311
 30
0.0
 40
0.0090667712926778
 50
313.362328950367214
 51
359.6727180842627263
  0
ARC
  5
1612A
  8
0
 10
3478.6627925822022007
 20
168.4509489614843005
 30
0.0
 40
0.0066324685970772
 50
235.0105316404319069
 51
270.6263592686698871
  0
ARC
  5
1612B
  8
0
 10
3478.6651865311109759
 20
168.448571026104986
 30
0.0
 40
0.0048463164361414
 50
241.3791023532783981
 51
256.6429645069093226
  0
ARC
  5
1612C
  8
0
 10
3478.7002626071748637
 20
168.4509224165701085
 30
0.0
 40
0.0090985006964213
 50
180.4127079999387036
 51
226.5522449654170885
  0
ARC
  5
1612D
  8
0
 10
3478.6940817267418424
 20
168.4509364406507075
 30
0.0
 40
0.0066199887898959
 50
269.3413985867783822
 51
305.0377738637370157
  0
ARC
  5
1612E
  8
0
 10
3478.6916705433659445
 20
168.448603953317388
 30
0.0
 40
0.0048817582195363
 50
283.4358509138741056
 51
298.5763675238461019
  0
LINE
  5
1612F
  8
0
 10
3478.654301990814929
 20
168.4592048488042053
 30
0.0
 11
3478.6657063778138763
 21
168.450856879604089
 31
0.0
  0
LINE
  5
16130
  8
0
 10
3478.6657063778138763
 20
168.450856879604089
 30
0.0
 11
3478.6911643425141847
 21
168.450856879604089
 31
0.0
  0
LINE
  5
16131
  8
0
 10
3478.6911643425141847
 20
168.450856879604089
 30
0.0
 11
3478.7025687296149954
 21
168.4592048488042053
 31
0.0
  0
LINE
  5
16132
  8
0
 10
3478.7111846136981512
 20
168.4552531878042032
 30
0.0
 11
3478.6978823706140247
 21
168.4455161678041009
 31
0.0
  0
LINE
  5
16133
  8
0
 10
3478.6640669429339141
 20
168.4438558055041995
 30
0.0
 11
3478.6928048518138894
 21
168.4438558055041995
 31
0.0
  0
LINE
  5
16134
  8
0
 10
3478.6456861088049664
 20
168.4552531878042032
 30
0.0
 11
3478.6589893532150199
 21
168.4455152621042089
 31
0.0
  0
LINE
  5
16135
  8
0
 10
3478.6657063778138763
 20
168.450856879604089
 30
0.0
 11
3478.6657063778138763
 21
168.4660214784040875
 31
0.0
  0
LINE
  5
16136
  8
0
 10
3478.6657063778138763
 20
168.4660214784040875
 30
0.0
 11
3478.6911643425141847
 21
168.4660214784040875
 31
0.0
  0
LINE
  5
16137
  8
0
 10
3478.6911643425141847
 20
168.4660214784040875
 30
0.0
 11
3478.6911757237949132
 21
168.4504627804529093
 31
0.0
  0
LINE
  5
16138
  8
0
 10
3478.6657063778138763
 20
168.4660214784040875
 30
0.0
 11
3478.664846958813996
 21
168.4666505700041057
 31
0.0
  0
LINE
  5
16139
  8
0
 10
3478.6911643425141847
 20
168.4660214784040875
 30
0.0
 11
3478.692023761514065
 21
168.4666505700041057
 31
0.0
  0
ARC
  5
1613A
  8
0
 10
3478.7033505734389109
 20
168.4623060523531137
 30
0.0
 40
0.0090667712926778
 50
313.362328950367214
 51
359.6727180842627263
  0
ARC
  5
1613B
  8
0
 10
3478.7095034012031647
 20
168.4623463437843043
 30
0.0
 40
0.0066324685970772
 50
235.0105316404319069
 51
270.6263592686698871
  0
ARC
  5
1613C
  8
0
 10
3478.7118973501110304
 20
168.4599684084049898
 30
0.0
 40
0.0048463164361414
 50
241.3791023532783981
 51
256.6429645069093226
  0
ARC
  5
1613D
  8
0
 10
3478.7469734261749181
 20
168.4623197988701122
 30
0.0
 40
0.0090985006964213
 50
180.4127079999387036
 51
226.5522449654170885
  0
ARC
  5
1613E
  8
0
 10
3478.7407925457418969
 20
168.4623338229507112
 30
0.0
 40
0.0066199887898959
 50
269.3413985867783822
 51
305.0377738637370157
  0
ARC
  5
1613F
  8
0
 10
3478.7383813623650894
 20
168.4600013356173918
 30
0.0
 40
0.0048817582195363
 50
283.4358509138741056
 51
298.5763675238461019
  0
LINE
  5
16140
  8
0
 10
3478.701012809814074
 20
168.4706022311042091
 30
0.0
 11
3478.7124171968139308
 21
168.4622542619042065
 31
0.0
  0
LINE
  5
16141
  8
0
 10
3478.7124171968139308
 20
168.4622542619042065
 30
0.0
 11
3478.7378751615151486
 21
168.4622542619042065
 31
0.0
  0
LINE
  5
16142
  8
0
 10
3478.7378751615151486
 20
168.4622542619042065
 30
0.0
 11
3478.7492795486150499
 21
168.4706022311042091
 31
0.0
  0
LINE
  5
16143
  8
0
 10
3478.7578954326982057
 20
168.466650570104207
 30
0.0
 11
3478.7445931896149887
 21
168.4569135501041046
 31
0.0
  0
LINE
  5
16144
  8
0
 10
3478.7107777619339686
 20
168.4552531878042032
 30
0.0
 11
3478.7395156708139439
 21
168.4552531878042032
 31
0.0
  0
LINE
  5
16145
  8
0
 10
3478.6923969278050208
 20
168.466650570104207
 30
0.0
 11
3478.7057001722141649
 21
168.456912644404099
 31
0.0
  0
LINE
  5
16146
  8
0
 10
3478.7124171968139308
 20
168.4622542619042065
 30
0.0
 11
3478.7124171968139308
 21
168.4774188607040912
 31
0.0
  0
LINE
  5
16147
  8
0
 10
3478.7124171968139308
 20
168.4774188607040912
 30
0.0
 11
3478.7378751615151486
 21
168.4774188607040912
 31
0.0
  0
LINE
  5
16148
  8
0
 10
3478.7378751615151486
 20
168.4774188607040912
 30
0.0
 11
3478.7378865427949677
 21
168.4618601627529131
 31
0.0
  0
LINE
  5
16149
  8
0
 10
3478.7124171968139308
 20
168.4774188607040912
 30
0.0
 11
3478.7115577778140505
 21
168.4780479523041095
 31
0.0
  0
LINE
  5
1614A
  8
0
 10
3478.7378751615151486
 20
168.4774188607040912
 30
0.0
 11
3478.7387345805141194
 21
168.4780479523041095
 31
0.0
  0
ARC
  5
1614B
  8
0
 10
3478.7033505734389109
 20
168.4851008168531052
 30
0.0
 40
0.0090667712926778
 50
313.362328950367214
 51
359.6727180842627263
  0
ARC
  5
1614C
  8
0
 10
3478.7095034012031647
 20
168.4851411082842958
 30
0.0
 40
0.0066324685970772
 50
235.0105316404319069
 51
270.6263592686698871
  0
ARC
  5
1614D
  8
0
 10
3478.7118973501110304
 20
168.482763172904896
 30
0.0
 40
0.0048463164361414
 50
241.3791023532783981
 51
256.6429645069093226
  0
ARC
  5
1614E
  8
0
 10
3478.7469734261749181
 20
168.4851145633701037
 30
0.0
 40
0.0090985006964213
 50
180.4127079999387036
 51
226.5522449654170885
  0
ARC
  5
1614F
  8
0
 10
3478.7407925457418969
 20
168.4851285874507028
 30
0.0
 40
0.0066199887898959
 50
269.3413985867783822
 51
305.0377738637370157
  0
ARC
  5
16150
  8
0
 10
3478.7383813623650894
 20
168.4827961001174117
 30
0.0
 40
0.0048817582195363
 50
283.4358509138741056
 51
298.5763675238461019
  0
LINE
  5
16151
  8
0
 10
3478.701012809814074
 20
168.4933969956040869
 30
0.0
 11
3478.7124171968139308
 21
168.4850490264041127
 31
0.0
  0
LINE
  5
16152
  8
0
 10
3478.7124171968139308
 20
168.4850490264041127
 30
0.0
 11
3478.7378751615151486
 21
168.4850490264041127
 31
0.0
  0
LINE
  5
16153
  8
0
 10
3478.7378751615151486
 20
168.4850490264041127
 30
0.0
 11
3478.7492795486150499
 21
168.4933969956040869
 31
0.0
  0
LINE
  5
16154
  8
0
 10
3478.7578954326982057
 20
168.4894453346041132
 30
0.0
 11
3478.7445931896149887
 21
168.4797083146042098
 31
0.0
  0
LINE
  5
16155
  8
0
 10
3478.7107777619339686
 20
168.4780479523041095
 30
0.0
 11
3478.7395156708139439
 21
168.4780479523041095
 31
0.0
  0
LINE
  5
16156
  8
0
 10
3478.6923969278050208
 20
168.4894453346041132
 30
0.0
 11
3478.7057001722141649
 21
168.4797074089042042
 31
0.0
  0
LINE
  5
16157
  8
0
 10
3478.7124171968139308
 20
168.4850490264041127
 30
0.0
 11
3478.7124171968139308
 21
168.5002136252041112
 31
0.0
  0
LINE
  5
16158
  8
0
 10
3478.7124171968139308
 20
168.5002136252041112
 30
0.0
 11
3478.7378751615151486
 21
168.5002136252041112
 31
0.0
  0
LINE
  5
16159
  8
0
 10
3478.7378751615151486
 20
168.5002136252041112
 30
0.0
 11
3478.7378865427949677
 21
168.4846549272529046
 31
0.0
  0
LINE
  5
1615A
  8
0
 10
3478.7124171968139308
 20
168.5002136252041112
 30
0.0
 11
3478.7115577778140505
 21
168.5008427168041862
 31
0.0
  0
LINE
  5
1615B
  8
0
 10
3478.7378751615151486
 20
168.5002136252041112
 30
0.0
 11
3478.7387345805141194
 21
168.5008427168041862
 31
0.0
  0
ARC
  5
1615C
  8
0
 10
3478.7033505734389109
 20
168.5078955813530115
 30
0.0
 40
0.0090667712926778
 50
313.362328950367214
 51
359.6727180842627263
  0
ARC
  5
1615D
  8
0
 10
3478.7118973501110304
 20
168.5055579374050012
 30
0.0
 40
0.0048463164361414
 50
241.3791023532783981
 51
256.6429645069093226
  0
ARC
  5
1615E
  8
0
 10
3478.7469734261749181
 20
168.5079093278700952
 30
0.0
 40
0.0090985006964213
 50
180.4127079999387036
 51
226.5522449654170885
  0
ARC
  5
1615F
  8
0
 10
3478.7407925457418969
 20
168.5079233519506943
 30
0.0
 40
0.0066199887898959
 50
269.3413985867783822
 51
305.0377738637370157
  0
ARC
  5
16160
  8
0
 10
3478.7383813623650894
 20
168.5055908646174032
 30
0.0
 40
0.0048817582195363
 50
283.4358509138741056
 51
298.5763675238461019
  0
LINE
  5
16161
  8
0
 10
3478.701012809814074
 20
168.5161917601041068
 30
0.0
 11
3478.7124171968139308
 21
168.5078437909041895
 31
0.0
  0
LINE
  5
16162
  8
0
 10
3478.7124171968139308
 20
168.5078437909041895
 30
0.0
 11
3478.7378751615151486
 21
168.5078437909041043
 31
0.0
  0
LINE
  5
16163
  8
0
 10
3478.7378751615151486
 20
168.5078437909041043
 30
0.0
 11
3478.7492795486150499
 21
168.5161917601041068
 31
0.0
  0
LINE
  5
16164
  8
0
 10
3478.758034644215968
 20
168.512341999612886
 30
0.0
 11
3478.7445931896149887
 21
168.5025030791040876
 31
0.0
  0
LINE
  5
16165
  8
0
 10
3478.7107777619339686
 20
168.5008427168041862
 30
0.0
 11
3478.7395156708139439
 21
168.5008427168041862
 31
0.0
  0
LINE
  5
16166
  8
0
 10
3478.7124171968139308
 20
168.5078437909041895
 30
0.0
 11
3478.7124171968139308
 21
168.5230083897041027
 31
0.0
  0
LINE
  5
16167
  8
0
 10
3478.7124171968139308
 20
168.5230083897041027
 30
0.0
 11
3478.7378751615151486
 21
168.5230083897041027
 31
0.0
  0
LINE
  5
16168
  8
0
 10
3478.7378751615151486
 20
168.5230083897041027
 30
0.0
 11
3478.7378865427949677
 21
168.5074496917528961
 31
0.0
  0
LINE
  5
16169
  8
0
 10
3478.7124171968139308
 20
168.5230083897041027
 30
0.0
 11
3478.7115577778140505
 21
168.5236374813042062
 31
0.0
  0
LINE
  5
1616A
  8
0
 10
3478.7378751615151486
 20
168.5230083897041027
 30
0.0
 11
3478.7387345805141194
 21
168.5236374813042062
 31
0.0
  0
ARC
  5
1616B
  8
0
 10
3478.6627925822022007
 20
168.4965384905842996
 30
0.0
 40
0.0066324685970772
 50
235.0105316404319069
 51
270.6263592686698871
  0
ARC
  5
1616C
  8
0
 10
3478.6651865311109759
 20
168.4941605552050135
 30
0.0
 40
0.0048463164361414
 50
241.3791023532783981
 51
256.6429645069093226
  0
ARC
  5
1616D
  8
0
 10
3478.6940817267418424
 20
168.4965259697507065
 30
0.0
 40
0.0066199887898959
 50
269.3413985867783822
 51
305.0377738637370157
  0
ARC
  5
1616E
  8
0
 10
3478.6916705433659445
 20
168.494193482417387
 30
0.0
 40
0.0048817582195363
 50
283.4358509138741056
 51
298.5763675238461019
  0
LINE
  5
1616F
  8
0
 10
3478.7111846136981512
 20
168.5008427169042022
 30
0.0
 11
3478.6978823706140247
 21
168.4911056969042136
 31
0.0
  0
LINE
  5
16170
  8
0
 10
3478.6640669429339141
 20
168.4894453346041132
 30
0.0
 11
3478.6928048518138894
 21
168.4894453346041132
 31
0.0
  0
LINE
  5
16171
  8
0
 10
3478.6456861088049664
 20
168.5008427169042022
 30
0.0
 11
3478.6589893532150199
 21
168.4911047912042079
 31
0.0
  0
ARC
  5
16172
  8
0
 10
3478.6099289354401662
 20
168.4623060523531137
 30
0.0
 40
0.0090667712926778
 50
313.362328950367214
 51
359.6727180842627263
  0
ARC
  5
16173
  8
0
 10
3478.6160817632030557
 20
168.4623463437843043
 30
0.0
 40
0.0066324685970772
 50
235.0105316404319069
 51
270.6263592686698871
  0
ARC
  5
16174
  8
0
 10
3478.6184757121109214
 20
168.4599684084049898
 30
0.0
 40
0.0048463164361414
 50
241.3791023532783981
 51
256.6429645069093226
  0
ARC
  5
16175
  8
0
 10
3478.6535517881748092
 20
168.4623197988701122
 30
0.0
 40
0.0090985006964213
 50
180.4127079999387036
 51
226.5522449654170885
  0
ARC
  5
16176
  8
0
 10
3478.6473709077408785
 20
168.4623338229507112
 30
0.0
 40
0.0066199887898959
 50
269.3413985867783822
 51
305.0377738637370157
  0
ARC
  5
16177
  8
0
 10
3478.6449597243649805
 20
168.4600013356173918
 30
0.0
 40
0.0048817582195363
 50
283.4358509138741056
 51
298.5763675238461019
  0
LINE
  5
16178
  8
0
 10
3478.607591171813965
 20
168.4706022311042091
 30
0.0
 11
3478.6189955588138218
 21
168.4622542619042065
 31
0.0
  0
LINE
  5
16179
  8
0
 10
3478.6189955588138218
 20
168.4622542619042065
 30
0.0
 11
3478.6444535235141302
 21
168.4622542619042065
 31
0.0
  0
LINE
  5
1617A
  8
0
 10
3478.6444535235141302
 20
168.4622542619042065
 30
0.0
 11
3478.6558579106140314
 21
168.4706022311042091
 31
0.0
  0
LINE
  5
1617B
  8
0
 10
3478.6644737946980968
 20
168.466650570104207
 30
0.0
 11
3478.6511715516139702
 21
168.4569135501041046
 31
0.0
  0
LINE
  5
1617C
  8
0
 10
3478.6173561239338596
 20
168.4552531878042032
 30
0.0
 11
3478.6460940328138349
 21
168.4552531878042032
 31
0.0
  0
LINE
  5
1617D
  8
0
 10
3478.5989752898049119
 20
168.466650570104207
 30
0.0
 11
3478.612278534214056
 21
168.456912644404099
 31
0.0
  0
LINE
  5
1617E
  8
0
 10
3478.6189955588138218
 20
168.4622542619042065
 30
0.0
 11
3478.6189955588138218
 21
168.4774188607040912
 31
0.0
  0
LINE
  5
1617F
  8
0
 10
3478.6189955588138218
 20
168.4774188607040912
 30
0.0
 11
3478.6444535235141302
 21
168.4774188607040912
 31
0.0
  0
LINE
  5
16180
  8
0
 10
3478.6444535235141302
 20
168.4774188607040912
 30
0.0
 11
3478.6444649047948587
 21
168.4618601627529131
 31
0.0
  0
LINE
  5
16181
  8
0
 10
3478.6189955588138218
 20
168.4774188607040912
 30
0.0
 11
3478.6181361398139416
 21
168.4780479523041095
 31
0.0
  0
LINE
  5
16182
  8
0
 10
3478.6444535235141302
 20
168.4774188607040912
 30
0.0
 11
3478.6453129425140105
 21
168.4780479523041095
 31
0.0
  0
ARC
  5
16183
  8
0
 10
3478.6099289354401662
 20
168.4851008168531052
 30
0.0
 40
0.0090667712926778
 50
313.362328950367214
 51
359.6727180842627263
  0
ARC
  5
16184
  8
0
 10
3478.6160817632030557
 20
168.4851411082842958
 30
0.0
 40
0.0066324685970772
 50
235.0105316404319069
 51
270.6263592686698871
  0
ARC
  5
16185
  8
0
 10
3478.6184757121109214
 20
168.482763172904896
 30
0.0
 40
0.0048463164361414
 50
241.3791023532783981
 51
256.6429645069093226
  0
ARC
  5
16186
  8
0
 10
3478.6535517881748092
 20
168.4851145633701037
 30
0.0
 40
0.0090985006964213
 50
180.4127079999387036
 51
226.5522449654170885
  0
ARC
  5
16187
  8
0
 10
3478.6473709077408785
 20
168.4851285874507028
 30
0.0
 40
0.0066199887898959
 50
269.3413985867783822
 51
305.0377738637370157
  0
ARC
  5
16188
  8
0
 10
3478.6449597243649805
 20
168.4827961001174117
 30
0.0
 40
0.0048817582195363
 50
283.4358509138741056
 51
298.5763675238461019
  0
LINE
  5
16189
  8
0
 10
3478.607591171813965
 20
168.4933969956040869
 30
0.0
 11
3478.6189955588138218
 21
168.4850490264041127
 31
0.0
  0
LINE
  5
1618A
  8
0
 10
3478.6189955588138218
 20
168.4850490264041127
 30
0.0
 11
3478.6444535235141302
 21
168.4850490264041127
 31
0.0
  0
LINE
  5
1618B
  8
0
 10
3478.6444535235141302
 20
168.4850490264041127
 30
0.0
 11
3478.6558579106140314
 21
168.4933969956040869
 31
0.0
  0
LINE
  5
1618C
  8
0
 10
3478.6644737946980968
 20
168.4894453346041132
 30
0.0
 11
3478.6511715516139702
 21
168.4797083146042098
 31
0.0
  0
LINE
  5
1618D
  8
0
 10
3478.6173561239338596
 20
168.4780479523041095
 30
0.0
 11
3478.6460940328138349
 21
168.4780479523041095
 31
0.0
  0
LINE
  5
1618E
  8
0
 10
3478.5989752898049119
 20
168.4894453346041132
 30
0.0
 11
3478.612278534214056
 21
168.4797074089042042
 31
0.0
  0
LINE
  5
1618F
  8
0
 10
3478.6189955588138218
 20
168.4850490264041127
 30
0.0
 11
3478.6189955588138218
 21
168.5002136252041112
 31
0.0
  0
LINE
  5
16190
  8
0
 10
3478.6189955588138218
 20
168.5002136252041112
 30
0.0
 11
3478.6444535235141302
 21
168.5002136252041112
 31
0.0
  0
LINE
  5
16191
  8
0
 10
3478.6444535235141302
 20
168.5002136252041112
 30
0.0
 11
3478.6444649047948587
 21
168.4846549272529046
 31
0.0
  0
LINE
  5
16192
  8
0
 10
3478.6189955588138218
 20
168.5002136252041112
 30
0.0
 11
3478.6181361398139416
 21
168.5008427168041862
 31
0.0
  0
LINE
  5
16193
  8
0
 10
3478.6444535235141302
 20
168.5002136252041112
 30
0.0
 11
3478.6453129425140105
 21
168.5008427168041862
 31
0.0
  0
ARC
  5
16194
  8
0
 10
3478.6099289354401662
 20
168.5078955813530115
 30
0.0
 40
0.0090667712926778
 50
313.362328950367214
 51
359.6727180842627263
  0
ARC
  5
16195
  8
0
 10
3478.6160817632030557
 20
168.5079358727842873
 30
0.0
 40
0.0066324685970772
 50
235.0105316404319069
 51
270.6263592686698871
  0
ARC
  5
16196
  8
0
 10
3478.6184757121109214
 20
168.5055579374050012
 30
0.0
 40
0.0048463164361414
 50
241.3791023532783981
 51
256.6429645069093226
  0
ARC
  5
16197
  8
0
 10
3478.6535517881748092
 20
168.5079093278700952
 30
0.0
 40
0.0090985006964213
 50
180.4127079999387036
 51
226.5522449654170885
  0
ARC
  5
16198
  8
0
 10
3478.6449597243649805
 20
168.5055908646174032
 30
0.0
 40
0.0048817582195363
 50
283.4358509138741056
 51
298.5763675238461019
  0
LINE
  5
16199
  8
0
 10
3478.607591171813965
 20
168.5161917601041068
 30
0.0
 11
3478.6189955588138218
 21
168.5078437909041895
 31
0.0
  0
LINE
  5
1619A
  8
0
 10
3478.6189955588138218
 20
168.5078437909041895
 30
0.0
 11
3478.6444535235141302
 21
168.5078437909041043
 31
0.0
  0
LINE
  5
1619B
  8
0
 10
3478.6444535235141302
 20
168.5078437909041043
 30
0.0
 11
3478.6558579106140314
 21
168.5161917601041068
 31
0.0
  0
LINE
  5
1619C
  8
0
 10
3478.6173561239338596
 20
168.5008427168041862
 30
0.0
 11
3478.6460940328138349
 21
168.5008427168041862
 31
0.0
  0
LINE
  5
1619D
  8
0
 10
3478.5989752898049119
 20
168.51224009910419
 30
0.0
 11
3478.612278534214056
 21
168.5025021734041104
 31
0.0
  0
LINE
  5
1619E
  8
0
 10
3478.6189955588138218
 20
168.5078437909041895
 30
0.0
 11
3478.6189955588138218
 21
168.5230083897041027
 31
0.0
  0
LINE
  5
1619F
  8
0
 10
3478.6189955588138218
 20
168.5230083897041027
 30
0.0
 11
3478.6444535235141302
 21
168.5230083897041027
 31
0.0
  0
LINE
  5
161A0
  8
0
 10
3478.6444535235141302
 20
168.5230083897041027
 30
0.0
 11
3478.6444649047948587
 21
168.5074496917528961
 31
0.0
  0
LINE
  5
161A1
  8
0
 10
3478.6189955588138218
 20
168.5230083897041027
 30
0.0
 11
3478.6181361398139416
 21
168.5236374813042062
 31
0.0
  0
LINE
  5
161A2
  8
0
 10
3478.6444535235141302
 20
168.5230083897041027
 30
0.0
 11
3478.6453129425140105
 21
168.5236374813042062
 31
0.0
  0
ARC
  5
161A3
  8
0
 10
3478.6099289354401662
 20
168.5306903458530883
 30
0.0
 40
0.0090667712926778
 50
313.362328950367214
 51
359.6727180842627263
  0
ARC
  5
161A4
  8
0
 10
3478.6160817632030557
 20
168.5307306372843072
 30
0.0
 40
0.0066324685970772
 50
235.0105316404319069
 51
270.6263592686698871
  0
ARC
  5
161A5
  8
0
 10
3478.6184757121109214
 20
168.5283527019049927
 30
0.0
 40
0.0048463164361414
 50
241.3791023532783981
 51
256.6429645069093226
  0
ARC
  5
161A6
  8
0
 10
3478.6535517881748092
 20
168.5307040923700868
 30
0.0
 40
0.0090985006964213
 50
180.4127079999387036
 51
226.5522449654170885
  0
ARC
  5
161A7
  8
0
 10
3478.6473709077408785
 20
168.5307181164507142
 30
0.0
 40
0.0066199887898959
 50
269.3413985867783822
 51
305.0377738637370157
  0
ARC
  5
161A8
  8
0
 10
3478.6449597243649805
 20
168.5283856291173947
 30
0.0
 40
0.0048817582195363
 50
283.4358509138741056
 51
298.5763675238461019
  0
LINE
  5
161A9
  8
0
 10
3478.607591171813965
 20
168.538986524604212
 30
0.0
 11
3478.6189955588138218
 21
168.5306385554040958
 31
0.0
  0
LINE
  5
161AA
  8
0
 10
3478.6189955588138218
 20
168.5306385554040958
 30
0.0
 11
3478.6444535235141302
 21
168.5306385554040958
 31
0.0
  0
LINE
  5
161AB
  8
0
 10
3478.6444535235141302
 20
168.5306385554040958
 30
0.0
 11
3478.6558579106140314
 21
168.538986524604212
 31
0.0
  0
LINE
  5
161AC
  8
0
 10
3478.6644737946980968
 20
168.5350348636042099
 30
0.0
 11
3478.6511715516139702
 21
168.5252978436041076
 31
0.0
  0
LINE
  5
161AD
  8
0
 10
3478.6173561239338596
 20
168.5236374813042062
 30
0.0
 11
3478.6460940328138349
 21
168.5236374813042062
 31
0.0
  0
LINE
  5
161AE
  8
0
 10
3478.5989752898049119
 20
168.5350348636042099
 30
0.0
 11
3478.612278534214056
 21
168.5252969379041019
 31
0.0
  0
LINE
  5
161AF
  8
0
 10
3478.6189955588138218
 20
168.5306385554040958
 30
0.0
 11
3478.6189955588138218
 21
168.5458031542040942
 31
0.0
  0
LINE
  5
161B0
  8
0
 10
3478.6189955588138218
 20
168.5458031542040942
 30
0.0
 11
3478.6444535235141302
 21
168.5458031542040942
 31
0.0
  0
LINE
  5
161B1
  8
0
 10
3478.6444535235141302
 20
168.5458031542040942
 30
0.0
 11
3478.6444649047948587
 21
168.5302444562528876
 31
0.0
  0
LINE
  5
161B2
  8
0
 10
3478.6189955588138218
 20
168.5458031542040942
 30
0.0
 11
3478.6181361398139416
 21
168.5464322458041124
 31
0.0
  0
LINE
  5
161B3
  8
0
 10
3478.6444535235141302
 20
168.5458031542040942
 30
0.0
 11
3478.6453129425140105
 21
168.5464322458041124
 31
0.0
  0
ARC
  5
161B4
  8
0
 10
3478.6099289354401662
 20
168.5534851103531082
 30
0.0
 40
0.0090667712926778
 50
313.362328950367214
 51
359.6727180842627263
  0
ARC
  5
161B5
  8
0
 10
3478.6160817632030557
 20
168.5535254017842988
 30
0.0
 40
0.0066324685970772
 50
235.0105316404319069
 51
270.6263592686698871
  0
ARC
  5
161B6
  8
0
 10
3478.6184757121109214
 20
168.5511474664050127
 30
0.0
 40
0.0048463164361414
 50
241.3791023532783981
 51
256.6429645069093226
  0
ARC
  5
161B7
  8
0
 10
3478.6535517881748092
 20
168.5534988568701067
 30
0.0
 40
0.0090985006964213
 50
180.4127079999387036
 51
226.5522449654170885
  0
ARC
  5
161B8
  8
0
 10
3478.6473709077408785
 20
168.5535128809507057
 30
0.0
 40
0.0066199887898959
 50
269.3413985867783822
 51
305.0377738637370157
  0
ARC
  5
161B9
  8
0
 10
3478.6449597243649805
 20
168.5511803936173862
 30
0.0
 40
0.0048817582195363
 50
283.4358509138741056
 51
298.5763675238461019
  0
LINE
  5
161BA
  8
0
 10
3478.607591171813965
 20
168.5617812891040899
 30
0.0
 11
3478.6189955588138218
 21
168.553433319904201
 31
0.0
  0
LINE
  5
161BB
  8
0
 10
3478.6189955588138218
 20
168.553433319904201
 30
0.0
 11
3478.6444535235141302
 21
168.553433319904201
 31
0.0
  0
LINE
  5
161BC
  8
0
 10
3478.6444535235141302
 20
168.553433319904201
 30
0.0
 11
3478.6546753109328165
 21
168.5609156305094984
 31
0.0
  0
LINE
  5
161BD
  8
0
 10
3478.6651093493110238
 20
168.5582948434775119
 30
0.0
 11
3478.6511715516139702
 21
168.5480926081042128
 31
0.0
  0
LINE
  5
161BE
  8
0
 10
3478.6173561239338596
 20
168.5464322458041124
 30
0.0
 11
3478.6460940328138349
 21
168.5464322458041124
 31
0.0
  0
LINE
  5
161BF
  8
0
 10
3478.5989752898049119
 20
168.5578296281040878
 30
0.0
 11
3478.612278534214056
 21
168.5480917024042071
 31
0.0
  0
LINE
  5
161C0
  8
0
 10
3478.6189955588138218
 20
168.553433319904201
 30
0.0
 11
3478.6189955588138218
 21
168.5677406056861969
 31
0.0
  0
LINE
  5
161C1
  8
0
 10
3478.6444574878919411
 20
168.5631784446242989
 30
0.0
 11
3478.6444649047948587
 21
168.5530392207529076
 31
0.0
  0
ARC
  5
161C2
  8
0
 10
3478.6566397544388565
 20
168.542087728153092
 30
0.0
 40
0.0090667712926778
 50
313.362328950367214
 51
359.6727180842627263
  0
ARC
  5
161C3
  8
0
 10
3478.6627925822022007
 20
168.542128019584311
 30
0.0
 40
0.0066324685970772
 50
235.0105316404319069
 51
270.6263592686698871
  0
ARC
  5
161C4
  8
0
 10
3478.6651865311109759
 20
168.5397500842049965
 30
0.0
 40
0.0048463164361414
 50
241.3791023532783981
 51
256.6429645069093226
  0
ARC
  5
161C5
  8
0
 10
3478.7002626071748637
 20
168.5421014746700905
 30
0.0
 40
0.0090985006964213
 50
180.4127079999387036
 51
226.5522449654170885
  0
ARC
  5
161C6
  8
0
 10
3478.6940817267418424
 20
168.5421154987506895
 30
0.0
 40
0.0066199887898959
 50
269.3413985867783822
 51
305.0377738637370157
  0
ARC
  5
161C7
  8
0
 10
3478.6916705433659445
 20
168.5397830114173985
 30
0.0
 40
0.0048817582195363
 50
283.4358509138741056
 51
298.5763675238461019
  0
LINE
  5
161C8
  8
0
 10
3478.654301990814929
 20
168.5503839069041874
 30
0.0
 11
3478.6657063778138763
 21
168.5420359377040995
 31
0.0
  0
LINE
  5
161C9
  8
0
 10
3478.6657063778138763
 20
168.5420359377040995
 30
0.0
 11
3478.6911643425141847
 21
168.5420359377040995
 31
0.0
  0
LINE
  5
161CA
  8
0
 10
3478.6911643425141847
 20
168.5420359377040995
 30
0.0
 11
3478.6987138036261058
 21
168.5475621153310044
 31
0.0
  0
LINE
  5
161CB
  8
0
 10
3478.7077145373668827
 20
168.5438922079252961
 30
0.0
 11
3478.6978823706140247
 21
168.5366952259041113
 31
0.0
  0
LINE
  5
161CC
  8
0
 10
3478.6640669429339141
 20
168.5350348636042099
 30
0.0
 11
3478.6928048518138894
 21
168.5350348636042099
 31
0.0
  0
LINE
  5
161CD
  8
0
 10
3478.6456861088049664
 20
168.5464322459041
 30
0.0
 11
3478.6589893532150199
 21
168.5366943202041057
 31
0.0
  0
LINE
  5
161CE
  8
0
 10
3478.6657063778138763
 20
168.5420359377040995
 30
0.0
 11
3478.6657063778138763
 21
168.5572005365042116
 31
0.0
  0
LINE
  5
161CF
  8
0
 10
3478.6911693584338536
 20
168.5503435595475139
 30
0.0
 11
3478.6911757237949132
 21
168.5416418385528914
 31
0.0
  0
LINE
  5
161D0
  8
0
 10
3478.6657063778138763
 20
168.5572005365042116
 30
0.0
 11
3478.6646603784211038
 21
168.5579662042769087
 31
0.0
  0
ARC
  5
161D1
  8
0
 10
3478.7033505734389109
 20
168.5306903458530883
 30
0.0
 40
0.0090667712926778
 50
313.362328950367214
 51
359.6727180842627263
  0
ARC
  5
161D2
  8
0
 10
3478.7095034012031647
 20
168.5307306372843072
 30
0.0
 40
0.0066324685970772
 50
235.0105316404319069
 51
270.6263592686698871
  0
ARC
  5
161D3
  8
0
 10
3478.7118973501110304
 20
168.5283527019049927
 30
0.0
 40
0.0048463164361414
 50
241.3791023532783981
 51
256.6429645069093226
  0
ARC
  5
161D4
  8
0
 10
3478.7469734261749181
 20
168.5307040923700868
 30
0.0
 40
0.0090985006964213
 50
196.928188218852199
 51
226.5522449654183106
  0
ARC
  5
161D5
  8
0
 10
3478.7407925457418969
 20
168.5307181164507142
 30
0.0
 40
0.0066199887898959
 50
269.3413985867783822
 51
292.9275493297117237
  0
ARC
  5
161D6
  8
0
 10
3478.7383813623650894
 20
168.5283856291173947
 30
0.0
 40
0.0048817582195363
 50
283.4358509138741056
 51
298.5763675238461019
  0
LINE
  5
161D7
  8
0
 10
3478.701012809814074
 20
168.538986524604212
 30
0.0
 11
3478.7124171968139308
 21
168.5306385554040958
 31
0.0
  0
LINE
  5
161D8
  8
0
 10
3478.7124171968139308
 20
168.5306385554040958
 30
0.0
 11
3478.734121083116861
 21
168.5306385554040958
 31
0.0
  0
LINE
  5
161D9
  8
0
 10
3478.7107777619339686
 20
168.5236374813042062
 30
0.0
 11
3478.7395156708139439
 21
168.5236374813042062
 31
0.0
  0
LINE
  5
161DA
  8
0
 10
3478.6923969278050208
 20
168.5350348636042099
 30
0.0
 11
3478.7057001722141649
 21
168.5252969379041019
 31
0.0
  0
LINE
  5
161DB
  8
0
 10
3478.7124171968139308
 20
168.5306385554040958
 30
0.0
 11
3478.7124171968139308
 21
168.5418803912666021
 31
0.0
  0
ARC
  5
161DC
  8
0
 10
3478.3204426401648561
 20
168.5192088503663115
 30
0.0
 40
0.0065013402589493
 50
257.9358298842929003
 51
305.249541254280075
  0
LINE
  5
161DD
  8
0
 10
3478.3374980591870553
 20
168.5236374813042062
 30
0.0
 11
3478.3241948149138807
 21
168.5138995557041142
 31
0.0
  0
ARC
  5
161DE
  8
0
 10
3478.3265760549747938
 20
168.4965119456701075
 30
0.0
 40
0.0090985006964213
 50
180.4127079999387036
 51
226.5522449654170885
  0
ARC
  5
161DF
  8
0
 10
3478.3203951745422273
 20
168.4965259697507065
 30
0.0
 40
0.0066199887898959
 50
269.3413985867783822
 51
305.0377738637370157
  0
ARC
  5
161E0
  8
0
 10
3478.3179839911649651
 20
168.494193482417387
 30
0.0
 40
0.0048817582195363
 50
283.4358509138741056
 51
298.5763675238461019
  0
LINE
  5
161E1
  8
0
 10
3478.3057862469381689
 20
168.4964464087042018
 30
0.0
 11
3478.3174777903141148
 21
168.4964464087042018
 31
0.0
  0
LINE
  5
161E2
  8
0
 10
3478.3174777903141148
 20
168.4964464087042018
 30
0.0
 11
3478.328882177414016
 21
168.5047943779040907
 31
0.0
  0
LINE
  5
161E3
  8
0
 10
3478.3374980614980814
 20
168.5008427169042022
 30
0.0
 11
3478.3241958184148643
 21
168.4911056969042136
 31
0.0
  0
LINE
  5
161E4
  8
0
 10
3478.3183372094140395
 20
168.4894453346041132
 30
0.0
 11
3478.3191182996138195
 21
168.4894453346041132
 31
0.0
  0
LINE
  5
161E5
  8
0
 10
3478.3174780496819949
 20
168.511256440217096
 30
0.0
 11
3478.3174891715939339
 21
168.4960523095529084
 31
0.0
  0
ARC
  5
161E6
  8
0
 10
3478.3265760549747938
 20
168.4737171811700875
 30
0.0
 40
0.0090985006964213
 50
180.4127079999387036
 51
226.5522449654170885
  0
ARC
  5
161E7
  8
0
 10
3478.3203951745422273
 20
168.4737312052506866
 30
0.0
 40
0.0066199887898959
 50
269.3413985867783822
 51
305.0377738637370157
  0
ARC
  5
161E8
  8
0
 10
3478.3179839911649651
 20
168.4713987179173955
 30
0.0
 40
0.0048817582195363
 50
283.4358509138741056
 51
298.5763675238461019
  0
LINE
  5
161E9
  8
0
 10
3478.3072237650139868
 20
168.4736516442042102
 30
0.0
 11
3478.3174777903141148
 21
168.4736516442040966
 31
0.0
  0
LINE
  5
161EA
  8
0
 10
3478.3174777903141148
 20
168.4736516442040966
 30
0.0
 11
3478.328882177414016
 21
168.4819996134042128
 31
0.0
  0
LINE
  5
161EB
  8
0
 10
3478.3374980614980814
 20
168.478047952404097
 30
0.0
 11
3478.3241958184148643
 21
168.4683109324041084
 31
0.0
  0
LINE
  5
161EC
  8
0
 10
3478.3088203825141136
 20
168.466650570104207
 30
0.0
 11
3478.3191182996138195
 21
168.466650570104207
 31
0.0
  0
LINE
  5
161ED
  8
0
 10
3478.3072237650139868
 20
168.488816243004095
 30
0.0
 11
3478.3174777903141148
 21
168.488816243004095
 31
0.0
  0
LINE
  5
161EE
  8
0
 10
3478.3174777903141148
 20
168.488816243004095
 30
0.0
 11
3478.3174891715939339
 21
168.4732575450530021
 31
0.0
  0
LINE
  5
161EF
  8
0
 10
3478.3174777903141148
 20
168.488816243004095
 30
0.0
 11
3478.3183372093139951
 21
168.4894453346041132
 31
0.0
  0
ARC
  5
161F0
  8
0
 10
3478.3732868739748483
 20
168.439525034370206
 30
0.0
 40
0.0090985006964213
 50
180.4127079999387036
 51
226.5522449654170885
  0
ARC
  5
161F1
  8
0
 10
3478.3671059935409176
 20
168.4395390584506913
 30
0.0
 40
0.0066199887898959
 50
269.3413985867783822
 51
305.0377738637370157
  0
ARC
  5
161F2
  8
0
 10
3478.3646948101650196
 20
168.4372065711174002
 30
0.0
 40
0.0048817582195363
 50
283.4358509138741056
 51
298.5763675238461019
  0
LINE
  5
161F3
  8
0
 10
3478.3410088267569336
 20
168.4394594974041865
 30
0.0
 11
3478.3641886093141693
 21
168.4394594974041865
 31
0.0
  0
LINE
  5
161F4
  8
0
 10
3478.3641886093141693
 20
168.4394594974041865
 30
0.0
 11
3478.3755929964140705
 21
168.4478074666041039
 31
0.0
  0
LINE
  5
161F5
  8
0
 10
3478.3842088804981358
 20
168.443855805604187
 30
0.0
 11
3478.3709066374140093
 21
168.4341187856041131
 31
0.0
  0
LINE
  5
161F6
  8
0
 10
3478.3458159269139287
 20
168.4324583012042069
 30
0.0
 11
3478.365829118613874
 21
168.4324584233042117
 31
0.0
  0
LINE
  5
161F7
  8
0
 10
3478.3410088267569336
 20
168.454615980518895
 30
0.0
 11
3478.3641886093141693
 21
168.4546240962040997
 31
0.0
  0
LINE
  5
161F8
  8
0
 10
3478.3641886093141693
 20
168.4546240962040997
 30
0.0
 11
3478.3641999905948978
 21
168.4390653982528931
 31
0.0
  0
LINE
  5
161F9
  8
0
 10
3478.3410088267569336
 20
168.454615980518895
 30
0.0
 11
3478.3400493709591501
 21
168.4552520543113872
 31
0.0
  0
LINE
  5
161FA
  8
0
 10
3478.3641886093141693
 20
168.4546240962040997
 30
0.0
 11
3478.3650480283140496
 21
168.4552531878042032
 31
0.0
  0
ARC
  5
161FB
  8
0
 10
3478.4697964783390489
 20
168.4509086701530123
 30
0.0
 40
0.0090667712926778
 50
313.362328950367214
 51
359.6727180842627263
  0
ARC
  5
161FC
  8
0
 10
3478.4759493061028479
 20
168.4509489615842881
 30
0.0
 40
0.0066324685970772
 50
235.0105316404319069
 51
270.6263592686698871
  0
ARC
  5
161FD
  8
0
 10
3478.4783432550111684
 20
168.448571026205002
 30
0.0
 40
0.0048463164361414
 50
241.3791023532783981
 51
256.6429645069093226
  0
ARC
  5
161FE
  8
0
 10
3478.5134193310741466
 20
168.450922416670096
 30
0.0
 40
0.0090985006964213
 50
180.4127079999387036
 51
226.5522449654170885
  0
ARC
  5
161FF
  8
0
 10
3478.5072384506411254
 20
168.4509364407506951
 30
0.0
 40
0.0066199887898959
 50
269.3413985867783822
 51
305.0377738637370157
  0
ARC
  5
16200
  8
0
 10
3478.5048272672647727
 20
168.448603953417404
 30
0.0
 40
0.0048817582195363
 50
283.4358509138741056
 51
298.5763675238461019
  0
LINE
  5
16201
  8
0
 10
3478.467458714714212
 20
168.4592048489041076
 30
0.0
 11
3478.4788631017140688
 21
168.4508568797041903
 31
0.0
  0
LINE
  5
16202
  8
0
 10
3478.4788631017140688
 20
168.4508568797041903
 30
0.0
 11
3478.5043210664139224
 21
168.450856879704105
 31
0.0
  0
LINE
  5
16203
  8
0
 10
3478.5043210664139224
 20
168.450856879704105
 30
0.0
 11
3478.5157254535138236
 21
168.4592048489041076
 31
0.0
  0
LINE
  5
16204
  8
0
 10
3478.5243413375969794
 20
168.4552531879041908
 30
0.0
 11
3478.5110390945142171
 21
168.4455161679040884
 31
0.0
  0
LINE
  5
16205
  8
0
 10
3478.4772236668341066
 20
168.443855805604187
 30
0.0
 11
3478.5059615757140818
 21
168.443855805604187
 31
0.0
  0
LINE
  5
16206
  8
0
 10
3478.4588428327051588
 20
168.4552531879041908
 30
0.0
 11
3478.4721460771138482
 21
168.4455152622041112
 31
0.0
  0
LINE
  5
16207
  8
0
 10
3478.4788631017140688
 20
168.4508568797041903
 30
0.0
 11
3478.4788631017140688
 21
168.4660214785041035
 31
0.0
  0
LINE
  5
16208
  8
0
 10
3478.4788631017140688
 20
168.4660214785041035
 30
0.0
 11
3478.5043210664139224
 21
168.4660214785041035
 31
0.0
  0
LINE
  5
16209
  8
0
 10
3478.5043210664139224
 20
168.4660214785041035
 30
0.0
 11
3478.5043324476951057
 21
168.4504627805528969
 31
0.0
  0
LINE
  5
1620A
  8
0
 10
3478.4788631017140688
 20
168.4660214785041035
 30
0.0
 11
3478.4780036827141885
 21
168.466650570104207
 31
0.0
  0
LINE
  5
1620B
  8
0
 10
3478.5043210664139224
 20
168.4660214785041035
 30
0.0
 11
3478.5051804854138027
 21
168.466650570104207
 31
0.0
  0
ARC
  5
1620C
  8
0
 10
3478.5165072973391034
 20
168.5078955813530115
 30
0.0
 40
0.0090667712926778
 50
313.362328950367214
 51
359.6727180842627263
  0
ARC
  5
1620D
  8
0
 10
3478.5226601251029024
 20
168.5079358727842873
 30
0.0
 40
0.0066324685970772
 50
235.0105316404319069
 51
270.6263592686698871
  0
ARC
  5
1620E
  8
0
 10
3478.5250540740098586
 20
168.5055579374050012
 30
0.0
 40
0.0048463164361414
 50
241.3791023532783981
 51
256.6429645069093226
  0
ARC
  5
1620F
  8
0
 10
3478.5601301500742011
 20
168.5079093278700952
 30
0.0
 40
0.0090985006964213
 50
180.4127079999387036
 51
226.5522449654170885
  0
ARC
  5
16210
  8
0
 10
3478.5539492696420893
 20
168.5079233519506943
 30
0.0
 40
0.0066199887898959
 50
269.3413985867783822
 51
305.0377738637370157
  0
ARC
  5
16211
  8
0
 10
3478.5515380862661914
 20
168.5055908646174032
 30
0.0
 40
0.0048817582195363
 50
283.4358509138741056
 51
298.5763675238461019
  0
LINE
  5
16212
  8
0
 10
3478.5141695337138117
 20
168.5161917601041068
 30
0.0
 11
3478.5255739207150327
 21
168.5078437909041895
 31
0.0
  0
LINE
  5
16213
  8
0
 10
3478.5255739207150327
 20
168.5078437909041895
 30
0.0
 11
3478.5510318854148863
 21
168.5078437909041043
 31
0.0
  0
LINE
  5
16214
  8
0
 10
3478.5510318854148863
 20
168.5078437909041043
 30
0.0
 11
3478.5624362725138781
 21
168.5161917601041068
 31
0.0
  0
LINE
  5
16215
  8
0
 10
3478.5710521565979434
 20
168.51224009910419
 30
0.0
 11
3478.5577499135138169
 21
168.5025030791040876
 31
0.0
  0
LINE
  5
16216
  8
0
 10
3478.523934485834161
 20
168.5008427168041862
 30
0.0
 11
3478.5526723947150458
 21
168.5008427168041862
 31
0.0
  0
LINE
  5
16217
  8
0
 10
3478.5055536517052133
 20
168.51224009910419
 30
0.0
 11
3478.5188568961139026
 21
168.5025021734041104
 31
0.0
  0
LINE
  5
16218
  8
0
 10
3478.5255739207150327
 20
168.5078437909041895
 30
0.0
 11
3478.5255739207150327
 21
168.5230083897041027
 31
0.0
  0
LINE
  5
16219
  8
0
 10
3478.5255739207150327
 20
168.5230083897041027
 30
0.0
 11
3478.5510318854148863
 21
168.5230083897041027
 31
0.0
  0
LINE
  5
1621A
  8
0
 10
3478.5510318854148863
 20
168.5230083897041027
 30
0.0
 11
3478.5510432666951601
 21
168.5074496917528961
 31
0.0
  0
LINE
  5
1621B
  8
0
 10
3478.5255739207150327
 20
168.5230083897041027
 30
0.0
 11
3478.5247145017151524
 21
168.5236374813042062
 31
0.0
  0
LINE
  5
1621C
  8
0
 10
3478.5510318854148863
 20
168.5230083897041027
 30
0.0
 11
3478.5518913044138571
 21
168.5236374813042062
 31
0.0
  0
ARC
  5
1621D
  8
0
 10
3478.6566397544388565
 20
168.5192929636529868
 30
0.0
 40
0.0090667712926778
 50
313.362328950367214
 51
359.6727180842627263
  0
ARC
  5
1621E
  8
0
 10
3478.6627925822022007
 20
168.5193332550842911
 30
0.0
 40
0.0066324685970772
 50
235.0105316404319069
 51
270.6263592686698871
  0
ARC
  5
1621F
  8
0
 10
3478.6651865311109759
 20
168.516955319705005
 30
0.0
 40
0.0048463164361414
 50
241.3791023532783981
 51
256.6429645069093226
  0
ARC
  5
16220
  8
0
 10
3478.7002626071748637
 20
168.519306710170099
 30
0.0
 40
0.0090985006964213
 50
180.4127079999387036
 51
226.5522449654170885
  0
ARC
  5
16221
  8
0
 10
3478.6940817267418424
 20
168.519320734250698
 30
0.0
 40
0.0066199887898959
 50
269.3413985867783822
 51
305.0377738637370157
  0
ARC
  5
16222
  8
0
 10
3478.6916705433659445
 20
168.516988246917407
 30
0.0
 40
0.0048817582195363
 50
283.4358509138741056
 51
298.5763675238461019
  0
LINE
  5
16223
  8
0
 10
3478.654301990814929
 20
168.5275891424041106
 30
0.0
 11
3478.6657063778138763
 21
168.519241173204108
 31
0.0
  0
LINE
  5
16224
  8
0
 10
3478.6657063778138763
 20
168.519241173204108
 30
0.0
 11
3478.6911643425141847
 21
168.519241173204108
 31
0.0
  0
LINE
  5
16225
  8
0
 10
3478.6911643425141847
 20
168.519241173204108
 30
0.0
 11
3478.7025687296149954
 21
168.5275891424041106
 31
0.0
  0
LINE
  5
16226
  8
0
 10
3478.7111846136981512
 20
168.5236374814041085
 30
0.0
 11
3478.6978823706140247
 21
168.5139004614040914
 31
0.0
  0
LINE
  5
16227
  8
0
 10
3478.6640669429339141
 20
168.51224009910419
 30
0.0
 11
3478.6928048518138894
 21
168.51224009910419
 31
0.0
  0
LINE
  5
16228
  8
0
 10
3478.6456861088049664
 20
168.5236374814041085
 30
0.0
 11
3478.6589893532150199
 21
168.5138995557041142
 31
0.0
  0
LINE
  5
16229
  8
0
 10
3478.6657063778138763
 20
168.519241173204108
 30
0.0
 11
3478.6657063778138763
 21
168.5344057720041064
 31
0.0
  0
LINE
  5
1622A
  8
0
 10
3478.6657063778138763
 20
168.5344057720041064
 30
0.0
 11
3478.6911643425141847
 21
168.5344057720041064
 31
0.0
  0
LINE
  5
1622B
  8
0
 10
3478.6911643425141847
 20
168.5344057720041064
 30
0.0
 11
3478.6911757237949132
 21
168.5188470740530136
 31
0.0
  0
LINE
  5
1622C
  8
0
 10
3478.6657063778138763
 20
168.5344057720041064
 30
0.0
 11
3478.664846958813996
 21
168.5350348636042099
 31
0.0
  0
LINE
  5
1622D
  8
0
 10
3478.6911643425141847
 20
168.5344057720041064
 30
0.0
 11
3478.692023761514065
 21
168.5350348636042099
 31
0.0
  0
ARC
  5
1622E
  8
0
 10
3478.6566397544388565
 20
168.4737034346530891
 30
0.0
 40
0.0090667712926778
 50
313.362328950367214
 51
359.6727180842627263
  0
ARC
  5
1622F
  8
0
 10
3478.6627925822022007
 20
168.473743726084308
 30
0.0
 40
0.0066324685970772
 50
235.0105316404319069
 51
270.6263592686698871
  0
ARC
  5
16230
  8
0
 10
3478.6651865311109759
 20
168.4713657907049935
 30
0.0
 40
0.0048463164361414
 50
241.3791023532783981
 51
256.6429645069093226
  0
ARC
  5
16231
  8
0
 10
3478.7002626071748637
 20
168.4737171811700875
 30
0.0
 40
0.0090985006964213
 50
180.4127079999387036
 51
226.5522449654170885
  0
ARC
  5
16232
  8
0
 10
3478.6940817267418424
 20
168.4737312052506866
 30
0.0
 40
0.0066199887898959
 50
269.3413985867783822
 51
305.0377738637370157
  0
ARC
  5
16233
  8
0
 10
3478.6916705433659445
 20
168.4713987179173955
 30
0.0
 40
0.0048817582195363
 50
283.4358509138741056
 51
298.5763675238461019
  0
LINE
  5
16234
  8
0
 10
3478.654301990814929
 20
168.4819996134042128
 30
0.0
 11
3478.6657063778138763
 21
168.4736516442042102
 31
0.0
  0
LINE
  5
16235
  8
0
 10
3478.6657063778138763
 20
168.4736516442042102
 30
0.0
 11
3478.6911643425141847
 21
168.4736516442040966
 31
0.0
  0
LINE
  5
16236
  8
0
 10
3478.6911643425141847
 20
168.4736516442040966
 30
0.0
 11
3478.7025687296149954
 21
168.4819996134042128
 31
0.0
  0
LINE
  5
16237
  8
0
 10
3478.7111846136981512
 20
168.478047952404097
 30
0.0
 11
3478.6978823706140247
 21
168.4683109324041084
 31
0.0
  0
LINE
  5
16238
  8
0
 10
3478.6640669429339141
 20
168.466650570104207
 30
0.0
 11
3478.6928048518138894
 21
168.466650570104207
 31
0.0
  0
LINE
  5
16239
  8
0
 10
3478.6456861088049664
 20
168.478047952404097
 30
0.0
 11
3478.6589893532150199
 21
168.4683100267041027
 31
0.0
  0
LINE
  5
1623A
  8
0
 10
3478.6657063778138763
 20
168.4736516442042102
 30
0.0
 11
3478.6657063778138763
 21
168.488816243004095
 31
0.0
  0
LINE
  5
1623B
  8
0
 10
3478.6657063778138763
 20
168.488816243004095
 30
0.0
 11
3478.6911643425141847
 21
168.488816243004095
 31
0.0
  0
LINE
  5
1623C
  8
0
 10
3478.6911643425141847
 20
168.488816243004095
 30
0.0
 11
3478.6911757237949132
 21
168.4732575450530021
 31
0.0
  0
LINE
  5
1623D
  8
0
 10
3478.6657063778138763
 20
168.488816243004095
 30
0.0
 11
3478.664846958813996
 21
168.4894453346041132
 31
0.0
  0
LINE
  5
1623E
  8
0
 10
3478.6911643425141847
 20
168.488816243004095
 30
0.0
 11
3478.692023761514065
 21
168.4894453346041132
 31
0.0
  0
ARC
  5
1623F
  8
0
 10
3478.5165072973391034
 20
168.4167165233531023
 30
0.0
 40
0.0090667712926778
 50
313.362328950367214
 51
359.6727180842627263
  0
ARC
  5
16240
  8
0
 10
3478.5226601251029024
 20
168.4167568147842928
 30
0.0
 40
0.0066324685970772
 50
235.0105316404319069
 51
270.6263592686698871
  0
ARC
  5
16241
  8
0
 10
3478.5250540740098586
 20
168.4143788794050067
 30
0.0
 40
0.0048463164361414
 50
241.3791023532783981
 51
256.6429645069093226
  0
ARC
  5
16242
  8
0
 10
3478.5601301500742011
 20
168.4167302698701008
 30
0.0
 40
0.0090985006964213
 50
180.4127079999387036
 51
226.5522449654170885
  0
ARC
  5
16243
  8
0
 10
3478.5539492696420893
 20
168.4167442939506998
 30
0.0
 40
0.0066199887898959
 50
269.3413985867783822
 51
305.0377738637370157
  0
ARC
  5
16244
  8
0
 10
3478.5515380862661914
 20
168.4144118066174087
 30
0.0
 40
0.0048817582195363
 50
283.4358509138741056
 51
298.5763675238461019
  0
LINE
  5
16245
  8
0
 10
3478.5141695337138117
 20
168.4250127021041123
 30
0.0
 11
3478.5255739207150327
 21
168.416664732904195
 31
0.0
  0
LINE
  5
16246
  8
0
 10
3478.5255739207150327
 20
168.416664732904195
 30
0.0
 11
3478.5510318854148863
 21
168.416664732904195
 31
0.0
  0
LINE
  5
16247
  8
0
 10
3478.5510318854148863
 20
168.416664732904195
 30
0.0
 11
3478.5624362725138781
 21
168.4250127021041123
 31
0.0
  0
LINE
  5
16248
  8
0
 10
3478.5710521565979434
 20
168.4210610411041102
 30
0.0
 11
3478.5577499135138169
 21
168.4113240211042068
 31
0.0
  0
LINE
  5
16249
  8
0
 10
3478.523934485834161
 20
168.4096636588041065
 30
0.0
 11
3478.5526723947150458
 21
168.4096636588041065
 31
0.0
  0
LINE
  5
1624A
  8
0
 10
3478.5055536517052133
 20
168.4210610411041102
 30
0.0
 11
3478.5188568961139026
 21
168.4113231154040875
 31
0.0
  0
LINE
  5
1624B
  8
0
 10
3478.5255739207150327
 20
168.416664732904195
 30
0.0
 11
3478.5255739207150327
 21
168.4318293317041082
 31
0.0
  0
LINE
  5
1624C
  8
0
 10
3478.5255739207150327
 20
168.4318293317041082
 30
0.0
 11
3478.5510318854148863
 21
168.4318293317041082
 31
0.0
  0
LINE
  5
1624D
  8
0
 10
3478.5510318854148863
 20
168.4318293317041082
 30
0.0
 11
3478.5510432666951601
 21
168.4162706337529869
 31
0.0
  0
LINE
  5
1624E
  8
0
 10
3478.5255739207150327
 20
168.4318293317041082
 30
0.0
 11
3478.5247145017151524
 21
168.4324584233042117
 31
0.0
  0
LINE
  5
1624F
  8
0
 10
3478.5510318854148863
 20
168.4318293317041082
 30
0.0
 11
3478.5518913044138571
 21
168.4324584233042117
 31
0.0
  0
ARC
  5
16250
  8
0
 10
3478.42308565923895
 20
168.5534851104530105
 30
0.0
 40
0.0090667712926778
 50
313.362328950367214
 51
359.6727180842627263
  0
ARC
  5
16251
  8
0
 10
3478.4292384870018395
 20
168.5535254018842863
 30
0.0
 40
0.0066324685970772
 50
235.0105316404319069
 51
270.6263592686698871
  0
ARC
  5
16252
  8
0
 10
3478.43163243591016
 20
168.5511474665050002
 30
0.0
 40
0.0048463164361414
 50
241.3791023532783981
 51
256.6429645069093226
  0
ARC
  5
16253
  8
0
 10
3478.4667085119740477
 20
168.553498856970208
 30
0.0
 40
0.0090985006964213
 50
180.4127079999387036
 51
226.5522449654170885
  0
ARC
  5
16254
  8
0
 10
3478.460527631541936
 20
168.5535128810506933
 30
0.0
 40
0.0066199887898959
 50
269.3413985867783822
 51
305.0377738637370157
  0
ARC
  5
16255
  8
0
 10
3478.4581164481651285
 20
168.5511803937174022
 30
0.0
 40
0.0048817582195363
 50
283.4358509138741056
 51
298.5763675238461019
  0
LINE
  5
16256
  8
0
 10
3478.4219292105681234
 20
168.5609165709774118
 30
0.0
 11
3478.4321522826139699
 21
168.5534333200041033
 31
0.0
  0
LINE
  5
16257
  8
0
 10
3478.4321522826139699
 20
168.5534333200041033
 30
0.0
 11
3478.4576102473138235
 21
168.5534333200041033
 31
0.0
  0
LINE
  5
16258
  8
0
 10
3478.4576102473138235
 20
168.5534333200041033
 30
0.0
 11
3478.4690146344141795
 21
168.5617812892041911
 31
0.0
  0
LINE
  5
16259
  8
0
 10
3478.47763051849779
 20
168.5578296282041038
 30
0.0
 11
3478.4643282754141183
 21
168.5480926082042004
 31
0.0
  0
LINE
  5
1625A
  8
0
 10
3478.4305128477340077
 20
168.5464322459041
 30
0.0
 11
3478.459250756613983
 21
168.5464322459041
 31
0.0
  0
LINE
  5
1625B
  8
0
 10
3478.4119454305418913
 20
168.5579662063157116
 30
0.0
 11
3478.425435258014204
 21
168.5480917025041094
 31
0.0
  0
LINE
  5
1625C
  8
0
 10
3478.4321522826139699
 20
168.5534333200041033
 30
0.0
 11
3478.4321522826139699
 21
168.5631803800372097
 31
0.0
  0
LINE
  5
1625D
  8
0
 10
3478.4576108743731311
 20
168.5677407024820127
 30
0.0
 11
3478.4576216285950068
 21
168.5530392208530088
 31
0.0
  0
ARC
  5
1625E
  8
0
 10
3478.5165072973391034
 20
168.5762798749530873
 30
0.0
 40
0.0090667712926778
 50
313.362328950367214
 51
342.10353032782632
  0
ARC
  5
1625F
  8
0
 10
3478.5226601251029024
 20
168.5763201663843063
 30
0.0
 40
0.0066324685970772
 50
235.0105316404319069
 51
270.6263592686698871
  0
ARC
  5
16260
  8
0
 10
3478.5250540740098586
 20
168.5739422310049918
 30
0.0
 40
0.0048463164361414
 50
241.3791023532783981
 51
256.6429645069093226
  0
ARC
  5
16261
  8
0
 10
3478.5539492696420893
 20
168.5763076455507132
 30
0.0
 40
0.0066199887898959
 50
269.3413985867783822
 51
305.0377738637370157
  0
ARC
  5
16262
  8
0
 10
3478.5515380862661914
 20
168.5739751582173938
 30
0.0
 40
0.0048817582195363
 50
283.4358509138741056
 51
298.5763675238461019
  0
LINE
  5
16263
  8
0
 10
3478.5608784597861813
 20
168.573177416377888
 30
0.0
 11
3478.5577499135138169
 21
168.5708873727041066
 31
0.0
  0
LINE
  5
16264
  8
0
 10
3478.523934485834161
 20
168.5692270104040915
 30
0.0
 11
3478.5526723947150458
 21
168.5692270104040915
 31
0.0
  0
LINE
  5
16265
  8
0
 10
3478.5157268930997816
 20
168.5731776176328935
 30
0.0
 11
3478.5188568961139026
 21
168.5708864670041862
 31
0.0
  0
ARC
  5
16266
  8
0
 10
3478.7500613925371908
 20
168.4964981991537911
 30
0.0
 40
0.0090667712926778
 50
313.362328950367214
 51
359.6727180842627263
  0
ARC
  5
16267
  8
0
 10
3478.7562142203009898
 20
168.4965384905850954
 30
0.0
 40
0.0066324685970772
 50
235.0105316404319069
 51
270.6263592686698871
  0
ARC
  5
16268
  8
0
 10
3478.7586081692088555
 20
168.4941605552056956
 30
0.0
 40
0.0048463164361414
 50
241.3791023532783981
 51
256.6429645069093226
  0
LINE
  5
16269
  8
0
 10
3478.7477236289128086
 20
168.5047943779048865
 30
0.0
 11
3478.7591280159131202
 21
168.4964464087049123
 31
0.0
  0
LINE
  5
1626A
  8
0
 10
3478.7591280159131202
 20
168.4964464087049123
 30
0.0
 11
3478.7708142774367843
 21
168.4964464087049123
 31
0.0
  0
LINE
  5
1626B
  8
0
 10
3478.757488581033158
 20
168.489445334604909
 30
0.0
 11
3478.7740688888611658
 21
168.4894453346039995
 31
0.0
  0
LINE
  5
1626C
  8
0
 10
3478.739107746902846
 20
168.5008427169049128
 30
0.0
 11
3478.7524109913128996
 21
168.49110479120489
 31
0.0
  0
LINE
  5
1626D
  8
0
 10
3478.7591280159131202
 20
168.4964464087049123
 30
0.0
 11
3478.7591280159131202
 21
168.5112508532180016
 31
0.0
  0
ARC
  5
1626E
  8
0
 10
3478.7500613925371908
 20
168.4737034346537996
 30
0.0
 40
0.0090667712926778
 50
313.362328950367214
 51
359.6727180842627263
  0
ARC
  5
1626F
  8
0
 10
3478.7562142203009898
 20
168.4737437260849902
 30
0.0
 40
0.0066324685970772
 50
235.0105316404319069
 51
270.6263592686698871
  0
ARC
  5
16270
  8
0
 10
3478.7586081692088555
 20
168.4713657907057041
 30
0.0
 40
0.0048463164361414
 50
241.3791023532783981
 51
256.6429645069093226
  0
LINE
  5
16271
  8
0
 10
3478.7477236289128086
 20
168.4819996134048949
 30
0.0
 11
3478.7591280159131202
 21
168.4736516442048924
 31
0.0
  0
LINE
  5
16272
  8
0
 10
3478.7591280159131202
 20
168.4736516442048924
 30
0.0
 11
3478.7693820411141132
 21
168.4736516442048924
 31
0.0
  0
LINE
  5
16273
  8
0
 10
3478.757488581033158
 20
168.4666505701048891
 30
0.0
 11
3478.7677854136150017
 21
168.4666505701048891
 31
0.0
  0
LINE
  5
16274
  8
0
 10
3478.739107746902846
 20
168.4780479524048928
 30
0.0
 11
3478.7524109913128996
 21
168.4683100267048985
 31
0.0
  0
LINE
  5
16275
  8
0
 10
3478.7591280159131202
 20
168.4736516442048924
 30
0.0
 11
3478.7591280159131202
 21
168.4888162430048908
 31
0.0
  0
LINE
  5
16276
  8
0
 10
3478.7591280159131202
 20
168.4888162430048908
 30
0.0
 11
3478.7693820411141132
 21
168.4888162430048908
 31
0.0
  0
LINE
  5
16277
  8
0
 10
3478.7591280159131202
 20
168.4888162430048908
 30
0.0
 11
3478.7582685969127851
 21
168.489445334604909
 31
0.0
  0
ARC
  5
16278
  8
0
 10
3478.7033505735380459
 20
168.4395112878538043
 30
0.0
 40
0.0090667712926778
 50
313.362328950367214
 51
359.6727180842627263
  0
ARC
  5
16279
  8
0
 10
3478.7095034013009354
 20
168.4395515792849949
 30
0.0
 40
0.0066324685970772
 50
235.0105316404319069
 51
270.6263592686698871
  0
ARC
  5
1627A
  8
0
 10
3478.7118973502101653
 20
168.4371736439057088
 30
0.0
 40
0.0048463164361414
 50
241.3791023532783981
 51
256.6429645069093226
  0
LINE
  5
1627B
  8
0
 10
3478.7010128099132089
 20
168.4478074666048997
 30
0.0
 11
3478.7124171969130657
 21
168.4394594974048971
 31
0.0
  0
LINE
  5
1627C
  8
0
 10
3478.7124171969130657
 20
168.4394594974048971
 30
0.0
 11
3478.7355858923151573
 21
168.4394594974048971
 31
0.0
  0
LINE
  5
1627D
  8
0
 10
3478.7107777620331035
 20
168.4324584233048938
 30
0.0
 11
3478.7307930286601731
 21
168.4324584233048938
 31
0.0
  0
LINE
  5
1627E
  8
0
 10
3478.6923969279027915
 20
168.4438558056048976
 30
0.0
 11
3478.7057001723128451
 21
168.4341178799049032
 31
0.0
  0
LINE
  5
1627F
  8
0
 10
3478.7124171969130657
 20
168.4394594974048971
 30
0.0
 11
3478.7124171969130657
 21
168.4546240962048955
 31
0.0
  0
LINE
  5
16280
  8
0
 10
3478.7124171969130657
 20
168.4546240962048955
 30
0.0
 11
3478.7355858923328924
 21
168.4546240962316972
 31
0.0
  0
LINE
  5
16281
  8
0
 10
3478.7124171969130657
 20
168.4546240962048955
 30
0.0
 11
3478.7115577779131854
 21
168.4552531878049138
 31
0.0
  0
ARC
  5
16282
  8
0
 10
3478.7454936931389966
 20
168.4542522091529975
 30
0.0
 40
0.0090667712926778
 50
313.362328950367214
 51
359.6727180842627263
  0
ARC
  5
16283
  8
0
 10
3478.7516465209018861
 20
168.454292500584188
 30
0.0
 40
0.0066324685970772
 50
235.0105316404319069
 51
270.6263592686698871
  0
LINE
  5
16284
  8
0
 10
3478.7477236288477798
 20
168.4592048488468947
 30
0.0
 11
3478.7545603165140164
 21
168.4542004187040902
 31
0.0
  0
LINE
  5
16285
  8
0
 10
3478.7391077469519587
 20
168.4552531878042032
 30
0.0
 11
3478.7478432919151601
 21
168.4488588012040964
 31
0.0
  0
LINE
  5
16286
  8
0
 10
3478.7545603165140164
 20
168.4542004187040902
 30
0.0
 11
3478.7545603165140164
 21
168.4642092789677008
 31
0.0
  0
LINE
  5
16287
  8
0
 10
3478.7545603165140164
 20
168.4673207795684107
 30
0.0
 11
3478.7545603165140164
 21
168.4673230510846054
 31
0.0
  0
ARC
  5
16288
  8
0
 10
3478.6945941473391031
 20
168.4231261948530118
 30
0.0
 40
0.0090667712926778
 50
313.362328950367214
 51
359.6727180842627263
  0
ARC
  5
16289
  8
0
 10
3478.7007469751029021
 20
168.4231664862842024
 30
0.0
 40
0.0066324685970772
 50
235.0105316404319069
 51
270.6263592686698871
  0
LINE
  5
1628A
  8
0
 10
3478.701012809769054
 20
168.4250127020445973
 30
0.0
 11
3478.7036607707141229
 21
168.4230744044041046
 31
0.0
  0
LINE
  5
1628B
  8
0
 10
3478.6923969279191624
 20
168.4210610410042079
 30
0.0
 11
3478.6969437461139023
 21
168.4177327869041108
 31
0.0
  0
LINE
  5
1628C
  8
0
 10
3478.7036607707141229
 20
168.4230744044041046
 30
0.0
 11
3478.7036607707141229
 21
168.4269509996618126
 31
0.0
  0
ARC
  5
1628D
  8
0
 10
3478.6515828176388823
 20
168.4090208001530016
 30
0.0
 40
0.0090667712926778
 50
313.362328950367214
 51
359.6727180842627263
  0
ARC
  5
1628E
  8
0
 10
3478.6577356454022265
 20
168.4090610915841921
 30
0.0
 40
0.0066324685970772
 50
235.0105316404319069
 51
270.6263592686698871
  0
LINE
  5
1628F
  8
0
 10
3478.6543019907799135
 20
168.4136153198525108
 30
0.0
 11
3478.6606494410139021
 21
168.4089690097040943
 31
0.0
  0
LINE
  5
16290
  8
0
 10
3478.6456861088968253
 20
168.4096636588041065
 30
0.0
 11
3478.6539324164150457
 21
168.4036273922041005
 31
0.0
  0
LINE
  5
16291
  8
0
 10
3478.6606494410139021
 20
168.4089690097040943
 30
0.0
 11
3478.6606494410139021
 21
168.4182616299451922
 31
0.0
  0
ARC
  5
16292
  8
0
 10
3478.6023269657389392
 20
168.3994863725530138
 30
0.0
 40
0.0090667712926778
 50
313.362328950367214
 51
359.6727180842627263
  0
ARC
  5
16293
  8
0
 10
3478.6084797935031929
 20
168.3995266639842043
 30
0.0
 40
0.0066324685970772
 50
235.0105316404319069
 51
270.6263592686698871
  0
LINE
  5
16294
  8
0
 10
3478.6075911717862255
 20
168.4022179375569124
 30
0.0
 11
3478.611393589113959
 21
168.3994345821041065
 31
0.0
  0
LINE
  5
16295
  8
0
 10
3478.5989752899399718
 20
168.3982662765041027
 30
0.0
 11
3478.6046765645151027
 21
168.3940929646041127
 31
0.0
  0
LINE
  5
16296
  8
0
 10
3478.611393589113959
 20
168.3994345821041065
 30
0.0
 11
3478.611393589113959
 21
168.4050012929762943
 31
0.0
  0
ARC
  5
16297
  8
0
 10
3478.5153626628398342
 20
168.3947596271530074
 30
0.0
 40
0.0090667712926778
 50
313.362328950367214
 51
359.6727180842627263
  0
ARC
  5
16298
  8
0
 10
3478.5215154906031785
 20
168.3947999185841979
 30
0.0
 40
0.0066324685970772
 50
235.0105316404319069
 51
270.6263592686698871
  0
LINE
  5
16299
  8
0
 10
3478.5141695337802048
 20
168.4022179376258066
 30
0.0
 11
3478.5244292862139446
 21
168.3947078367041001
 31
0.0
  0
LINE
  5
1629A
  8
0
 10
3478.5055536519498673
 20
168.3982662765041027
 30
0.0
 11
3478.5177122616141787
 21
168.3893662192041063
 31
0.0
  0
LINE
  5
1629B
  8
0
 10
3478.5244292862139446
 20
168.3947078367041001
 30
0.0
 11
3478.5244292862139446
 21
168.4096636588041065
 31
0.0
  0
ARC
  5
1629C
  8
0
 10
3478.5612636976170506
 20
168.3947652579848864
 30
0.0
 40
0.0090985006964213
 50
180.4127079999387036
 51
226.5522449654170885
  0
ARC
  5
1629D
  8
0
 10
3478.5550828171840294
 20
168.3947792820654001
 30
0.0
 40
0.0066199887898959
 50
269.3413985867783822
 51
305.0377738637370157
  0
LINE
  5
1629E
  8
0
 10
3478.5521654329568264
 20
168.3946997210188101
 30
0.0
 11
3478.5624362724429375
 21
168.4022179375562871
 31
0.0
  0
LINE
  5
1629F
  8
0
 10
3478.5710521363430416
 20
168.3982662765041027
 30
0.0
 11
3478.5588834610571212
 21
168.3893590092187935
 31
0.0
  0
LINE
  5
162A0
  8
0
 10
3478.5521655797410858
 20
168.4096636588041065
 30
0.0
 11
3478.5521768142371002
 21
168.3943056218676873
 31
0.0
  0
ARC
  5
162A1
  8
0
 10
3478.4742993946169918
 20
168.3994920033848075
 30
0.0
 40
0.0090985006964213
 50
180.4127079999387036
 51
226.5522449654170885
  0
ARC
  5
162A2
  8
0
 10
3478.4681185141839705
 20
168.3995060274654065
 30
0.0
 40
0.0066199887898959
 50
269.3413985867783822
 51
305.0377738637370157
  0
LINE
  5
162A3
  8
0
 10
3478.4652011299572223
 20
168.3994264664189018
 30
0.0
 11
3478.4690146344091772
 21
168.4022179375812982
 31
0.0
  0
LINE
  5
162A4
  8
0
 10
3478.4776303837011255
 20
168.3982662765041027
 30
0.0
 11
3478.4719191580570623
 21
168.3940857546189136
 31
0.0
  0
LINE
  5
162A5
  8
0
 10
3478.465208142749816
 20
168.405004275395612
 30
0.0
 11
3478.4652125112370413
 21
168.3990323672676936
 31
0.0
  0
ARC
  5
162A6
  8
0
 10
3478.4250435428170931
 20
168.4090264309847953
 30
0.0
 40
0.0090985006964213
 50
180.4127079999387036
 51
226.5522449654170885
  0
ARC
  5
162A7
  8
0
 10
3478.4188626623840719
 20
168.4090404550653943
 30
0.0
 40
0.0066199887898959
 50
269.3413985867783822
 51
305.0377738637370157
  0
LINE
  5
162A8
  8
0
 10
3478.4159452781568689
 20
168.4089608940188896
 30
0.0
 11
3478.4223038154382266
 21
168.4136153198041939
 31
0.0
  0
LINE
  5
162A9
  8
0
 10
3478.4309196099929977
 20
168.4096636588041065
 30
0.0
 11
3478.4226633062571636
 21
168.4036201822189014
 31
0.0
  0
LINE
  5
162AA
  8
0
 10
3478.4159469253190764
 20
168.4218737521443074
 30
0.0
 11
3478.415946926459128
 21
168.421872191368692
 31
0.0
  0
LINE
  5
162AB
  8
0
 10
3478.4159495639651141
 20
168.4182666084136883
 30
0.0
 11
3478.4159566594371427
 21
168.4085667948677099
 31
0.0
  0
ARC
  5
162AC
  8
0
 10
3478.3820322130159184
 20
168.4231318256848056
 30
0.0
 40
0.0090985006964213
 50
180.4127079999387036
 51
226.5522449654170885
  0
ARC
  5
162AD
  8
0
 10
3478.3758513325838067
 20
168.4231458497654046
 30
0.0
 40
0.0066199887898959
 50
269.3413985867783822
 51
305.0377738637370157
  0
LINE
  5
162AE
  8
0
 10
3478.3729339483570584
 20
168.4230662887188998
 30
0.0
 11
3478.3755929963817835
 21
168.4250127020447962
 31
0.0
  0
LINE
  5
162AF
  8
0
 10
3478.3842087252419333
 20
168.4210610410042079
 30
0.0
 11
3478.3796519764568984
 21
168.4177255769189117
 31
0.0
  0
LINE
  5
162B0
  8
0
 10
3478.3729421981420273
 20
168.4269530765664058
 30
0.0
 11
3478.3729453296368774
 21
168.4226721895676917
 31
0.0
  0
ARC
  5
162B1
  8
0
 10
3478.3525702798879138
 20
168.4422468186756987
 30
0.0
 40
0.0118927018959641
 50
193.5546317201608133
 51
235.3932303279827067
  0
LINE
  5
162B2
  8
0
 10
3478.3410088267569336
 20
168.454615980518895
 30
0.0
 11
3478.3410088267569336
 21
168.4394594974041865
 31
0.0
  0
ARC
  5
162B3
  8
0
 10
3478.3311326672169344
 20
168.4542578399849049
 30
0.0
 40
0.0090985006964213
 50
180.4127079999387036
 51
226.5522449654170885
  0
ARC
  5
162B4
  8
0
 10
3478.3249517867839131
 20
168.4542718640653902
 30
0.0
 40
0.0066199887898959
 50
269.3413985867783822
 51
305.0377738637370157
  0
LINE
  5
162B5
  8
0
 10
3478.3220344025571649
 20
168.4541923030189139
 30
0.0
 11
3478.3288821773471682
 21
168.4592048488528917
 31
0.0
  0
LINE
  5
162B6
  8
0
 10
3478.3374979805171279
 20
168.4552531878042032
 30
0.0
 11
3478.3287524306560954
 21
168.4488515912188973
 31
0.0
  0
LINE
  5
162B7
  8
0
 10
3478.3220358923417734
 20
168.4673203016967875
 30
0.0
 11
3478.3220358942007806
 21
168.4673177591741933
 31
0.0
  0
LINE
  5
162B8
  8
0
 10
3478.3220381641508538
 20
168.464214641197799
 30
0.0
 11
3478.3220457838369839
 21
168.4537982038675921
 31
0.0
  0
ARC
  5
162B9
  8
0
 10
3478.7282415541922092
 20
168.4393462463499134
 30
0.0
 40
0.0073452112470024
 50
290.326274138556073
 51
0.8834415155478678
  0
LINE
  5
162BA
  8
0
 10
3478.7355858922901461
 20
168.4546240962040997
 30
0.0
 11
3478.7355858923151573
 21
168.4394594974048971
 31
0.0
  0
LINE
  5
162BB
  8
0
 10
3478.7355858923328924
 20
168.4546240962316972
 30
0.0
 11
3478.7365564352458023
 21
168.4552520543111882
 31
0.0
  0
LINE
  5
162BC
  8
0
 10
3478.7693820411050183
 20
168.4888162429882925
 30
0.0
 11
3478.7693820411050183
 21
168.4736516442048924
 31
0.0
  0
LINE
  5
162BD
  8
0
 10
3478.7526289181378161
 20
168.5137520071093036
 30
0.0
 11
3478.7391075971518148
 21
168.5236374813042062
 31
0.0
  0
ARC
  5
162BE
  8
0
 10
3478.7561762191921844
 20
168.5192493062158974
 30
0.0
 40
0.0065424492534472
 50
237.1666272970101943
 51
281.8641217593464035
  0
LINE
  5
162BF
  8
0
 10
3478.4604515380151497
 20
168.546893329604103
 30
0.0
 11
3478.4760218110141068
 21
168.5354959473042129
 31
0.0
  0
LINE
  5
162C0
  8
0
 10
3478.4760218110141068
 20
168.5354959473042129
 30
0.0
 11
3478.4604515380151497
 21
168.5240985651041115
 31
0.0
  0
LINE
  5
162C1
  8
0
 10
3478.464320495218999
 20
168.5252921880127133
 30
0.0
 11
3478.477630519098966
 21
168.5350348636042099
 31
0.0
  0
ARC
  5
162C2
  8
0
 10
3478.4309636575408149
 20
168.526827758146112
 30
0.0
 40
0.0031905795704416
 50
238.8029573987317917
 51
269.2105863230809746
  0
ARC
  5
162C3
  8
0
 10
3478.4292348428211881
 20
168.5307365042459935
 30
0.0
 40
0.0066383759050487
 50
235.0740148191657113
 51
270.6572575281525133
  0
LINE
  5
162C4
  8
0
 10
3478.4293109919130984
 20
168.546893329604103
 30
0.0
 11
3478.413740719064208
 21
168.5354959473042982
 31
0.0
  0
LINE
  5
162C5
  8
0
 10
3478.413740719064208
 20
168.5354959473042982
 30
0.0
 11
3478.4293109920158713
 21
168.5240985651041115
 31
0.0
  0
LINE
  5
162C6
  8
0
 10
3478.4293109920158713
 20
168.5240985651041115
 30
0.0
 11
3478.4604515380151497
 21
168.5240985651041115
 31
0.0
  0
ARC
  5
162C7
  8
0
 10
3478.4605307489209736
 20
168.5307089603001032
 30
0.0
 40
0.0066108697623636
 50
269.3134701756411005
 51
304.977860234022387
  0
LINE
  5
162C8
  8
0
 10
3478.4121320634990298
 20
168.5350348636042099
 30
0.0
 11
3478.4254342546141743
 21
168.5252937509042113
 31
0.0
  0
LINE
  5
162C9
  8
0
 10
3478.4309196972872087
 20
168.5236374813042062
 30
0.0
 11
3478.4588428327051588
 21
168.5236374814041085
 31
0.0
  0
ARC
  5
162CA
  8
0
 10
3478.4588048296600391
 20
168.5268069735703023
 30
0.0
 40
0.0031697199911571
 50
270.6869585457721996
 51
301.2995396557903973
  0
LINE
  5
162CB
  8
0
 10
3478.5538731761139388
 20
168.5013038005041039
 30
0.0
 11
3478.5694434491138054
 21
168.4899064182041002
 31
0.0
  0
LINE
  5
162CC
  8
0
 10
3478.5694434491138054
 20
168.4899064182041002
 30
0.0
 11
3478.5538731761139388
 21
168.4785090360041124
 31
0.0
  0
LINE
  5
162CD
  8
0
 10
3478.5577421333191523
 20
168.4797026589126858
 30
0.0
 11
3478.5710521571991194
 21
168.4894453345042109
 31
0.0
  0
ARC
  5
162CE
  8
0
 10
3478.5243852956409683
 20
168.481238229046113
 30
0.0
 40
0.0031905795704416
 50
238.8029573987317917
 51
269.2105863230809746
  0
ARC
  5
162CF
  8
0
 10
3478.5226564809208867
 20
168.4851469751459945
 30
0.0
 40
0.0066383759050487
 50
235.0740148191657113
 51
270.6572575281525133
  0
LINE
  5
162D0
  8
0
 10
3478.5227326300141613
 20
168.5013038005041039
 30
0.0
 11
3478.5071623571648161
 21
168.4899064182042139
 31
0.0
  0
LINE
  5
162D1
  8
0
 10
3478.5071623571648161
 20
168.4899064182042139
 30
0.0
 11
3478.5227326301160247
 21
168.4785090360041124
 31
0.0
  0
LINE
  5
162D2
  8
0
 10
3478.5227326301160247
 20
168.4785090360041124
 30
0.0
 11
3478.5538731761139388
 21
168.4785090360041124
 31
0.0
  0
ARC
  5
162D3
  8
0
 10
3478.5539523870211269
 20
168.4851194312001041
 30
0.0
 40
0.0066108697623636
 50
269.3134701756411005
 51
304.977860234022387
  0
LINE
  5
162D4
  8
0
 10
3478.5055537015991831
 20
168.4894453345042109
 30
0.0
 11
3478.5188558927138729
 21
168.4797042218042122
 31
0.0
  0
LINE
  5
162D5
  8
0
 10
3478.5243413353869073
 20
168.4780479522042071
 30
0.0
 11
3478.5522644708048574
 21
168.4780479523041095
 31
0.0
  0
ARC
  5
162D6
  8
0
 10
3478.5522264677601925
 20
168.4812174444703032
 30
0.0
 40
0.0031697199911571
 50
270.6869585457721996
 51
301.2995396557903973
  0
LINE
  5
162D7
  8
0
 10
3478.5071623570638621
 20
168.4443168893041047
 30
0.0
 11
3478.5227326300641835
 21
168.432919507004101
 31
0.0
  0
LINE
  5
162D8
  8
0
 10
3478.5227326300641835
 20
168.432919507004101
 30
0.0
 11
3478.5071623570638621
 21
168.4215221248041132
 31
0.0
  0
LINE
  5
162D9
  8
0
 10
3478.5110313142690757
 20
168.4227157477126866
 30
0.0
 11
3478.5243413381490427
 21
168.4324584233042117
 31
0.0
  0
ARC
  5
162DA
  8
0
 10
3478.4776744765908916
 20
168.4242513178461138
 30
0.0
 40
0.0031905795704416
 50
238.8029573987317917
 51
269.2105863230809746
  0
ARC
  5
162DB
  8
0
 10
3478.47594566187081
 20
168.4281600639459953
 30
0.0
 40
0.0066383759050487
 50
235.0740148191657113
 51
270.6572575281525133
  0
LINE
  5
162DC
  8
0
 10
3478.4760218109640846
 20
168.4443168893041047
 30
0.0
 11
3478.4604515381138299
 21
168.4329195070041862
 31
0.0
  0
LINE
  5
162DD
  8
0
 10
3478.4604515381138299
 20
168.4329195070041862
 30
0.0
 11
3478.476021811065948
 21
168.4215221248041132
 31
0.0
  0
LINE
  5
162DE
  8
0
 10
3478.476021811065948
 20
168.4215221248041132
 30
0.0
 11
3478.5071623570638621
 21
168.4215221248041132
 31
0.0
  0
ARC
  5
162DF
  8
0
 10
3478.5072415679710502
 20
168.4281325200001049
 30
0.0
 40
0.0066108697623636
 50
269.3134701756411005
 51
304.977860234022387
  0
LINE
  5
162E0
  8
0
 10
3478.4588428825491064
 20
168.4324584233042117
 30
0.0
 11
3478.4721450736637962
 21
168.422717310604213
 31
0.0
  0
LINE
  5
162E1
  8
0
 10
3478.4776305163368306
 20
168.4210610410042079
 30
0.0
 11
3478.5055536517547807
 21
168.4210610411041102
 31
0.0
  0
ARC
  5
162E2
  8
0
 10
3478.5055156487110253
 20
168.4242305332701903
 30
0.0
 40
0.0031697199911571
 50
270.6869585457721996
 51
301.2995396557903973
  0
LINE
  5
162E3
  8
0
 10
3478.6940056331641244
 20
168.5127011828041077
 30
0.0
 11
3478.709575906163991
 21
168.5013038005041039
 31
0.0
  0
LINE
  5
162E4
  8
0
 10
3478.709575906163991
 20
168.5013038005041039
 30
0.0
 11
3478.6940056331641244
 21
168.4899064183040878
 31
0.0
  0
LINE
  5
162E5
  8
0
 10
3478.6628650870638921
 20
168.5127011828041077
 30
0.0
 11
3478.6472948142140922
 21
168.5013038005043029
 31
0.0
  0
LINE
  5
162E6
  8
0
 10
3478.6472948142140922
 20
168.5013038005043029
 30
0.0
 11
3478.6628650871662103
 21
168.4899064183040878
 31
0.0
  0
LINE
  5
162E7
  8
0
 10
3478.6628650871662103
 20
168.4899064183040878
 30
0.0
 11
3478.6940056331641244
 21
168.4899064183040878
 31
0.0
  0
ARC
  5
162E8
  8
0
 10
3478.7564011676490736
 20
168.4729293802627978
 30
0.0
 40
0.0130009515379813
 50
331.121747837524083
 51
3.1846893515500199
  0
LINE
  5
162E9
  8
0
 10
3478.7693820411141132
 20
168.4888162430061982
 30
0.0
 11
3478.7696923264898032
 21
168.4894443960679951
 31
0.0
  0
LINE
  5
162EA
  8
0
 10
3478.3025316355151517
 20
168.4894453346041132
 30
0.0
 11
3478.3183372093139951
 21
168.4894453346041132
 31
0.0
  0
LINE
  5
162EB
  8
0
 10
3478.3069134796478465
 20
168.4894443960874924
 30
0.0
 11
3478.3072237650339957
 21
168.488816243004095
 31
0.0
  0
LINE
  5
162EC
  8
0
 10
3478.3072237650339957
 20
168.488816243004095
 30
0.0
 11
3478.3072237650339957
 21
168.4736516442042102
 31
0.0
  0
ARC
  5
162ED
  8
0
 10
3478.3476110764358964
 20
168.4791795066188058
 30
0.0
 40
0.0407638588108409
 50
187.7937181093521133
 51
197.8998445288086998
  0
ARC
  5
162EE
  8
0
 10
3478.3913587095898947
 20
168.5096786756953122
 30
0.0
 40
0.1011599705824405
 50
213.0177941234559
 51
243.6157188585962956
  0
ARC
  5
162EF
  8
0
 10
3478.4662544069929027
 20
168.63499847392481
 30
0.0
 40
0.2469719260128969
 50
240.9692918807056969
 51
251.788668100424303
  0
ARC
  5
162F0
  8
0
 10
3478.5138697374018193
 20
168.776827311442986
 30
0.0
 40
0.3965785039840362
 50
251.6578390151904898
 51
261.3604428849553187
  0
ARC
  5
162F1
  8
0
 10
3478.5442111973629835
 20
168.9765183147590903
 30
0.0
 40
0.5985614265242482
 50
261.3604428849549777
 51
265.3548473617448735
  0
ARC
  5
162F2
  8
0
 10
3478.5356860342340042
 20
168.8715949137788925
 30
0.0
 40
0.4932922549704493
 50
265.3548473617448735
 51
270.3036433840035215
  0
ARC
  5
162F3
  8
0
 10
3478.5382080071640303
 20
168.9293747299695099
 30
0.0
 40
0.5578514165346256
 50
264.3013487384179143
 51
270.0094753251743782
  0
ARC
  5
162F4
  8
0
 10
3478.5296534625058484
 20
168.8436488261552881
 30
0.0
 40
0.4716997431960044
 50
254.2203457465788858
 51
264.3013487384179143
  0
ARC
  5
162F5
  8
0
 10
3478.4686770819948833
 20
168.6278704332817995
 30
0.0
 40
0.2474712128717465
 50
236.0105398916392119
 51
254.2203457465788858
  0
ARC
  5
162F6
  8
0
 10
3478.3743436275099157
 20
168.4879598252308028
 30
0.0
 40
0.0787294608358479
 50
203.6780532983362946
 51
236.0105398916392119
  0
ARC
  5
162F7
  8
0
 10
3478.3372746052700677
 20
168.4717045943374103
 30
0.0
 40
0.0382529869120213
 50
173.5988678060035966
 51
203.6780532983378009
  0
ARC
  5
162F8
  8
0
 10
3478.3539015754140564
 20
168.4698392481226108
 30
0.0
 40
0.0549842645883549
 50
155.8187825501836983
 51
173.5988678060035966
  0
ARC
  5
162F9
  8
0
 10
3478.3533227754528525
 20
168.470099143108996
 30
0.0
 40
0.0543497925248483
 50
137.6255647446162129
 51
155.8187825501836983
  0
ARC
  5
162FA
  8
0
 10
3478.4237738507290487
 20
168.4058260922012096
 30
0.0
 40
0.1497142464929031
 50
131.3423556585333927
 51
137.6255647446162129
  0
ARC
  5
162FB
  8
0
 10
3478.4076240028039138
 20
168.4188059893072875
 30
0.0
 40
0.1293501083496241
 50
124.5978950084811032
 51
129.7692568247649092
  0
ARC
  5
162FC
  8
0
 10
3478.4230557584860435
 20
168.3966532767443027
 30
0.0
 40
0.1563476824113013
 50
120.9930921305258948
 51
124.643392212396904
  0
ARC
  5
162FD
  8
0
 10
3478.3930678750039078
 20
168.4517171632822112
 30
0.0
 40
0.0937409005647423
 50
116.0941154510206985
 51
122.6116881681565047
  0
ARC
  5
162FE
  8
0
 10
3478.4460285591821957
 20
168.3570678021062861
 30
0.0
 40
0.2021245533103725
 50
113.8855921761452947
 51
117.7756932878805003
  0
ARC
  5
162FF
  8
0
 10
3478.4809808033719492
 20
168.2795502281962001
 30
0.0
 40
0.2871563363696736
 50
105.7297730101885946
 51
113.9995262112906005
  0
ARC
  5
16300
  8
0
 10
3478.5040785811597743
 20
168.2117608837932892
 30
0.0
 40
0.3586895774645627
 50
102.3323240101638021
 51
106.3455771569175994
  0
ARC
  5
16301
  8
0
 10
3478.5232578475329319
 20
168.1279148498709048
 30
0.0
 40
0.4446979938229149
 50
98.4891125368365437
 51
102.4391008967635059
  0
ARC
  5
16302
  8
0
 10
3478.3452917128288391
 20
168.479230914287001
 30
0.0
 40
0.0459437603570772
 50
197.5163169907187068
 51
212.4832759499888084
  0
ARC
  5
16303
  8
0
 10
3478.3534751802121718
 20
168.4818137140881902
 30
0.0
 40
0.0545251351435713
 50
186.13359816177379
 51
197.5163169907202985
  0
ARC
  5
16304
  8
0
 10
3478.5380975189441415
 20
167.9980077010752098
 30
0.0
 40
0.580665581044995
 50
89.9799947976593444
 51
96.925102571221899
  0
ARC
  5
16305
  8
0
 10
3478.5144744211020225
 20
168.1599839810793924
 30
0.0
 40
0.4170411348141048
 50
96.3864038955276925
 51
111.079169603393197
  0
ARC
  5
16306
  8
0
 10
3478.4278601583819182
 20
168.3799713670528035
 30
0.0
 40
0.1806308528543666
 50
110.5404709935378946
 51
129.0552338102775991
  0
ARC
  5
16307
  8
0
 10
3478.3683046197488693
 20
168.4533715404367911
 30
0.0
 40
0.0861086457567591
 50
129.0552338102785939
 51
150.0883999759730898
  0
ARC
  5
16308
  8
0
 10
3478.334906556318856
 20
168.4725852772529038
 30
0.0
 40
0.0475781601199563
 50
150.0883999759730898
 51
174.8851759602160882
  0
ARC
  5
16309
  8
0
 10
3478.3344148976611905
 20
168.4726292848413038
 30
0.0
 40
0.047084535866704
 50
174.8851759602177083
 51
206.3665619232805
  0
ARC
  5
1630A
  8
0
 10
3478.3583640366241525
 20
168.4845003247534123
 30
0.0
 40
0.0738143477938687
 50
206.3665619232805
 51
223.0504593585523878
  0
ARC
  5
1630B
  8
0
 10
3478.3901376749281553
 20
168.5141820804151962
 30
0.0
 40
0.1172950413288811
 50
223.0504593585523878
 51
238.2055863996361893
  0
ARC
  5
1630C
  8
0
 10
3478.4556957641439112
 20
168.6199394767533875
 30
0.0
 40
0.2417236953514162
 50
238.2055863996361893
 51
247.8806527505037138
  0
ARC
  5
1630D
  8
0
 10
3478.4831740384620389
 20
168.687544807517213
 30
0.0
 40
0.3146999675715511
 50
247.8806527505037138
 51
255.9845902996019049
  0
ARC
  5
1630E
  8
0
 10
3478.5337852245370414
 20
168.890302860741798
 30
0.0
 40
0.5236792017153959
 50
255.9845902996019049
 51
262.6367823256725842
  0
ARC
  5
1630F
  8
0
 10
3478.5378316075889416
 20
168.9427990080170048
 30
0.0
 40
0.5762674220338777
 50
262.906707704750886
 51
270.0465963067186976
  0
ARC
  5
16310
  8
0
 10
3478.5051927244799117
 20
168.2812036902653858
 30
0.0
 40
0.290460826669587
 50
95.2011364950160157
 51
99.428404289301227
  0
ARC
  5
16311
  8
0
 10
3479.1295065744388921
 20
169.0117023305296868
 30
0.0
 40
0.0126959033617293
 50
8.9930198542117044
 51
51.8170780976782908
  0
ARC
  5
16312
  8
0
 10
3479.1338249030209226
 20
169.0156984156641897
 30
0.0
 40
0.0069470741025616
 50
59.4612853144850178
 51
85.2055611825326054
  0
ARC
  5
16313
  8
0
 10
3479.1338698814161035
 20
169.0087508733475943
 30
0.0
 40
0.0138806481914119
 50
87.7883586291402906
 51
111.8034255857439945
  0
ARC
  5
16314
  8
0
 10
3479.3088961417120117
 20
168.6962031813035878
 30
0.0
 40
0.3719861300995443
 50
118.9717215463404045
 51
127.2687144132077037
  0
ARC
  5
16315
  8
0
 10
3478.7037934800528092
 20
169.5395077347629922
 30
0.0
 40
0.6661784176850944
 50
286.8965841064422193
 51
304.7631325297127773
  0
ARC
  5
16316
  8
0
 10
3478.4857337244670816
 20
170.5802180478675041
 30
0.0
 40
1.7278898038270529
 50
271.7433435450352022
 51
283.7836707852497966
  0
ARC
  5
16317
  8
0
 10
3479.055771592767087
 20
168.9967851686380129
 30
0.0
 40
0.0879148012308666
 50
357.6125304111128003
 51
11.0841809562740092
  0
ARC
  5
16318
  8
0
 10
3478.539484188213919
 20
167.7088863109970021
 30
0.0
 40
0.5789236787647125
 50
269.882827366917013
 51
279.9847233553992965
  0
ARC
  5
16319
  8
0
 10
3478.5721077120751943
 20
167.5314791850780978
 30
0.0
 40
0.3985494621938864
 50
279.7878327311757971
 51
293.8758646780700019
  0
ARC
  5
1631A
  8
0
 10
3478.6610425243820828
 20
167.3305579185415866
 30
0.0
 40
0.1788251891000311
 50
293.8758646780700019
 51
317.1858748010564
  0
ARC
  5
1631B
  8
0
 10
3478.7364531563312084
 20
167.2606923669821981
 30
0.0
 40
0.0760246117394714
 50
317.1858748010553199
 51
333.7290508675488923
  0
ARC
  5
1631C
  8
0
 10
3478.7235769466219608
 20
167.2670480648432942
 30
0.0
 40
0.0903839874845942
 50
333.7290508675488923
 51
357.7389040867146832
  0
ARC
  5
1631D
  8
0
 10
3478.7693404549049774
 20
167.2652411353857929
 30
0.0
 40
0.0445848206302332
 50
357.7389040867146832
 51
30.0244485112479609
  0
ARC
  5
1631E
  8
0
 10
3478.7130110306297865
 20
167.2326872710034138
 30
0.0
 40
0.1096444711476932
 50
30.0244485112479609
 51
55.3238953662282071
  0
ARC
  5
1631F
  8
0
 10
3478.6050910236049276
 20
167.0570066933489954
 30
0.0
 40
0.3157192596896905
 50
57.3568105131938708
 51
79.5823516370085287
  0
ARC
  5
16320
  8
0
 10
3478.5403364613721351
 20
166.7767314074775129
 30
0.0
 40
0.6032237447824769
 50
78.3468005233272322
 51
90.1934039269049634
  0
ARC
  5
16321
  8
0
 10
3478.5394641616098852
 20
166.7990705012477974
 30
0.0
 40
0.5402700763688268
 50
79.6835234067519167
 51
90.1234319262822225
  0
ARC
  5
16322
  8
0
 10
3478.5677911795710315
 20
166.9546897281084057
 30
0.0
 40
0.382093707352309
 50
69.478551633705024
 51
79.6835203715337599
  0
ARC
  5
16323
  8
0
 10
3478.6304850211949997
 20
167.1221808581759944
 30
0.0
 40
0.2032535652449035
 50
52.6600726001425983
 51
69.478551633705024
  0
ARC
  5
16324
  8
0
 10
3478.7080731436089991
 20
167.2238827254012961
 30
0.0
 40
0.0753348936729623
 50
21.9177187595328604
 51
52.6600726001425983
  0
ARC
  5
16325
  8
0
 10
3478.7400713430652104
 20
167.2367574151286931
 30
0.0
 40
0.0408437005359025
 50
334.1988290422638102
 51
21.9177187595328604
  0
ARC
  5
16326
  8
0
 10
3478.7019547233539924
 20
167.2551846700932003
 30
0.0
 40
0.0831809232096844
 50
308.9040660045529876
 51
334.1988290422638102
  0
ARC
  5
16327
  8
0
 10
3478.6240991039608161
 20
167.3614806058380964
 30
0.0
 40
0.2148835823237135
 50
286.1232779878378096
 51
307.2590512705198194
  0
ARC
  5
16328
  8
0
 10
3478.561932130938203
 20
167.5447293492867118
 30
0.0
 40
0.4082841238924958
 50
279.7141612602729879
 51
287.3628858381832742
  0
ARC
  5
16329
  8
0
 10
3478.539376690653171
 20
167.6771744831623892
 30
0.0
 40
0.5426360917945172
 50
269.8863421609589182
 51
279.701931102309004
  0
LINE
  5
1632A
  8
0
 10
3478.8138908134378653
 20
167.415701176748712
 30
0.0
 11
3478.8138908134378653
 21
167.2669937863047949
 31
0.0
  0
ARC
  5
1632B
  8
0
 10
3478.5394029655008126
 20
166.764637695725412
 30
0.0
 40
0.7193128043695644
 50
82.5809746938354863
 51
90.087834208254904
  0
ARC
  5
1632C
  8
0
 10
3478.5583453856529559
 20
166.9101080415044862
 30
0.0
 40
0.5726143490869025
 50
70.4867042515332258
 51
82.5809746938354863
  0
ARC
  5
1632D
  8
0
 10
3478.6726003205640154
 20
167.2272155719167017
 30
0.0
 40
0.2355627869705019
 50
48.3621623323208496
 51
70.9173598469576802
  0
ARC
  5
1632E
  8
0
 10
3478.7644065683548433
 20
167.3345789049666905
 30
0.0
 40
0.0943651526375537
 50
25.7523300583866686
 51
46.7091732774004313
  0
ARC
  5
1632F
  8
0
 10
3478.7956019202079005
 20
167.3498918709701115
 30
0.0
 40
0.059615375155017
 50
329.3138081192824984
 51
25.5233249425570392
  0
ARC
  5
16330
  8
0
 10
3478.7471753369791259
 20
167.3787624301131984
 30
0.0
 40
0.1159947725546983
 50
305.1107914146716098
 51
329.2574215736719907
  0
LINE
  5
16331
  8
0
 10
3478.8271487480838005
 20
167.4049924268682901
 30
0.0
 11
3478.8138908134378653
 21
167.3899531649225025
 31
0.0
  0
ARC
  5
16332
  8
0
 10
3478.7012157496487816
 20
169.0082988668359008
 30
0.0
 40
0.4426545544244498
 50
349.2845322549287062
 51
358.0352852764331146
  0
LINE
  5
16333
  8
0
 10
3479.1361515761941519
 20
168.9259952743180975
 30
0.0
 11
3479.1274508337028237
 21
168.4742818340322117
 31
0.0
  0
ARC
  5
16334
  8
0
 10
3479.0235892193509244
 20
168.4762188683141062
 30
0.0
 40
0.1038796757677731
 50
358.9315492086738004
 51
3.6990380242699681
  0
ARC
  5
16335
  8
0
 10
3479.0157580328868789
 20
168.475712579879314
 30
0.0
 40
0.1117272110116792
 50
3.6990382062618901
 51
23.2074305112691697
  0
ARC
  5
16336
  8
0
 10
3478.9775503777300401
 20
168.459330892372293
 30
0.0
 40
0.1532986507053969
 50
23.2074305112691697
 51
40.3235691248976309
  0
ARC
  5
16337
  8
0
 10
3478.8867124524481369
 20
168.3822304654389939
 30
0.0
 40
0.2724456376700647
 50
40.3235691248976309
 51
61.6506445517847084
  0
ARC
  5
16338
  8
0
 10
3478.6577374180160405
 20
167.9578538476710037
 30
0.0
 40
0.7546541818723578
 50
61.6506445517847084
 51
74.8031042922122253
  0
ARC
  5
16339
  8
0
 10
3478.5824355267131978
 20
167.6806374826660999
 30
0.0
 40
1.041915888092374
 50
74.8031042922126517
 51
84.5277131372176029
  0
ARC
  5
1633A
  8
0
 10
3478.5389589114129194
 20
167.3610383113185094
 30
0.0
 40
1.364264633100996
 50
83.9901314017421754
 51
90.0276616772734712
  0
ARC
  5
1633B
  8
0
 10
3478.5387968328218449
 20
167.3821799670448058
 30
0.0
 40
1.3172755810764241
 50
83.0893174502634366
 51
90.0215986712435523
  0
ARC
  5
1633C
  8
0
 10
3478.5706210980388278
 20
167.6447516761442103
 30
0.0
 40
1.052782317880665
 50
71.7791340226250867
 51
83.0893133263164572
  0
ARC
  5
1633D
  8
0
 10
3478.7356973629839558
 20
168.1462184163027871
 30
0.0
 40
0.5248438131912867
 50
59.1770383876578734
 51
71.7791340226250867
  0
ARC
  5
1633E
  8
0
 10
3478.8412180973127761
 20
168.3230699142185074
 30
0.0
 40
0.3189043131230108
 50
45.2331613460075488
 51
59.1770383876578734
  0
ARC
  5
1633F
  8
0
 10
3478.9598814005198619
 20
168.4427029538215947
 30
0.0
 40
0.1504019579684715
 50
14.5000385941476395
 51
45.2331613460075488
  0
ARC
  5
16340
  8
0
 10
3479.003331965840971
 20
168.4586754896403136
 30
0.0
 40
0.1044368651102266
 50
338.2880551624716077
 51
11.9840491928700903
  0
ARC
  5
16341
  8
0
 10
3478.9250472046887808
 20
168.4989313444662002
 30
0.0
 40
0.1922453422240799
 50
306.2656591498785019
 51
335.7720657611880029
  0
ARC
  5
16342
  8
0
 10
3478.7501171446319859
 20
168.737369159200199
 30
0.0
 40
0.4879700747141801
 50
288.480032911161004
 51
306.2656591498785019
  0
ARC
  5
16343
  8
0
 10
3478.6219677398507883
 20
169.0786701528446088
 30
0.0
 40
0.8523963192721993
 50
282.9944565546381909
 51
289.3779369342851169
  0
ARC
  5
16344
  8
0
 10
3478.5517060778611267
 20
169.395724158084505
 30
0.0
 40
1.177133361425247
 50
273.1093549897046273
 51
282.8567404588217187
  0
ARC
  5
16345
  8
0
 10
3478.5385432962589221
 20
169.5544229123177047
 30
0.0
 40
1.3363201533921261
 50
269.9895797247942255
 51
273.3038094908221751
  0
ARC
  5
16346
  8
0
 10
3478.5384409150310603
 20
169.576402159939704
 30
0.0
 40
1.3601437210865299
 50
269.9940750274283801
 51
272.2619206161754164
  0
ARC
  5
16347
  8
0
 10
3478.5410121080108183
 20
169.5113061682039017
 30
0.0
 40
1.2949969700285759
 50
272.2619206161754164
 51
279.9554523141620734
  0
ARC
  5
16348
  8
0
 10
3478.6182561138120946
 20
169.0961882677397057
 30
0.0
 40
0.8727862523583834
 50
279.6722298245780962
 51
292.4978192480696748
  0
ARC
  5
16349
  8
0
 10
3478.8002394753998487
 20
168.6669148722947966
 30
0.0
 40
0.4065659223361839
 50
291.9520557462402053
 51
312.5486547650920102
  0
ARC
  5
1634A
  8
0
 10
3478.9621423828248226
 20
168.4916680782989999
 30
0.0
 40
0.1679814377886813
 50
312.2861137528561812
 51
340.1437165284036723
  0
ARC
  5
1634B
  8
0
 10
3479.0041105326581601
 20
168.4765120278597976
 30
0.0
 40
0.1233604621681187
 50
340.1437165284036723
 51
358.9641117322397008
  0
LINE
  5
1634C
  8
0
 10
3478.9782180448351028
 20
168.301374890860501
 30
0.0
 11
3478.9782766394378086
 21
167.5480304295255962
 31
0.0
  0
ARC
  5
1634D
  8
0
 10
3478.761927102007121
 20
167.563235446723894
 30
0.0
 40
0.216883182600217
 50
332.2392792213954067
 51
355.9798702351492921
  0
LINE
  5
1634E
  8
0
 10
3478.9545403292831907
 20
167.498207312110992
 30
0.0
 11
3478.9522262594109634
 21
167.3780565387654917
 31
0.0
  0
LINE
  5
1634F
  8
0
 10
3478.9545403292831907
 20
167.498207312110992
 30
0.0
 11
3478.954540916642145
 21
168.2907674086108045
 31
0.0
  0
ARC
  5
16350
  8
0
 10
3478.8383042195750932
 20
167.3784885937826914
 30
0.0
 40
0.1139228591279033
 50
340.7956490197311723
 51
359.7827039407188749
  0
ARC
  5
16351
  8
0
 10
3478.8128376915951776
 20
167.3921377792960072
 30
0.0
 40
0.1425334067398543
 50
308.6709537495186169
 51
338.9813205434073211
  0
ARC
  5
16352
  8
0
 10
3478.7175040161869219
 20
167.5056405010637945
 30
0.0
 40
0.2907404867294077
 50
294.5498366651384003
 51
309.3626176892122999
  0
ARC
  5
16353
  8
0
 10
3478.650772357202186
 20
167.6406369118357986
 30
0.0
 40
0.4412833099241519
 50
290.4046927402104075
 51
295.1484318343025279
  0
ARC
  5
16354
  8
0
 10
3478.5394841881629873
 20
168.0918034052969858
 30
0.0
 40
0.5789236787647125
 50
269.882827366917013
 51
279.9847233553992965
  0
ARC
  5
16355
  8
0
 10
3478.5721077120251721
 20
167.91439627937811
 30
0.0
 40
0.3985494621938864
 50
279.7878327311757971
 51
293.8758646780700019
  0
ARC
  5
16356
  8
0
 10
3478.6610425243320606
 20
167.7134750128415988
 30
0.0
 40
0.1788251891000311
 50
293.8758646780700019
 51
317.1858748010564
  0
ARC
  5
16357
  8
0
 10
3478.7364531562811862
 20
167.6436094612822103
 30
0.0
 40
0.0760246117394714
 50
317.1858748010553199
 51
333.7290508675488923
  0
ARC
  5
16358
  8
0
 10
3478.7235769465710291
 20
167.6499651591433064
 30
0.0
 40
0.0903839874845942
 50
333.7290508675488923
 51
357.7389040867146832
  0
ARC
  5
16359
  8
0
 10
3478.7693404548558647
 20
167.6481582296858051
 30
0.0
 40
0.0445848206302332
 50
357.7389040867146832
 51
30.0244485112479609
  0
ARC
  5
1635A
  8
0
 10
3478.7130110305802191
 20
167.6156043653033976
 30
0.0
 40
0.1096444711476932
 50
30.0244485112479609
 51
55.3238953662282071
  0
ARC
  5
1635B
  8
0
 10
3478.6050910235539959
 20
167.4399237876490076
 30
0.0
 40
0.3157192596896905
 50
57.3568105131938708
 51
79.5823516370085287
  0
ARC
  5
1635C
  8
0
 10
3478.5403364613221129
 20
167.1596485017774967
 30
0.0
 40
0.6032237447824769
 50
78.3468005233272322
 51
90.1934039269049634
  0
ARC
  5
1635D
  8
0
 10
3478.5394641615621367
 20
167.1819875955607131
 30
0.0
 40
0.5402700763558157
 50
79.6835234066986118
 51
90.1234319211493613
  0
ARC
  5
1635E
  8
0
 10
3478.5677911795200998
 20
167.3376068224083895
 30
0.0
 40
0.382093707352309
 50
69.478551633705024
 51
79.6835203715337599
  0
ARC
  5
1635F
  8
0
 10
3478.6304850211449775
 20
167.5050979524760066
 30
0.0
 40
0.2032535652449035
 50
52.6600726001425983
 51
69.478551633705024
  0
ARC
  5
16360
  8
0
 10
3478.7080731435589769
 20
167.6067998197011946
 30
0.0
 40
0.0753348936729623
 50
21.9177187595328604
 51
52.6600726001425983
  0
ARC
  5
16361
  8
0
 10
3478.7400713430151882
 20
167.6196745094287053
 30
0.0
 40
0.0408437005359025
 50
334.1988290422638102
 51
21.9177187595328604
  0
ARC
  5
16362
  8
0
 10
3478.7019547233039702
 20
167.6381017643930988
 30
0.0
 40
0.0831809232096844
 50
308.9040660045529876
 51
334.1988290422638102
  0
ARC
  5
16363
  8
0
 10
3478.6240991039121582
 20
167.7443977001381086
 30
0.0
 40
0.2148835823237135
 50
286.1232779878378096
 51
307.2590512705198194
  0
ARC
  5
16364
  8
0
 10
3478.5619321308881808
 20
167.9276464435866956
 30
0.0
 40
0.4082841238924958
 50
279.7141612602729879
 51
287.3628858381832742
  0
ARC
  5
16365
  8
0
 10
3478.5393766906040582
 20
168.0600915774624013
 30
0.0
 40
0.5426360917945172
 50
269.8863421609589182
 51
279.701931102309004
  0
LINE
  5
16366
  8
0
 10
3478.8138908133878431
 20
167.7986182710486958
 30
0.0
 11
3478.8138908133878431
 21
167.6499108806048923
 31
0.0
  0
ARC
  5
16367
  8
0
 10
3478.5394029654507904
 20
167.1475547900298864
 30
0.0
 40
0.7193128043650791
 50
82.5809746938092104
 51
90.0878342042424265
  0
ARC
  5
16368
  8
0
 10
3478.5583453856038432
 20
167.2930251358044984
 30
0.0
 40
0.5726143490869025
 50
70.4867042515332258
 51
82.5809746938354863
  0
ARC
  5
16369
  8
0
 10
3478.6726003205149027
 20
167.6101326662167139
 30
0.0
 40
0.2355627869705019
 50
48.3621623323208496
 51
70.9173598469576802
  0
ARC
  5
1636A
  8
0
 10
3478.7644065683061854
 20
167.717495999266788
 30
0.0
 40
0.0943651526375537
 50
25.7523300583866686
 51
46.7091732774004313
  0
ARC
  5
1636B
  8
0
 10
3478.7956019201578783
 20
167.7328089652700953
 30
0.0
 40
0.059615375155017
 50
329.3138081192824984
 51
25.5233249425570392
  0
ARC
  5
1636C
  8
0
 10
3478.7471753369291037
 20
167.7616795244132106
 30
0.0
 40
0.1159947725546983
 50
305.1107914146716098
 51
329.2574215736719907
  0
LINE
  5
1636D
  8
0
 10
3478.8271487480351425
 20
167.7879095211683875
 30
0.0
 11
3478.8138908133878431
 21
167.7728702592224863
 31
0.0
  0
ARC
  5
1636E
  8
0
 10
3478.5385186682460699
 20
167.4313409947797027
 30
0.0
 40
1.25621771253192
 50
83.0759737516498546
 51
90.0099614441145235
  0
ARC
  5
1636F
  8
0
 10
3478.5636449499879745
 20
167.6382458924730088
 30
0.0
 40
1.0477927458804861
 50
76.6156195358415886
 51
83.0759737516498546
  0
ARC
  5
16370
  8
0
 10
3478.6280389575567824
 20
167.9088708767314984
 30
0.0
 40
0.7696121025647099
 50
68.541129076418045
 51
76.6156195358415886
  0
ARC
  5
16371
  8
0
 10
3478.7287027647330433
 20
168.1649597797614035
 30
0.0
 40
0.4944490085088179
 50
57.1667702892893814
 51
68.541129076418045
  0
ARC
  5
16372
  8
0
 10
3478.8672715916400193
 20
168.3797028900046939
 30
0.0
 40
0.2388792075010064
 50
42.5360439372230417
 51
57.1667702892893814
  0
ARC
  5
16373
  8
0
 10
3478.9304812119721646
 20
168.4376970306244914
 30
0.0
 40
0.1530958964856292
 50
18.1447040932047088
 51
42.5360439372230417
  0
ARC
  5
16374
  8
0
 10
3478.9815152282531017
 20
168.458772281392811
 30
0.0
 40
0.0981235715804995
 50
343.8753509977830731
 51
15.7298918525935605
  0
ARC
  5
16375
  8
0
 10
3478.9223170521590873
 20
168.4837932817883086
 30
0.0
 40
0.1621199437878114
 50
307.1778016413774139
 51
341.1899333392263998
  0
ARC
  5
16376
  8
0
 10
3478.7288965409870798
 20
168.7426128713061075
 30
0.0
 40
0.4852256839770776
 50
291.3578270976493059
 51
306.9071962234223179
  0
ARC
  5
16377
  8
0
 10
3478.5917013232838144
 20
169.1298056815610948
 30
0.0
 40
0.8958908333662966
 50
277.2320414090219174
 51
290.5111054373838897
  0
ARC
  5
16378
  8
0
 10
3478.5395786954081814
 20
169.4667471834250989
 30
0.0
 40
1.2367482974612281
 50
269.9407730408231032
 51
277.6624795273442032
  0
ARC
  5
16379
  8
0
 10
3478.5360898541807728
 20
169.3110481950600956
 30
0.0
 40
1.0319310020611689
 50
270.1227283087653177
 51
277.8145483617660148
  0
ARC
  5
1637A
  8
0
 10
3478.5924130187399896
 20
168.9491540311609015
 30
0.0
 40
0.6657723552777478
 50
277.2455359312323822
 51
294.0779625383265738
  0
ARC
  5
1637B
  8
0
 10
3478.7440197792589061
 20
168.6098828412625039
 30
0.0
 40
0.2941683319812685
 50
294.0779625383265738
 51
310.7602202395755171
  0
ARC
  5
1637C
  8
0
 10
3478.8255160098610759
 20
168.5153359196467875
 30
0.0
 40
0.1693454334841371
 50
310.7602202395755171
 51
335.5134335595240032
  0
ARC
  5
1637D
  8
0
 10
3478.8773763246181261
 20
168.4879710864418882
 30
0.0
 40
0.1108597543205152
 50
337.2753516823520954
 51
350.7710977388553033
  0
ARC
  5
1637E
  8
0
 10
3478.8873771786929865
 20
168.4874707478145126
 30
0.0
 40
0.1009142181456387
 50
350.1408259075570868
 51
2.493791275748892
  0
ARC
  5
1637F
  8
0
 10
3478.885720532472078
 20
168.4829432048429112
 30
0.0
 40
0.1028626467905621
 50
4.973924461034084
 51
43.2924354078008093
  0
ARC
  5
16380
  8
0
 10
3478.7692811517431437
 20
168.3730875232027131
 30
0.0
 40
0.2629451099579354
 50
43.3174597758425719
 51
65.5830875391489911
  0
ARC
  5
16381
  8
0
 10
3478.589609115910207
 20
167.969847393018398
 30
0.0
 40
0.7043984909360751
 50
65.834120060286935
 51
83.5484475379677889
  0
ARC
  5
16382
  8
0
 10
3478.5391607400201792
 20
167.6456471997231006
 30
0.0
 40
1.0323050516576731
 50
82.7879942027098821
 51
90.0477589000771559
  0
ARC
  5
16383
  8
0
 10
3478.538668558946938
 20
167.6663767244245093
 30
0.0
 40
0.9690494297885459
 50
83.6149626631129053
 51
90.0217758246239868
  0
ARC
  5
16384
  8
0
 10
3478.556955680037845
 20
167.829795316778501
 30
0.0
 40
0.8046108238446265
 50
73.7381625812924568
 51
83.6149627379382991
  0
ARC
  5
16385
  8
0
 10
3478.6568531449961483
 20
168.172264604575588
 30
0.0
 40
0.4478690172265267
 50
60.5277444254561701
 51
73.7381625812924568
  0
ARC
  5
16386
  8
0
 10
3478.7741973725010212
 20
168.3799043602994061
 30
0.0
 40
0.2093654829006234
 50
37.97296209716162
 51
60.5277444254561701
  0
ARC
  5
16387
  8
0
 10
3478.8760778272899188
 20
168.4594246995359015
 30
0.0
 40
0.0801249651816249
 50
5.5206950829084951
 51
37.97296209716162
  0
ARC
  5
16388
  8
0
 10
3478.8751195806921714
 20
168.4593320815457105
 30
0.0
 40
0.0810876773071459
 50
338.0275529341707283
 51
5.5206950829084951
  0
ARC
  5
16389
  8
0
 10
3478.8218837691110821
 20
168.488355563815702
 30
0.0
 40
0.1414891874302555
 50
304.7631403470385862
 51
335.1931442437020792
  0
ARC
  5
1638A
  8
0
 10
3478.7051681382931747
 20
168.6450814855606097
 30
0.0
 40
0.3368547174420913
 50
291.3182586082476178
 51
305.8723665259690279
  0
ARC
  5
1638B
  8
0
 10
3478.5995885170900692
 20
168.9087783547757908
 30
0.0
 40
0.6208965004976476
 50
281.0225934880921841
 51
291.5479308659465119
  0
ARC
  5
1638C
  8
0
 10
3478.5499008071910794
 20
169.1421595584102135
 30
0.0
 40
0.8594823676602562
 50
275.2212395152075146
 51
281.299212944749172
  0
ARC
  5
1638D
  8
0
 10
3478.5386749300691918
 20
169.2536537384492874
 30
0.0
 40
0.9715360523044342
 50
269.9779041767794752
 51
275.2821679333837892
  0
ARC
  5
1638E
  8
0
 10
3478.5406734383168441
 20
169.068557938619989
 30
0.0
 40
0.7564381307822095
 50
269.8202454453381733
 51
282.7911669350735906
  0
ARC
  5
1638F
  8
0
 10
3478.6279644867950083
 20
168.708590863496795
 30
0.0
 40
0.3861162673556992
 50
281.9855695717814115
 51
302.2701301005866981
  0
ARC
  5
16390
  8
0
 10
3478.7539687955559202
 20
168.5034885910795879
 30
0.0
 40
0.1454490871736241
 50
303.438101378071508
 51
323.7107512674140821
  0
ARC
  5
16391
  8
0
 10
3478.8107080384488654
 20
168.4613966378296084
 30
0.0
 40
0.074803199327122
 50
323.9757511203526974
 51
353.1487523038795189
  0
ARC
  5
16392
  8
0
 10
3478.8200941078530377
 20
168.4586727395843013
 30
0.0
 40
0.0651784834494252
 50
354.5419916280914094
 51
24.8480556817970211
  0
ARC
  5
16393
  8
0
 10
3478.767942796142961
 20
168.4293624569573069
 30
0.0
 40
0.1249062661926519
 50
26.9963401907977598
 51
56.8091572356957926
  0
ARC
  5
16394
  8
0
 10
3478.6591847541722018
 20
168.2726984655625984
 30
0.0
 40
0.3155918727096274
 50
55.8556336326467289
 51
73.0787761617049938
  0
ARC
  5
16395
  8
0
 10
3478.5451143850191329
 20
167.9022326265028937
 30
0.0
 40
0.7032208479421019
 50
72.9724284912500849
 51
90.5551976884324858
  0
ARC
  5
16396
  8
0
 10
3478.5384203029661876
 20
167.8219639707158137
 30
0.0
 40
0.7804584042148194
 50
85.6512184161106944
 51
90.0088128830067262
  0
ARC
  5
16397
  8
0
 10
3478.5432530126167876
 20
167.8855132518559969
 30
0.0
 40
0.7167256322994958
 50
79.6764053207067064
 51
85.6512184161106944
  0
ARC
  5
16398
  8
0
 10
3478.5770546895009829
 20
168.0710774544762955
 30
0.0
 40
0.5281079590706614
 50
69.5683569472168131
 51
79.6764053207067064
  0
ARC
  5
16399
  8
0
 10
3478.6682101965320726
 20
168.3157735038161888
 30
0.0
 40
0.2669844575914817
 50
57.5635571227180023
 51
69.5683569472168131
  0
ARC
  5
1639A
  8
0
 10
3478.7298083179048263
 20
168.4127002873310062
 30
0.0
 40
0.1521405203589251
 50
48.4352867530913116
 51
57.5635571227180023
  0
ARC
  5
1639B
  8
0
 10
3478.7729611222957828
 20
168.4613647943579053
 30
0.0
 40
0.0870990046092493
 50
26.7978286179381016
 51
48.4352867530913116
  0
ARC
  5
1639C
  8
0
 10
3478.8115249917877918
 20
168.4860368358831977
 30
0.0
 40
0.0418113665313394
 50
344.4460562956332979
 51
20.4317638236694492
  0
ARC
  5
1639D
  8
0
 10
3478.762740817939175
 20
168.5011584080453133
 30
0.0
 40
0.0928756659748162
 50
306.2148606240564845
 51
343.5289586553201957
  0
ARC
  5
1639E
  8
0
 10
3478.6362009199360728
 20
168.6750285357695986
 30
0.0
 40
0.3079176309681019
 50
283.3607296569364848
 51
306.0973017160732184
  0
ARC
  5
1639F
  8
0
 10
3478.5520542899889733
 20
168.9663981415233138
 30
0.0
 40
0.6110188696458591
 50
275.1861567413470198
 51
284.724206916954472
  0
ARC
  5
163A0
  8
0
 10
3478.53861502087193
 20
169.0859137128088037
 30
0.0
 40
0.7312645328847666
 50
269.9753381384023783
 51
275.3883831835727278
  0
ARC
  5
163A1
  8
0
 10
3478.8867210604239517
 20
168.4368508492219121
 30
0.0
 40
0.1821082757254119
 50
28.7881220407159013
 51
48.3174733967163519
  0
ARC
  5
163A2
  8
0
 10
3478.9636416449329772
 20
168.4791175349301113
 30
0.0
 40
0.0943401206689813
 50
346.9758320747736775
 51
28.7881220407159013
  0
ARC
  5
163A3
  8
0
 10
3478.9361369936150368
 20
168.4854797053255879
 30
0.0
 40
0.1225710090060185
 50
312.4704724643092959
 51
346.975832074775326
  0
ARC
  5
163A4
  8
0
 10
3478.7601081995071581
 20
168.6777802932467978
 30
0.0
 40
0.3832732385129975
 50
292.4592787663520994
 51
312.4704724643104896
  0
ARC
  5
163A5
  8
0
 10
3478.6211493037521905
 20
169.0139322842169065
 30
0.0
 40
0.7470145418351648
 50
280.8238403960298228
 51
292.4592787663520994
  0
ARC
  5
163A6
  8
0
 10
3478.5337400161311052
 20
169.4711142235032924
 30
0.0
 40
1.21247743957472
 50
273.4635806718500248
 51
280.8238403960298228
  0
ARC
  5
163A7
  8
0
 10
3478.5175968650391951
 20
169.8920430420969012
 30
0.0
 40
1.6336392287847561
 50
270.7261389250215871
 51
273.136830998104017
  0
ARC
  5
163A8
  8
0
 10
3478.7672436398911486
 20
168.3932249906696939
 30
0.0
 40
0.2721098903769547
 50
52.4465619362395401
 51
58.4585072569378994
  0
ARC
  5
163A9
  8
0
 10
3478.8334357968001314
 20
168.474688715817507
 30
0.0
 40
0.1672063087462196
 50
32.7619865337328093
 51
53.4142716571517724
  0
ARC
  5
163AA
  8
0
 10
3478.9761687552340845
 20
168.5663217253249115
 30
0.0
 40
0.0024157369369773
 50
208.4069763835258016
 51
236.2627651389962011
  0
ARC
  5
163AB
  8
0
 10
3478.9750845016969834
 20
168.5646982423446048
 30
0.0
 40
0.0004634811344824
 50
236.2627651388037009
 51
273.3553269901544809
  0
LINE
  5
163AC
  8
0
 10
3478.9751116283377996
 20
168.5642355557255883
 30
0.0
 11
3479.0168616022879178
 21
168.5642355557255883
 31
0.0
  0
LINE
  5
163AD
  8
0
 10
3478.9883002622382264
 20
168.5642355557255883
 30
0.0
 11
3478.9883002622382264
 21
168.4877738304255956
 31
0.0
  0
ARC
  5
163AE
  8
0
 10
3479.0541577549038266
 20
168.5285079140811888
 30
0.0
 40
0.015239229361449
 50
155.7417217347874896
 51
166.1781556329561056
  0
ARC
  5
163AF
  8
0
 10
3479.1320971630048007
 20
168.5093326487632908
 30
0.0
 40
0.0955028084937482
 50
166.1781556329561056
 51
177.7993980086453973
  0
ARC
  5
163B0
  8
0
 10
3480.1125965088231169
 20
168.4716553462980926
 30
0.0
 40
1.076725793482372
 50
177.7993980086453973
 51
179.6075892436898016
  0
ARC
  5
163B1
  8
0
 10
3479.0264969865420426
 20
168.4790940058742876
 30
0.0
 40
0.0093992020654152
 50
330.3657235772881222
 51
359.60758924368821
  0
ARC
  5
163B2
  8
0
 10
3478.8815124430998367
 20
168.5615714544009052
 30
0.0
 40
0.1762016221694818
 50
321.2599901078759217
 51
330.3657235772881222
  0
ARC
  5
163B3
  8
0
 10
3478.8118561522760501
 20
168.6328769071141096
 30
0.0
 40
0.2754179006906798
 50
296.8104599013827283
 51
318.7570327406912725
  0
ARC
  5
163B4
  8
0
 10
3479.0260603401911794
 20
168.4908249482726035
 30
0.0
 40
0.0256503745819047
 50
65.4711099111940484
 51
88.6769235411733945
  0
LINE
  5
163B5
  8
0
 10
3479.0266526070381587
 20
168.5164684842256122
 30
0.0
 11
3478.9883002622382264
 21
168.5164684842256122
 31
0.0
  0
LINE
  5
163B6
  8
0
 10
3478.9880911521381677
 20
168.4830006426255977
 30
0.0
 11
3479.0258984984379822
 21
168.4829998048527955
 31
0.0
  0
ARC
  5
163B7
  8
0
 10
3479.0258980292369415
 20
168.4618255016779074
 30
0.0
 40
0.0211743031800884
 50
72.7257593463023113
 51
89.9987303831165946
  0
ARC
  5
163B8
  8
0
 10
3479.027909233273931
 20
168.4682929741196062
 30
0.0
 40
0.0144013317892655
 50
56.2739305711641009
 51
72.7257593463023113
  0
ARC
  5
163B9
  8
0
 10
3478.6049345705860105
 20
168.5832020538703944
 30
0.0
 40
0.043536653016005
 50
75.1168251236903615
 51
90.9810243017749656
  0
ARC
  5
163BA
  8
0
 10
3478.6108105220741891
 20
168.6053116293535936
 30
0.0
 40
0.0206595873399525
 50
55.6151316243065423
 51
75.1168251236903615
  0
ARC
  5
163BB
  8
0
 10
3478.6190448651768747
 20
168.6173443998912092
 30
0.0
 40
0.0060790532914271
 50
8.0587918829791612
 51
55.6151316243102301
  0
ARC
  5
163BC
  8
0
 10
3478.6223590986601266
 20
168.6178136534784073
 30
0.0
 40
0.0027317644622521
 50
318.3026055552309117
 51
8.0587918829678724
  0
ARC
  5
163BD
  8
0
 10
3478.6174955228971157
 20
168.6205297354752872
 30
0.0
 40
0.0082586806446165
 50
296.8507731522719837
 51
326.7079867110725218
  0
ARC
  5
163BE
  8
0
 10
3478.6095259868379799
 20
168.634359148723405
 30
0.0
 40
0.0242120961734874
 50
282.4879299056698869
 51
298.8957862243938735
  0
ARC
  5
163BF
  8
0
 10
3478.6049890538552063
 20
168.6533370963279879
 30
0.0
 40
0.0437233091844516
 50
269.5023748265410859
 51
282.9150249831683936
  0
ARC
  5
163C0
  8
0
 10
3478.6044156243269754
 20
168.650962324194694
 30
0.0
 40
0.0413473416419134
 50
253.7573761514055093
 51
270.2683990354590264
  0
ARC
  5
163C1
  8
0
 10
3478.595907511959922
 20
168.624591842108714
 30
0.0
 40
0.013672639223432
 50
217.4810568597928011
 51
257.0804610893968061
  0
ARC
  5
163C2
  8
0
 10
3478.5885937503608147
 20
168.6182314242032021
 30
0.0
 40
0.0040427727539717
 50
180.493287384150193
 51
208.9902066239723979
  0
ARC
  5
163C3
  8
0
 10
3478.5890866614790866
 20
168.6179986294033881
 30
0.0
 40
0.0045398533778565
 50
138.2331106339593134
 51
177.5004623663149914
  0
ARC
  5
163C4
  8
0
 10
3478.5963572684431711
 20
168.6104720005151023
 30
0.0
 40
0.0149960408638527
 50
105.7673313722999069
 51
135.2865786873200875
  0
ARC
  5
163C5
  8
0
 10
3478.6030644432221379
 20
168.5916592065250939
 30
0.0
 40
0.0349493232130413
 50
98.011601645847847
 51
107.9692123038566933
  0
ARC
  5
163C6
  8
0
 10
3478.6047226370201315
 20
168.5809573360172067
 30
0.0
 40
0.0457780977441573
 50
90.6677040391277131
 51
98.1999064598888367
  0
ARC
  5
163C7
  8
0
 10
3478.730024220300038
 20
168.5638791069810907
 30
0.0
 40
0.043536653016005
 50
75.1168251236903615
 51
90.9810243017749656
  0
ARC
  5
163C8
  8
0
 10
3478.735900171789126
 20
168.5859886824642899
 30
0.0
 40
0.0206595873399525
 50
55.6151316243065423
 51
75.1168251236903615
  0
ARC
  5
163C9
  8
0
 10
3478.7441345148909022
 20
168.5980214530019907
 30
0.0
 40
0.0060790532914271
 50
8.0587918829791612
 51
55.6151316243102301
  0
ARC
  5
163CA
  8
0
 10
3478.7474487483741541
 20
168.5984907065891036
 30
0.0
 40
0.0027317644622521
 50
318.3026055552309117
 51
8.0587918829678724
  0
ARC
  5
163CB
  8
0
 10
3478.7425851726111432
 20
168.601206788586012
 30
0.0
 40
0.0082586806446165
 50
296.8507731522719837
 51
326.7079867110725218
  0
ARC
  5
163CC
  8
0
 10
3478.7346156365520073
 20
168.6150362018341866
 30
0.0
 40
0.0242120961734874
 50
282.4879299056698869
 51
298.8957862243938735
  0
ARC
  5
163CD
  8
0
 10
3478.730078703568779
 20
168.6340141494387126
 30
0.0
 40
0.0437233091844516
 50
269.5023748265410859
 51
282.9150249831683936
  0
ARC
  5
163CE
  8
0
 10
3478.7295052740410028
 20
168.6316393773053903
 30
0.0
 40
0.0413473416419134
 50
253.7573761514055093
 51
270.2683990354590264
  0
ARC
  5
163CF
  8
0
 10
3478.7209971616748589
 20
168.6052688952194103
 30
0.0
 40
0.013672639223432
 50
217.4810568597928011
 51
257.0804610893968061
  0
ARC
  5
163D0
  8
0
 10
3478.7136834000762065
 20
168.5989084773138984
 30
0.0
 40
0.0040427727539717
 50
180.493287384150193
 51
208.9902066239723979
  0
ARC
  5
163D1
  8
0
 10
3478.7141763111940236
 20
168.5986756825141981
 30
0.0
 40
0.0045398533778565
 50
138.2331106339593134
 51
177.5004623663149914
  0
ARC
  5
163D2
  8
0
 10
3478.7214469181571985
 20
168.5911490536257986
 30
0.0
 40
0.0149960408638527
 50
105.7673313722999069
 51
135.2865786873200875
  0
ARC
  5
163D3
  8
0
 10
3478.7281540929361654
 20
168.5723362596359038
 30
0.0
 40
0.0349493232130413
 50
98.011601645847847
 51
107.9692123038566933
  0
ARC
  5
163D4
  8
0
 10
3478.729812286734159
 20
168.5616343891279882
 30
0.0
 40
0.0457780977441573
 50
90.6677040391277131
 51
98.1999064598888367
  0
ARC
  5
163D5
  8
0
 10
3478.8320186013661441
 20
168.5275775373424949
 30
0.0
 40
0.043536653016005
 50
75.1168251236903615
 51
90.9810243017749656
  0
ARC
  5
163D6
  8
0
 10
3478.8378945528538679
 20
168.5496871128256942
 30
0.0
 40
0.0206595873399525
 50
55.6151316243065423
 51
75.1168251236903615
  0
ARC
  5
163D7
  8
0
 10
3478.8461288959570084
 20
168.561719883363395
 30
0.0
 40
0.0060790532914271
 50
8.0587918829791612
 51
55.6151316243102301
  0
ARC
  5
163D8
  8
0
 10
3478.849443129438896
 20
168.5621891369505079
 30
0.0
 40
0.0027317644622521
 50
318.3026055552309117
 51
8.0587918829678724
  0
ARC
  5
163D9
  8
0
 10
3478.8445795536767946
 20
168.5649052189473025
 30
0.0
 40
0.0082586806446165
 50
296.8507731522719837
 51
326.7079867110725218
  0
ARC
  5
163DA
  8
0
 10
3478.836610017617204
 20
168.5787346321955908
 30
0.0
 40
0.0242120961734874
 50
282.4879299056698869
 51
298.8957862243938735
  0
ARC
  5
163DB
  8
0
 10
3478.8320730846339757
 20
168.5977125798000884
 30
0.0
 40
0.0437233091844516
 50
269.5023748265410859
 51
282.9150249831683936
  0
ARC
  5
163DC
  8
0
 10
3478.8314996551061995
 20
168.5953378076667946
 30
0.0
 40
0.0413473416419134
 50
253.7573761514055093
 51
270.2683990354590264
  0
ARC
  5
163DD
  8
0
 10
3478.8229915427391461
 20
168.5689673255807861
 30
0.0
 40
0.013672639223432
 50
217.4810568597928011
 51
257.0804610893968061
  0
ARC
  5
163DE
  8
0
 10
3478.8156777811409484
 20
168.5626069076753879
 30
0.0
 40
0.0040427727539717
 50
180.493287384150193
 51
208.9902066239723979
  0
ARC
  5
163DF
  8
0
 10
3478.8161706922592202
 20
168.5623741128756023
 30
0.0
 40
0.0045398533778565
 50
138.2331106339593134
 51
177.5004623663149914
  0
ARC
  5
163E0
  8
0
 10
3478.8234412992228499
 20
168.5548474839870892
 30
0.0
 40
0.0149960408638527
 50
105.7673313722999069
 51
135.2865786873200875
  0
ARC
  5
163E1
  8
0
 10
3478.8301484740018168
 20
168.5360346899973081
 30
0.0
 40
0.0349493232130413
 50
98.011601645847847
 51
107.9692123038566933
  0
ARC
  5
163E2
  8
0
 10
3478.8318066677998104
 20
168.5253328194893925
 30
0.0
 40
0.0457780977441573
 50
90.6677040391277131
 51
98.1999064598888367
  0
ARC
  5
163E3
  8
0
 10
3478.8983663633212018
 20
168.4791492092764997
 30
0.0
 40
0.043536653016005
 50
75.1168251236903615
 51
90.9810243017749656
  0
ARC
  5
163E4
  8
0
 10
3478.9042423148089256
 20
168.5012587847596137
 30
0.0
 40
0.0206595873399525
 50
55.6151316243065423
 51
75.1168251236903615
  0
ARC
  5
163E5
  8
0
 10
3478.912476657912066
 20
168.5132915552972861
 30
0.0
 40
0.0060790532914271
 50
8.0587918829791612
 51
55.6151316243102301
  0
ARC
  5
163E6
  8
0
 10
3478.9157908913939536
 20
168.5137608088845127
 30
0.0
 40
0.0027317644622521
 50
318.3026055552309117
 51
8.0587918829678724
  0
ARC
  5
163E7
  8
0
 10
3478.9109273156309428
 20
168.5164768908813073
 30
0.0
 40
0.0082586806446165
 50
296.8507731522719837
 51
326.7079867110725218
  0
ARC
  5
163E8
  8
0
 10
3478.9029577795731711
 20
168.5303063041295104
 30
0.0
 40
0.0242120961734874
 50
282.4879299056698869
 51
298.8957862243938735
  0
ARC
  5
163E9
  8
0
 10
3478.8984208465890333
 20
168.5492842517340932
 30
0.0
 40
0.0437233091844516
 50
269.5023748265410859
 51
282.9150249831683936
  0
ARC
  5
163EA
  8
0
 10
3478.8978474170608024
 20
168.5469094796007994
 30
0.0
 40
0.0413473416419134
 50
253.7573761514055093
 51
270.2683990354590264
  0
ARC
  5
163EB
  8
0
 10
3478.8893393046951132
 20
168.5205389975147909
 30
0.0
 40
0.013672639223432
 50
217.4810568597928011
 51
257.0804610893968061
  0
ARC
  5
163EC
  8
0
 10
3478.882025543096006
 20
168.5141785796093075
 30
0.0
 40
0.0040427727539717
 50
180.493287384150193
 51
208.9902066239723979
  0
ARC
  5
163ED
  8
0
 10
3478.8825184542138231
 20
168.5139457848096072
 30
0.0
 40
0.0045398533778565
 50
138.2331106339593134
 51
177.5004623663149914
  0
ARC
  5
163EE
  8
0
 10
3478.8897890611779076
 20
168.506419155921094
 30
0.0
 40
0.0149960408638527
 50
105.7673313722999069
 51
135.2865786873200875
  0
ARC
  5
163EF
  8
0
 10
3478.8964962359568744
 20
168.4876063619311992
 30
0.0
 40
0.0349493232130413
 50
98.011601645847847
 51
107.9692123038566933
  0
ARC
  5
163F0
  8
0
 10
3478.8981544297539585
 20
168.476904491423312
 30
0.0
 40
0.0457780977441573
 50
90.6677040391277131
 51
98.1999064598888367
  0
ARC
  5
163F1
  8
0
 10
3478.9214922303140156
 20
168.4240961196236128
 30
0.0
 40
0.043536653016005
 50
75.1168251236903615
 51
90.9810243017749656
  0
ARC
  5
163F2
  8
0
 10
3478.9273681818021942
 20
168.4462056951068121
 30
0.0
 40
0.0206595873399525
 50
55.6151316243065423
 51
75.1168251236903615
  0
ARC
  5
163F3
  8
0
 10
3478.9356025249048798
 20
168.4582384656445129
 30
0.0
 40
0.0060790532914271
 50
8.0587918829791612
 51
55.6151316243102301
  0
ARC
  5
163F4
  8
0
 10
3478.9389167583872222
 20
168.4587077192315974
 30
0.0
 40
0.0027317644622521
 50
318.3026055552309117
 51
8.0587918829678724
  0
ARC
  5
163F5
  8
0
 10
3478.9340531826251208
 20
168.4614238012285057
 30
0.0
 40
0.0082586806446165
 50
296.8507731522719837
 51
326.7079867110725218
  0
ARC
  5
163F6
  8
0
 10
3478.926083646565985
 20
168.4752532144767088
 30
0.0
 40
0.0242120961734874
 50
282.4879299056698869
 51
298.8957862243938735
  0
ARC
  5
163F7
  8
0
 10
3478.9215467135832114
 20
168.4942311620812063
 30
0.0
 40
0.0437233091844516
 50
269.5023748265410859
 51
282.9150249831683936
  0
ARC
  5
163F8
  8
0
 10
3478.9209732840549805
 20
168.4918563899479125
 30
0.0
 40
0.0413473416419134
 50
253.7573761514055093
 51
270.2683990354590264
  0
ARC
  5
163F9
  8
0
 10
3478.9124651716879271
 20
168.465485907861904
 30
0.0
 40
0.013672639223432
 50
217.4810568597928011
 51
257.0804610893968061
  0
ARC
  5
163FA
  8
0
 10
3478.9051514100888198
 20
168.4591254899563921
 30
0.0
 40
0.0040427727539717
 50
180.493287384150193
 51
208.9902066239723979
  0
ARC
  5
163FB
  8
0
 10
3478.9056443212080012
 20
168.4588926951566918
 30
0.0
 40
0.0045398533778565
 50
138.2331106339593134
 51
177.5004623663149914
  0
ARC
  5
163FC
  8
0
 10
3478.9129149281711761
 20
168.4513660662682923
 30
0.0
 40
0.0149960408638527
 50
105.7673313722999069
 51
135.2865786873200875
  0
ARC
  5
163FD
  8
0
 10
3478.919622102950143
 20
168.4325532722783123
 30
0.0
 40
0.0349493232130413
 50
98.011601645847847
 51
107.9692123038566933
  0
ARC
  5
163FE
  8
0
 10
3478.9212802967481366
 20
168.4218514017705104
 30
0.0
 40
0.0457780977441573
 50
90.6677040391277131
 51
98.1999064598888367
  0
ARC
  5
163FF
  8
0
 10
3478.8984801650449299
 20
168.3685846250828888
 30
0.0
 40
0.043536653016005
 50
75.1168251236903615
 51
90.9810243017749656
  0
ARC
  5
16400
  8
0
 10
3478.9043561165340179
 20
168.3906942005660881
 30
0.0
 40
0.0206595873399525
 50
55.6151316243065423
 51
75.1168251236903615
  0
ARC
  5
16401
  8
0
 10
3478.9125904596357941
 20
168.4027269711037889
 30
0.0
 40
0.0060790532914271
 50
8.0587918829791612
 51
55.6151316243102301
  0
ARC
  5
16402
  8
0
 10
3478.915904693119046
 20
168.403196224690987
 30
0.0
 40
0.0027317644622521
 50
318.3026055552309117
 51
8.0587918829678724
  0
ARC
  5
16403
  8
0
 10
3478.9110411173560351
 20
168.4059123066878101
 30
0.0
 40
0.0082586806446165
 50
296.8507731522719837
 51
326.7079867110725218
  0
ARC
  5
16404
  8
0
 10
3478.9030715812959897
 20
168.4197417199360132
 30
0.0
 40
0.0242120961734874
 50
282.4879299056698869
 51
298.8957862243938735
  0
ARC
  5
16405
  8
0
 10
3478.8985346483141257
 20
168.4387196675405107
 30
0.0
 40
0.0437233091844516
 50
269.5023748265410859
 51
282.9150249831683936
  0
ARC
  5
16406
  8
0
 10
3478.8979612187849852
 20
168.4363448954073021
 30
0.0
 40
0.0413473416419134
 50
253.7573761514055093
 51
270.2683990354590264
  0
ARC
  5
16407
  8
0
 10
3478.8894531064202056
 20
168.4099744133212937
 30
0.0
 40
0.013672639223432
 50
217.4810568597928011
 51
257.0804610893968061
  0
ARC
  5
16408
  8
0
 10
3478.8821393448210983
 20
168.4036139954158102
 30
0.0
 40
0.0040427727539717
 50
180.493287384150193
 51
208.9902066239723979
  0
ARC
  5
16409
  8
0
 10
3478.8826322559389155
 20
168.4033812006159962
 30
0.0
 40
0.0045398533778565
 50
138.2331106339593134
 51
177.5004623663149914
  0
ARC
  5
1640A
  8
0
 10
3478.8899028629029999
 20
168.3958545717275967
 30
0.0
 40
0.0149960408638527
 50
105.7673313722999069
 51
135.2865786873200875
  0
ARC
  5
1640B
  8
0
 10
3478.8966100376819668
 20
168.377041777737702
 30
0.0
 40
0.0349493232130413
 50
98.011601645847847
 51
107.9692123038566933
  0
ARC
  5
1640C
  8
0
 10
3478.8982682314790509
 20
168.3663399072297864
 30
0.0
 40
0.0457780977441573
 50
90.6677040391277131
 51
98.1999064598888367
  0
ARC
  5
1640D
  8
0
 10
3478.8316404178858647
 20
168.3201372323815974
 30
0.0
 40
0.043536653016005
 50
75.1168251236903615
 51
90.9810243017749656
  0
ARC
  5
1640E
  8
0
 10
3478.8375163693749528
 20
168.3422468078647967
 30
0.0
 40
0.0206595873399525
 50
55.6151316243065423
 51
75.1168251236903615
  0
ARC
  5
1640F
  8
0
 10
3478.8457507124780932
 20
168.3542795784024975
 30
0.0
 40
0.0060790532914271
 50
8.0587918829791612
 51
55.6151316243102301
  0
ARC
  5
16410
  8
0
 10
3478.8490649459599808
 20
168.3547488319896104
 30
0.0
 40
0.0027317644622521
 50
318.3026055552309117
 51
8.0587918829678724
  0
ARC
  5
16411
  8
0
 10
3478.8442013701969699
 20
168.3574649139864903
 30
0.0
 40
0.0082586806446165
 50
296.8507731522719837
 51
326.7079867110725218
  0
ARC
  5
16412
  8
0
 10
3478.8362318341378341
 20
168.3712943272346934
 30
0.0
 40
0.0242120961734874
 50
282.4879299056698869
 51
298.8957862243938735
  0
ARC
  5
16413
  8
0
 10
3478.8316949011550605
 20
168.3902722748391909
 30
0.0
 40
0.0437233091844516
 50
269.5023748265410859
 51
282.9150249831683936
  0
ARC
  5
16414
  8
0
 10
3478.8311214716268296
 20
168.3878975027060108
 30
0.0
 40
0.0413473416419134
 50
253.7573761514055093
 51
270.2683990354590264
  0
ARC
  5
16415
  8
0
 10
3478.8226133592611404
 20
168.3615270206198886
 30
0.0
 40
0.013672639223432
 50
217.4810568597928011
 51
257.0804610893968061
  0
ARC
  5
16416
  8
0
 10
3478.8152995976620332
 20
168.3551666027144904
 30
0.0
 40
0.0040427727539717
 50
180.493287384150193
 51
208.9902066239723979
  0
ARC
  5
16417
  8
0
 10
3478.8157925087798503
 20
168.3549338079147049
 30
0.0
 40
0.0045398533778565
 50
138.2331106339593134
 51
177.5004623663149914
  0
ARC
  5
16418
  8
0
 10
3478.8230631157430253
 20
168.3474071790263054
 30
0.0
 40
0.0149960408638527
 50
105.7673313722999069
 51
135.2865786873200875
  0
ARC
  5
16419
  8
0
 10
3478.8297702905229016
 20
168.3285943850362969
 30
0.0
 40
0.0349493232130413
 50
98.011601645847847
 51
107.9692123038566933
  0
ARC
  5
1641A
  8
0
 10
3478.8314284843199857
 20
168.317892514528495
 30
0.0
 40
0.0457780977441573
 50
90.6677040391277131
 51
98.1999064598888367
  0
ARC
  5
1641B
  8
0
 10
3478.7292248950748217
 20
168.2835777495274101
 30
0.0
 40
0.043536653016005
 50
75.1168251236903615
 51
90.9810243017749656
  0
ARC
  5
1641C
  8
0
 10
3478.7351008465630002
 20
168.3056873250106094
 30
0.0
 40
0.0206595873399525
 50
55.6151316243065423
 51
75.1168251236903615
  0
ARC
  5
1641D
  8
0
 10
3478.7433351896661406
 20
168.3177200955483102
 30
0.0
 40
0.0060790532914271
 50
8.0587918829791612
 51
55.6151316243102301
  0
ARC
  5
1641E
  8
0
 10
3478.7466494231489378
 20
168.3181893491355083
 30
0.0
 40
0.0027317644622521
 50
318.3026055552309117
 51
8.0587918829678724
  0
ARC
  5
1641F
  8
0
 10
3478.7417858473859269
 20
168.320905431132303
 30
0.0
 40
0.0082586806446165
 50
296.8507731522719837
 51
326.7079867110725218
  0
ARC
  5
16420
  8
0
 10
3478.7338163113258815
 20
168.334734844380506
 30
0.0
 40
0.0242120961734874
 50
282.4879299056698869
 51
298.8957862243938735
  0
ARC
  5
16421
  8
0
 10
3478.7292793783440175
 20
168.3537127919850036
 30
0.0
 40
0.0437233091844516
 50
269.5023748265410859
 51
282.9150249831683936
  0
ARC
  5
16422
  8
0
 10
3478.7287059488157865
 20
168.351338019851795
 30
0.0
 40
0.0413473416419134
 50
253.7573761514055093
 51
270.2683990354590264
  0
ARC
  5
16423
  8
0
 10
3478.7201978364491879
 20
168.3249675377657866
 30
0.0
 40
0.013672639223432
 50
217.4810568597928011
 51
257.0804610893968061
  0
ARC
  5
16424
  8
0
 10
3478.7128840748500807
 20
168.3186071198603031
 30
0.0
 40
0.0040427727539717
 50
180.493287384150193
 51
208.9902066239723979
  0
ARC
  5
16425
  8
0
 10
3478.7133769859688073
 20
168.3183743250604891
 30
0.0
 40
0.0045398533778565
 50
138.2331106339593134
 51
177.5004623663149914
  0
ARC
  5
16426
  8
0
 10
3478.7206475929328917
 20
168.3108476961720896
 30
0.0
 40
0.0149960408638527
 50
105.7673313722999069
 51
135.2865786873200875
  0
ARC
  5
16427
  8
0
 10
3478.7273547677118586
 20
168.2920349021821949
 30
0.0
 40
0.0349493232130413
 50
98.011601645847847
 51
107.9692123038566933
  0
ARC
  5
16428
  8
0
 10
3478.7290129615089427
 20
168.2813330316743077
 30
0.0
 40
0.0457780977441573
 50
90.6677040391277131
 51
98.1999064598888367
  0
ARC
  5
16429
  8
0
 10
3478.6050720370399176
 20
168.2643025495904965
 30
0.0
 40
0.043536653016005
 50
75.1168251236903615
 51
90.9810243017749656
  0
ARC
  5
1642A
  8
0
 10
3478.6109479885280962
 20
168.2864121250736105
 30
0.0
 40
0.0206595873399525
 50
55.6151316243065423
 51
75.1168251236903615
  0
ARC
  5
1642B
  8
0
 10
3478.6191823316307818
 20
168.2984448956113113
 30
0.0
 40
0.0060790532914271
 50
8.0587918829791612
 51
55.6151316243102301
  0
ARC
  5
1642C
  8
0
 10
3478.6224965651131242
 20
168.2989141491985094
 30
0.0
 40
0.0027317644622521
 50
318.3026055552309117
 51
8.0587918829678724
  0
ARC
  5
1642D
  8
0
 10
3478.6176329893510228
 20
168.3016302311953041
 30
0.0
 40
0.0082586806446165
 50
296.8507731522719837
 51
326.7079867110725218
  0
ARC
  5
1642E
  8
0
 10
3478.609663453291887
 20
168.3154596444435072
 30
0.0
 40
0.0242120961734874
 50
282.4879299056698869
 51
298.8957862243938735
  0
ARC
  5
1642F
  8
0
 10
3478.6051265203091134
 20
168.3344375920480047
 30
0.0
 40
0.0437233091844516
 50
269.5023748265410859
 51
282.9150249831683936
  0
ARC
  5
16430
  8
0
 10
3478.604553090779973
 20
168.3320628199147961
 30
0.0
 40
0.0413473416419134
 50
253.7573761514055093
 51
270.2683990354590264
  0
ARC
  5
16431
  8
0
 10
3478.5960449784138291
 20
168.3056923378287877
 30
0.0
 40
0.013672639223432
 50
217.4810568597928011
 51
257.0804610893968061
  0
ARC
  5
16432
  8
0
 10
3478.5887312168151766
 20
168.2993319199233042
 30
0.0
 40
0.0040427727539717
 50
180.493287384150193
 51
208.9902066239723979
  0
ARC
  5
16433
  8
0
 10
3478.5892241279329937
 20
168.2990991251234902
 30
0.0
 40
0.0045398533778565
 50
138.2331106339593134
 51
177.5004623663149914
  0
ARC
  5
16434
  8
0
 10
3478.5964947348970782
 20
168.2915724962350907
 30
0.0
 40
0.0149960408638527
 50
105.7673313722999069
 51
135.2865786873200875
  0
ARC
  5
16435
  8
0
 10
3478.603201909676045
 20
168.272759702245196
 30
0.0
 40
0.0349493232130413
 50
98.011601645847847
 51
107.9692123038566933
  0
ARC
  5
16436
  8
0
 10
3478.6048601034740386
 20
168.2620578317373088
 30
0.0
 40
0.0457780977441573
 50
90.6677040391277131
 51
98.1999064598888367
  0
ARC
  5
16437
  8
0
 10
3478.5385731820651927
 20
167.988395742573914
 30
0.0
 40
0.6059729118108899
 50
82.5220730182733462
 51
90.0258050439069848
  0
ARC
  5
16438
  8
0
 10
3478.5808782977351257
 20
168.2337766879437027
 30
0.0
 40
0.3573133986911523
 50
59.9362925598498677
 51
84.1274667162385441
  0
ARC
  5
16439
  8
0
 10
3478.7207405611998183
 20
168.4708111335968965
 30
0.0
 40
0.0821339258187493
 50
34.8366422142591006
 51
61.5416862578366093
  0
ARC
  5
1643A
  8
0
 10
3478.718788245325868
 20
168.4694523862164033
 30
0.0
 40
0.0845125245070743
 50
15.0950543740594796
 51
34.8366422142577576
  0
ARC
  5
1643B
  8
0
 10
3478.7474685173101534
 20
168.4826332798911039
 30
0.0
 40
0.0536474840186253
 50
355.3730825076220867
 51
9.4713792448124856
  0
ARC
  5
1643C
  8
0
 10
3478.7349316060121964
 20
168.4854960467608009
 30
0.0
 40
0.0664000277146087
 50
324.7402458799570013
 51
353.7833356513310719
  0
ARC
  5
1643D
  8
0
 10
3478.7081782993850538
 20
168.50341306788971
 30
0.0
 40
0.0985918363792333
 50
312.5447589487170035
 51
325.2134385541518782
  0
ARC
  5
1643E
  8
0
 10
3478.6736687366801561
 20
168.5413511902941082
 30
0.0
 40
0.1498770875028918
 50
301.110641749435672
 51
312.4577626686983081
  0
ARC
  5
1643F
  8
0
 10
3478.6241488303007827
 20
168.6244846496445859
 30
0.0
 40
0.2466407414375057
 50
290.1760218845951727
 51
300.9812691654979062
  0
ARC
  5
16440
  8
0
 10
3478.5573910309572057
 20
168.8165880761243898
 30
0.0
 40
0.4499957070127429
 50
275.450640248888476
 51
289.718137729067621
  0
ARC
  5
16441
  8
0
 10
3478.5385915101419414
 20
168.9584426640155073
 30
0.0
 40
0.5930177688350931
 50
269.9718604060137181
 51
275.9569220942486822
  0
ARC
  5
16442
  8
0
 10
3478.7761147861638165
 20
168.5242424198787035
 30
0.0
 40
0.0782384422262319
 50
314.5599738272533727
 51
342.4363841656610816
  0
ARC
  5
16443
  8
0
 10
3478.6916861923727993
 20
168.6099778832441132
 30
0.0
 40
0.1985661494600508
 50
303.6021996562586196
 51
314.559973827252179
  0
ARC
  5
16444
  8
0
 10
3478.6674837279360872
 20
168.654840057282513
 30
0.0
 40
0.2493697906164309
 50
294.8961763119913257
 51
302.5292503387726128
  0
ARC
  5
16445
  8
0
 10
3478.750168928480889
 20
168.5325871471995072
 30
0.0
 40
0.0509879892199202
 50
357.1883567145160896
 51
18.5440554780169684
  0
LINE
  5
16446
  8
0
 10
3478.8010955378381368
 20
168.5300860466290942
 30
0.0
 11
3478.8010887524060308
 21
168.4843429376533948
 31
0.0
  0
ARC
  5
16447
  8
0
 10
3478.7610415172907778
 20
168.5165527396002005
 30
0.0
 40
0.0560347274820205
 50
8.3434298825555278
 51
25.9865227767251987
  0
ARC
  5
16448
  8
0
 10
3478.7673997938391039
 20
168.5174852344887029
 30
0.0
 40
0.0496084355982882
 50
339.0081990049544061
 51
8.3434298825555278
  0
ARC
  5
16449
  8
0
 10
3478.7462841493820633
 20
168.5254360876081137
 30
0.0
 40
0.0721710774088827
 50
319.2290110360917197
 51
339.1202807748769033
  0
ARC
  5
1644A
  8
0
 10
3478.7517659069972069
 20
168.5494539951822048
 30
0.0
 40
0.0635941687276354
 50
320.8680178870495183
 51
347.2612591208729214
  0
ARC
  5
1644B
  8
0
 10
3478.5365926494091582
 20
167.9905701035827121
 30
0.0
 40
0.5831132664484036
 50
83.9808158601780406
 51
89.8322124521136374
  0
ARC
  5
1644C
  8
0
 10
3478.685241814785968
 20
168.5096786756953122
 30
0.0
 40
0.1011599705824405
 50
296.384281141403676
 51
326.9822058765440147
  0
ARC
  5
1644D
  8
0
 10
3478.6103461173820506
 20
168.63499847392481
 30
0.0
 40
0.2469719260128969
 50
288.2113318995757254
 51
299.0307081192942746
  0
ARC
  5
1644E
  8
0
 10
3478.5627307869740434
 20
168.776827311442986
 30
0.0
 40
0.3965785039840362
 50
278.639557115044795
 51
288.3421609848094818
  0
ARC
  5
1644F
  8
0
 10
3478.5323893270128792
 20
168.9765183147590903
 30
0.0
 40
0.5985614265242482
 50
274.6451526382551265
 51
278.639557115044795
  0
ARC
  5
16450
  8
0
 10
3478.5409144901418586
 20
168.8715949137788925
 30
0.0
 40
0.4932922549704493
 50
269.6963566159964785
 51
274.6451526382551265
  0
ARC
  5
16451
  8
0
 10
3478.5383925172131967
 20
168.9293747299695099
 30
0.0
 40
0.5578514165346256
 50
269.9905246748256786
 51
275.6986512615820857
  0
ARC
  5
16452
  8
0
 10
3478.5469470618691048
 20
168.8436488261552881
 30
0.0
 40
0.4716997431960044
 50
275.6986512615820857
 51
285.7796542534210857
  0
ARC
  5
16453
  8
0
 10
3478.6079234423809794
 20
168.6278704332817995
 30
0.0
 40
0.2474712128717465
 50
285.7796542534210857
 51
303.9894601083607881
  0
ARC
  5
16454
  8
0
 10
3478.7022568968659471
 20
168.4879598252308028
 30
0.0
 40
0.0787294608358479
 50
303.9894601083607881
 51
336.3219467016635917
  0
ARC
  5
16455
  8
0
 10
3478.739325919105795
 20
168.4717045943374103
 30
0.0
 40
0.0382529869120213
 50
336.3219467016622275
 51
6.4011321939963501
  0
ARC
  5
16456
  8
0
 10
3478.7226989489631706
 20
168.4698392481226108
 30
0.0
 40
0.0549842645883549
 50
6.4011321939963501
 51
24.1812174498162804
  0
ARC
  5
16457
  8
0
 10
3478.7232777489239197
 20
168.470099143108996
 30
0.0
 40
0.0543497925248483
 50
24.1812174498162804
 51
42.37443525538378
  0
ARC
  5
16458
  8
0
 10
3478.652826673646814
 20
168.4058260922012096
 30
0.0
 40
0.1497142464929031
 50
42.37443525538378
 51
48.6576443414666002
  0
ARC
  5
16459
  8
0
 10
3478.6689765215728585
 20
168.4188059893072875
 30
0.0
 40
0.1293501083496241
 50
50.2307431752351192
 51
55.4021049915188684
  0
ARC
  5
1645A
  8
0
 10
3478.6535447658911835
 20
168.3966532767443027
 30
0.0
 40
0.1563476824113013
 50
55.3566077876030391
 51
59.006907869474098
  0
ARC
  5
1645B
  8
0
 10
3478.6539534959688353
 20
168.4024547101851965
 30
0.0
 40
0.1511870525591083
 50
58.0075119613243686
 51
67.2508176265703668
  0
ARC
  5
1645C
  8
0
 10
3478.5956197210039136
 20
168.2795502281962001
 30
0.0
 40
0.2871563363696736
 50
66.0004737887093711
 51
74.2702269898114196
  0
ARC
  5
1645D
  8
0
 10
3478.5725219432160884
 20
168.2117608837932892
 30
0.0
 40
0.3586895774645627
 50
73.6544228430823864
 51
77.6676759898361269
  0
ARC
  5
1645E
  8
0
 10
3478.5533426768429308
 20
168.1279148498709048
 30
0.0
 40
0.4446979938229149
 50
77.5608991032365225
 51
81.5108874631634563
  0
ARC
  5
1645F
  8
0
 10
3478.7313088115470237
 20
168.479230914287001
 30
0.0
 40
0.0459437603570772
 50
327.5167240500111916
 51
342.4836830092813216
  0
ARC
  5
16460
  8
0
 10
3478.7231253441641456
 20
168.4818137140881902
 30
0.0
 40
0.0545251351435713
 50
342.4836830092796731
 51
353.8664018382261247
  0
ARC
  5
16461
  8
0
 10
3478.538503005432176
 20
167.9980077010756077
 30
0.0
 40
0.5806655810446129
 50
83.0748974287781152
 51
90.0200052023406414
  0
ARC
  5
16462
  8
0
 10
3478.5621261032752045
 20
168.1599839810793924
 30
0.0
 40
0.4170411348141048
 50
68.9208303966067888
 51
83.6135961044722933
  0
ARC
  5
16463
  8
0
 10
3478.6487403659939446
 20
168.3799713670528035
 30
0.0
 40
0.1806308528543666
 50
50.9447661897223867
 51
69.4595290064621054
  0
ARC
  5
16464
  8
0
 10
3478.7082959046260839
 20
168.4533715404367911
 30
0.0
 40
0.0861086457567591
 50
29.9116000240268711
 51
50.9447661897223867
  0
ARC
  5
16465
  8
0
 10
3478.7416939680570067
 20
168.4725852772529038
 30
0.0
 40
0.0475781601199563
 50
5.1148240397839251
 51
29.9116000240268711
  0
ARC
  5
16466
  8
0
 10
3478.742185626715127
 20
168.4726292848413038
 30
0.0
 40
0.047084535866704
 50
333.6334380767194716
 51
5.1148240397823042
  0
ARC
  5
16467
  8
0
 10
3478.7182364877530745
 20
168.4845003247534123
 30
0.0
 40
0.0738143477938687
 50
316.9495406414475269
 51
333.6334380767194716
  0
ARC
  5
16468
  8
0
 10
3478.6864628494481622
 20
168.5141820804151962
 30
0.0
 40
0.1172950413288811
 50
301.7944136003637254
 51
316.9495406414475269
  0
ARC
  5
16469
  8
0
 10
3478.6209047602319515
 20
168.6199394767533875
 30
0.0
 40
0.2417236953514162
 50
292.1193472494962862
 51
301.7944136003637254
  0
ARC
  5
1646A
  8
0
 10
3478.5934264859151881
 20
168.687544807517213
 30
0.0
 40
0.3146999675715511
 50
284.0154097003980951
 51
292.1193472494962862
  0
ARC
  5
1646B
  8
0
 10
3478.5428152998388214
 20
168.890302860741798
 30
0.0
 40
0.5236792017153959
 50
277.3632176743273021
 51
284.0154097003980951
  0
ARC
  5
1646C
  8
0
 10
3478.5387689167869212
 20
168.9427990080170048
 30
0.0
 40
0.5762674220338777
 50
269.9534036932813024
 51
277.093292295249114
  0
ARC
  5
1646D
  8
0
 10
3478.571407799895951
 20
168.2812036902653858
 30
0.0
 40
0.290460826669587
 50
80.5715957106987872
 51
84.7988635049839843
  0
LINE
  5
1646E
  8
0
 10
3473.9989301834380058
 20
160.4766888837928036
 30
0.0
 11
3475.2036545928190208
 21
160.4766888853509954
 31
0.0
  0
LINE
  5
1646F
  8
0
 10
3478.461173755362779
 20
166.3099867852758962
 30
0.0
 11
3478.4627367482039517
 21
166.3097731613277119
 31
0.0
  0
LINE
  5
16470
  8
0
 10
3478.4627367482039517
 20
166.3097731613277119
 30
0.0
 11
3478.4678730277378236
 21
166.2993685668255921
 31
0.0
  0
ARC
  5
16471
  8
0
 10
3478.6712722176871466
 20
166.3997775829082002
 30
0.0
 40
0.2268329803676302
 50
206.2734778053471132
 51
214.5020455063007887
  0
ARC
  5
16472
  8
0
 10
3478.5325837611840143
 20
166.3044523573375102
 30
0.0
 40
0.0585433888972603
 50
214.5020455063007887
 51
246.6897201784518927
  0
ARC
  5
16473
  8
0
 10
3478.542274439054836
 20
166.3369062841566972
 30
0.0
 40
0.0922672534146095
 50
249.1387720286766125
 51
267.5313665547500932
  0
ARC
  5
16474
  8
0
 10
3478.4817567556119684
 20
166.2841583075696121
 30
0.0
 40
0.0224702662837771
 50
188.9504608516419921
 51
220.905444304135699
  0
ARC
  5
16475
  8
0
 10
3478.5050237739610566
 20
166.3043167011850016
 30
0.0
 40
0.0532552459979126
 50
220.905444304135699
 51
245.4738935226226886
  0
ARC
  5
16476
  8
0
 10
3478.5481819259798613
 20
166.398904387188395
 30
0.0
 40
0.1572237817634859
 50
245.4738935226226886
 51
252.8916476692722881
  0
ARC
  5
16477
  8
0
 10
3478.5371233674691211
 20
166.3770523821100937
 30
0.0
 40
0.1331499245213741
 50
254.6737652949317123
 51
264.8736497210884977
  0
ARC
  5
16478
  8
0
 10
3478.5416749794530915
 20
166.4983651706724004
 30
0.0
 40
0.2544623216724582
 50
266.2937201719313975
 51
269.2401125269602176
  0
LINE
  5
16479
  8
0
 10
3478.6154625421631863
 20
166.3099916746147926
 30
0.0
 11
3478.613863776171911
 21
166.3097731613277119
 31
0.0
  0
LINE
  5
1647A
  8
0
 10
3478.613863776171911
 20
166.3097731613277119
 30
0.0
 11
3478.6087274966380392
 21
166.2993685668255921
 31
0.0
  0
ARC
  5
1647B
  8
0
 10
3478.4053283066891709
 20
166.3997775829082002
 30
0.0
 40
0.2268329803676302
 50
325.497954493699126
 51
333.7265221946528868
  0
ARC
  5
1647C
  8
0
 10
3478.5440167631932127
 20
166.3044523573375102
 30
0.0
 40
0.0585433888972603
 50
293.3102798215481926
 51
325.497954493699126
  0
ARC
  5
1647D
  8
0
 10
3478.5357619250130483
 20
166.3299514419844911
 30
0.0
 40
0.0852645744217667
 50
271.7059546595299935
 51
291.6239067570451198
  0
ARC
  5
1647E
  8
0
 10
3478.5948437687638943
 20
166.2841583075696121
 30
0.0
 40
0.0224702662837771
 50
319.094555695864301
 51
351.0495391483580079
  0
ARC
  5
1647F
  8
0
 10
3478.5715767504161704
 20
166.3043167011850016
 30
0.0
 40
0.0532552459979126
 50
294.5261064773771977
 51
319.094555695864301
  0
ARC
  5
16480
  8
0
 10
3478.5284185983960015
 20
166.398904387188395
 30
0.0
 40
0.1572237817634859
 50
287.1083523307277119
 51
294.5261064773771977
  0
ARC
  5
16481
  8
0
 10
3478.5394771569071963
 20
166.3770523821100937
 30
0.0
 40
0.1331499245213741
 50
275.1263502789115023
 51
285.3262347050683729
  0
ARC
  5
16482
  8
0
 10
3478.5349255450269084
 20
166.4983651686683004
 30
0.0
 40
0.2544623196658517
 50
270.7598874330936951
 51
273.7062798338910738
  0
LINE
  5
16483
  8
0
 10
3478.2626125976380536
 20
167.7738243644255931
 30
0.0
 11
3478.2500207674938792
 21
167.7884025733279998
 31
0.0
  0
ENDSEC
  0
EOF
