  0
SECTION
  2
HEADER
  9
$ACADVER
  1
AC1009
  9
$INSBASE
 10
4024.4921445843478978
 20
-68.6449502792897448
 30
0.0
  9
$EXTMIN
 10
4019.2003497983491798
 20
-70.7017559690897457
 30
0.0
  9
$EXTMAX
 10
4024.5035808802690553
 20
-67.5249502792897545
 30
0.0
  9
$LIMMIN
 10
0.0
 20
0.0
  9
$LIMMAX
 10
11.6929133858000007
 20
8.2677165353999982
  9
$ORTHOMODE
 70
     0
  9
$REGENMODE
 70
     1
  9
$FILLMODE
 70
     1
  9
$QTEXTMODE
 70
     0
  9
$MIRRTEXT
 70
     0
  9
$DRAGMODE
 70
     2
  9
$LTSCALE
 40
0.6431102362
  9
$OSMODE
 70
  4095
  9
$ATTMODE
 70
     1
  9
$TEXTSIZE
 40
0.2
  9
$TRACEWID
 40
0.05
  9
$TEXTSTYLE
  7
STANDARD
  9
$CLAYER
  8
0
  9
$CELTYPE
  6
BYLAYER
  9
$CECOLOR
 62
   256
  9
$DIMSCALE
 40
1.0
  9
$DIMASZ
 40
0.1875
  9
$DIMEXO
 40
0.0625
  9
$DIMDLI
 40
0.4443307087
  9
$DIMRND
 40
0.0
  9
$DIMDLE
 40
0.0
  9
$DIMEXE
 40
0.125
  9
$DIMTP
 40
0.01
  9
$DIMTM
 40
0.01
  9
$DIMTXT
 40
2.0
  9
$DIMCEN
 40
0.1052362205
  9
$DIMTSZ
 40
0.0
  9
$DIMTOL
 70
     1
  9
$DIMLIM
 70
     0
  9
$DIMTIH
 70
     1
  9
$DIMTOH
 70
     1
  9
$DIMSE1
 70
     0
  9
$DIMSE2
 70
     0
  9
$DIMTAD
 70
     0
  9
$DIMZIN
 70
     0
  9
$DIMBLK
  1

  9
$DIMASO
 70
     1
  9
$DIMSHO
 70
     1
  9
$DIMPOST
  1
\X
  9
$DIMAPOST
  1

  9
$DIMALT
 70
     1
  9
$DIMALTD
 70
     2
  9
$DIMALTF
 40
25.3999999999999986
  9
$DIMLFAC
 40
1.0
  9
$DIMTOFL
 70
     0
  9
$DIMTVP
 40
0.0
  9
$DIMTIX
 70
     0
  9
$DIMSOXD
 70
     0
  9
$DIMSAH
 70
     0
  9
$DIMBLK1
  1

  9
$DIMBLK2
  1

  9
$DIMSTYLE
  2
STANDARD
  9
$DIMCLRD
 70
     0
  9
$DIMCLRE
 70
     0
  9
$DIMCLRT
 70
     0
  9
$DIMTFAC
 40
1.0
  9
$DIMGAP
 40
0.09
  9
$LUNITS
 70
     2
  9
$LUPREC
 70
     4
  9
$SKETCHINC
 40
0.1
  9
$FILLETRAD
 40
0.0
  9
$AUNITS
 70
     0
  9
$AUPREC
 70
     0
  9
$MENU
  1
.
  9
$ELEVATION
 40
0.0
  9
$PELEVATION
 40
0.0
  9
$THICKNESS
 40
0.0
  9
$LIMCHECK
 70
     0
  9
$BLIPMODE
 70
     0
  9
$CHAMFERA
 40
0.0
  9
$CHAMFERB
 40
0.0
  9
$SKPOLY
 70
     0
  9
$TDCREATE
 40
2458060.468368056230247
  9
$TDUPDATE
 40
2459120.8609374999068677
  9
$TDINDWG
 40
0.5090927083
  9
$TDUSRTIMER
 40
0.5090927083
  9
$USRTIMER
 70
     1
  9
$ANGBASE
 50
0.0
  9
$ANGDIR
 70
     0
  9
$PDMODE
 70
     0
  9
$PDSIZE
 40
0.3125
  9
$PLINEWID
 40
0.0
  9
$COORDS
 70
     1
  9
$SPLFRAME
 70
     0
  9
$SPLINETYPE
 70
     6
  9
$SPLINESEGS
 70
     8
  9
$ATTDIA
 70
     1
  9
$ATTREQ
 70
     1
  9
$HANDLING
 70
     1
  9
$HANDSEED
  5
9C46
  9
$SURFTAB1
 70
     6
  9
$SURFTAB2
 70
     6
  9
$SURFTYPE
 70
     6
  9
$SURFU
 70
     6
  9
$SURFV
 70
     6
  9
$UCSNAME
  2

  9
$UCSORG
 10
0.0
 20
0.0
 30
0.0
  9
$UCSXDIR
 10
1.0
 20
0.0
 30
0.0
  9
$UCSYDIR
 10
0.0
 20
1.0
 30
0.0
  9
$PUCSNAME
  2

  9
$PUCSORG
 10
0.0
 20
0.0
 30
0.0
  9
$PUCSXDIR
 10
1.0
 20
0.0
 30
0.0
  9
$PUCSYDIR
 10
0.0
 20
1.0
 30
0.0
  9
$USERI1
 70
     0
  9
$USERI2
 70
     0
  9
$USERI3
 70
     0
  9
$USERI4
 70
     0
  9
$USERI5
 70
     0
  9
$USERR1
 40
0.0
  9
$USERR2
 40
0.0
  9
$USERR3
 40
0.0
  9
$USERR4
 40
0.0
  9
$USERR5
 40
0.0
  9
$WORLDVIEW
 70
     1
  9
$SHADEDGE
 70
     3
  9
$SHADEDIF
 70
    70
  9
$TILEMODE
 70
     1
  9
$MAXACTVP
 70
    64
  9
$PLIMCHECK
 70
     0
  9
$PEXTMIN
 10
1.0000000000000000E+20
 20
1.0000000000000000E+20
 30
1.0000000000000000E+20
  9
$PEXTMAX
 10
-1.0000000000000000E+20
 20
-1.0000000000000000E+20
 30
-1.0000000000000000E+20
  9
$PLIMMIN
 10
0.0
 20
0.0
  9
$PLIMMAX
 10
12.0
 20
9.0
  9
$UNITMODE
 70
     0
  9
$VISRETAIN
 70
     1
  9
$PLINEGEN
 70
     0
  9
$PSLTSCALE
 70
     1
  0
ENDSEC
  0
SECTION
  2
TABLES
  0
TABLE
  2
VPORT
 70
     1
  0
VPORT
  2
*ACTIVE
 70
     0
 10
0.0
 20
0.0
 11
1.0
 21
1.0
 12
0.0
 22
0.0
 13
0.0
 23
0.0
 14
1.0
 24
1.0
 15
0.0
 25
0.0
 16
0.0
 26
0.0
 36
22.3717081504594901
 17
4021.8520101668541429
 27
-69.1133537292480469
 37
0.0
 40
6.1818636766033137
 41
2.8398203592814371
 42
50.0
 43
0.0
 44
0.0
 50
0.0
 51
0.0
 71
     0
 72
   100
 73
     1
 74
     1
 75
     0
 76
     0
 77
     0
 78
     0
  0
ENDTAB
  0
TABLE
  2
LTYPE
 70
     2
  0
LTYPE
  2
CONTINUOUS
 70
     0
  3
Solid line
 72
    65
 73
     0
 40
0.0
  0
LTYPE
  2
PHANTOM2
 70
     0
  3
___ _ _ ___ _ _ ___ _ _ ___ _ _
 72
    65
 73
     6
 40
1.25
 49
0.625
 49
-0.125
 49
0.125
 49
-0.125
 49
0.125
 49
-0.125
  0
ENDTAB
  0
TABLE
  2
LAYER
 70
     2
  0
LAYER
  2
0
 70
     0
 62
   255
  6
CONTINUOUS
  0
LAYER
  2
DEFPOINTS
 70
     0
 62
     7
  6
CONTINUOUS
  0
ENDTAB
  0
TABLE
  2
STYLE
 70
     1
  0
STYLE
  2
STANDARD
 70
     0
 40
0.0
 41
0.8
 50
0.0
 71
     0
 42
0.2
  3
txt
  4

  0
ENDTAB
  0
TABLE
  2
VIEW
 70
     0
  0
ENDTAB
  0
TABLE
  2
UCS
 70
     0
  0
ENDTAB
  0
TABLE
  2
APPID
 70
     9
  0
APPID
  2
ACAD
 70
     0
  0
APPID
  2
ACAD_MLEADERVER
 70
     0
  0
APPID
  2
ACAD_EXEMPT_FROM_CAD_STANDARDS
 70
     0
  0
APPID
  2
ACAD_NAV_VCDISPLAY
 70
     0
  0
APPID
  2
ACAECLAYERSTANDARD
 70
     0
  0
APPID
  2
ACCMTRANSPARENCY
 70
     0
  0
APPID
  2
ACAD_DSTYLE_DIMJAG
 70
     0
  0
APPID
  2
ACAD_DSTYLE_DIMTALN
 70
     0
  0
APPID
  2
ACDBATTR
 70
     0
  0
ENDTAB
  0
TABLE
  2
DIMSTYLE
 70
     1
  0
DIMSTYLE
  2
STANDARD
 70
     0
  3

  4

  5

  6

  7

 40
1.0
 41
0.1875
 42
0.0625
 43
0.38
 44
0.125
 45
0.0
 46
0.0
 47
0.01
 48
0.01
140
0.15625
141
0.09
142
0.0
143
25.3999999999999986
144
1.0
145
0.0
146
1.0
147
0.09
 71
     1
 72
     0
 73
     1
 74
     1
 75
     0
 76
     0
 77
     0
 78
     4
170
     0
171
     2
172
     0
173
     0
174
     0
175
     0
176
     0
177
     0
178
     0
  0
ENDTAB
  0
ENDSEC
  0
SECTION
  2
BLOCKS
  0
BLOCK
  8
0
  2
$MODEL_SPACE
 70
     0
 10
0.0
 20
0.0
 30
0.0
  3
$MODEL_SPACE
  1

  0
ENDBLK
  5
21
  8
0
  0
BLOCK
 67
     1
  8
0
  2
$PAPER_SPACE
 70
     0
 10
0.0
 20
0.0
 30
0.0
  3
$PAPER_SPACE
  1

  0
ENDBLK
  5
1D
 67
     1
  8
0
  0
BLOCK
  8
0
  2
_FILLED
 70
     0
 10
0.0
 20
0.0
 30
0.0
  3
_FILLED
  1

  0
SOLID
  5
69B4
  8
0
  6
BYBLOCK
 62
     0
 10
0.0
 20
0.0
 30
0.0
 11
-1.0
 21
0.1666666667
 31
0.0
 12
-1.0
 22
-0.1666666667
 32
0.0
 13
-1.0
 23
-0.1666666667
 33
0.0
  0
ENDBLK
  5
69B5
  8
0
  6
BYBLOCK
 62
     0
  0
BLOCK
  8
0
  2
A$CDFAF6206
 70
     0
 10
0.0
 20
0.0
 30
0.0
  3
A$CDFAF6206
  1

  0
LINE
  5
6A0E
  8
0
 10
7.4646650085734834
 20
10.9287685970688493
 30
0.0
 11
7.4646650085734896
 21
10.8905784766688498
 31
0.0
  0
ARC
  5
6A0F
  8
0
 10
7.7269027075262349
 20
10.8926811525838598
 30
0.0
 40
0.2622461286616791
 50
180.4593995232625048
 51
217.0214027758331099
  0
LINE
  5
6A10
  8
0
 10
9.767814609867095
 20
10.9287685970688493
 30
0.0
 11
9.767814609867095
 21
10.8905433757650094
 31
0.0
  0
ARC
  5
6A11
  8
0
 10
9.5068669568548287
 20
10.8922438613003703
 30
0.0
 40
0.2609531936261092
 50
322.8847083717149076
 51
359.6266329125650145
  0
LINE
  5
6A12
  8
0
 10
7.517522606271406
 20
10.7347792678688396
 30
0.0
 11
9.7149570120691777
 21
10.7347792678688396
 31
0.0
  0
LINE
  5
6A13
  8
0
 10
7.4646650085734834
 20
10.9287685970688493
 30
0.0
 11
9.7678146123202936
 21
10.9287685970688493
 31
0.0
  0
ARC
  5
6A14
  8
0
 10
4.0826771419203629
 20
8.527951346868889
 30
0.0
 40
4.0826771653999172
 50
13.3117747050523896
 51
32.7200330051415591
  0
ARC
  5
6A15
  8
0
 10
4.0826771460567306
 20
8.5279513475907933
 30
0.0
 40
4.0826771612084691
 50
359.6656501984817851
 51
13.3117747085593798
  0
ARC
  5
6A16
  8
0
 10
13.1498041284835097
 20
8.5279508235212234
 30
0.0
 40
4.0826788382043553
 50
147.2799733478981068
 51
166.6882233021349862
  0
ARC
  5
6A17
  8
0
 10
13.1498064934207992
 20
8.5279506557033251
 30
0.0
 40
4.0826811782395342
 50
166.688228652086309
 51
180.3343397625230011
  0
LINE
  5
6A18
  8
0
 10
8.1652847935202928
 20
8.504127000268852
 30
0.0
 11
9.0671948248202892
 21
8.5041270002687881
 31
0.0
  0
LINE
  5
6A19
  8
0
 10
8.1652847935202786
 20
8.5041270002667204
 30
0.0
 11
8.1652847935202928
 21
8.3607006934688481
 31
0.0
  0
ARC
  5
6A1A
  8
0
 10
5.6196779630382627
 20
8.3631022096452732
 30
0.0
 40
2.545607963272567
 50
342.0511668832173768
 51
359.945947387132378
  0
LINE
  5
6A1B
  8
0
 10
9.0671948248202892
 20
8.5041270002687881
 30
0.0
 11
9.0671948248202892
 21
8.2885990108688503
 31
0.0
  0
ARC
  5
6A1C
  8
0
 10
9.4521885297801163
 20
7.9614488056228501
 30
0.0
 40
0.5052201595850959
 50
139.6436242991769916
 51
174.6757930071850069
  0
ARC
  5
6A1D
  8
0
 10
9.9238413395551746
 20
8.1492417579399508
 30
0.0
 40
0.9848265662939324
 50
188.2263441834095943
 51
209.5593615864376034
  0
ARC
  5
6A1E
  8
0
 10
8.0788764238271256
 20
7.5665710856463297
 30
0.0
 40
0.0393715937169877
 50
162.1669117288323037
 51
227.2023190037006088
  0
ARC
  5
6A1F
  8
0
 10
8.7223682141740682
 20
8.2079667397440517
 30
0.0
 40
0.947895137885075
 50
225.0018610752970858
 51
261.4598823366255829
  0
ARC
  5
6A20
  8
0
 10
8.6645157662702701
 20
8.1695128573935332
 30
0.0
 40
0.9027466462812931
 50
264.7303071214498118
 51
281.8608311947915013
  0
ARC
  5
6A21
  8
0
 10
8.6645157662698935
 20
8.1695128573999671
 30
0.0
 40
0.9027466462876658
 50
299.1741886792128753
 51
299.1743179154552195
  0
ARC
  5
6A22
  8
0
 10
9.0843330931590316
 20
7.4150554710086141
 30
0.0
 40
0.0393703053609601
 50
251.9700352025496954
 51
252.4698971938937859
  0
ARC
  5
6A23
  8
0
 10
9.0843330931590316
 20
7.4150554710086141
 30
0.0
 40
0.0393703053609601
 50
297.2453716727138726
 51
6.8376113572703074
  0
LINE
  5
6A24
  8
0
 10
9.0671948248202892
 20
7.663402160468852
 30
0.0
 11
9.1234233799329516
 21
7.419742732911689
 31
0.0
  0
ARC
  5
6A25
  8
0
 10
8.8843741880892395
 20
9.8961379890094676
 30
0.0
 40
2.5255097382132701
 50
263.792800240752797
 51
274.9514951129821156
  0
ARC
  5
6A26
  8
0
 10
8.8258167405968848
 20
9.2763025889666508
 30
0.0
 40
1.9029970832759311
 50
246.0108363320686067
 51
263.5276935074397215
  0
ARC
  5
6A27
  8
0
 10
8.607491361665744
 20
8.3225444804829642
 30
0.0
 40
1.064510137163637
 50
283.1717405874071005
 51
297.7022170607311864
  0
LINE
  5
6A28
  8
0
 10
9.0671948248202892
 20
8.2885990108688503
 30
0.0
 11
26.2014378595979593
 21
8.2885990108689942
 31
0.0
  0
LINE
  5
6A29
  8
0
 10
26.2014378595979913
 20
7.6634021604689053
 30
0.0
 11
9.0671948248202892
 21
7.6634021604688618
 31
0.0
  0
LINE
  5
6A2A
  8
0
 10
27.8039676758446994
 20
10.9287685970690802
 30
0.0
 11
27.8039676758446888
 21
10.8905784766690807
 31
0.0
  0
ARC
  5
6A2B
  8
0
 10
27.5417299768919399
 20
10.8926811525840801
 30
0.0
 40
0.2622461286616791
 50
322.9785972241680838
 51
359.5406004767386889
  0
LINE
  5
6A2C
  8
0
 10
25.5008180745510913
 20
10.9287685970690305
 30
0.0
 11
25.5008180745510913
 21
10.8905433757651799
 31
0.0
  0
ARC
  5
6A2D
  8
0
 10
25.7617657275633505
 20
10.8922438613005497
 30
0.0
 40
0.2609531936261092
 50
180.3733670874362929
 51
217.1152916282862861
  0
LINE
  5
6A2E
  8
0
 10
27.7511100781467803
 20
10.7347792678690706
 30
0.0
 11
25.5536756723490015
 21
10.7347792678690208
 31
0.0
  0
LINE
  5
6A2F
  8
0
 10
27.8039676758446888
 20
10.9287685970686006
 30
0.0
 11
25.5008180745510806
 21
10.9287685970686006
 31
0.0
  0
ARC
  5
6A30
  8
0
 10
31.1859555424978616
 20
8.5279513468691981
 30
0.0
 40
4.0826771653999172
 50
147.2799669948597057
 51
166.6882252949490066
  0
ARC
  5
6A31
  8
0
 10
31.185955538361501
 20
8.5279513475911024
 30
0.0
 40
4.0826771612084691
 50
166.6882252914419098
 51
180.3343498015194086
  0
ARC
  5
6A32
  8
0
 10
22.1188285559344706
 20
8.5279508235212251
 30
0.0
 40
4.0826788382046102
 50
13.3117766978667795
 51
32.7200266521023977
  0
ARC
  5
6A33
  8
0
 10
22.1188261909974315
 20
8.5279506557034264
 30
0.0
 40
4.0826811782395342
 50
359.665660237478221
 51
13.31177134791497
  0
LINE
  5
6A34
  8
0
 10
27.1033478908979397
 20
8.5041270002690652
 30
0.0
 11
26.2014378595979416
 21
8.5041270002689835
 31
0.0
  0
LINE
  5
6A35
  8
0
 10
27.1033478908979504
 20
8.5041270002669354
 30
0.0
 11
27.1033478908979397
 21
8.3607006934690649
 31
0.0
  0
ARC
  5
6A36
  8
0
 10
29.6489547213799689
 20
8.3631022096455467
 30
0.0
 40
2.545607963272567
 50
180.0540526128687873
 51
197.9488331167837032
  0
LINE
  5
6A37
  8
0
 10
26.2014378595979416
 20
8.5041270002689835
 30
0.0
 11
26.2014378595979487
 21
8.2885990108690457
 31
0.0
  0
ARC
  5
6A38
  8
0
 10
25.8164441546381305
 20
7.9614488056230366
 30
0.0
 40
0.5052201595850959
 50
5.324206992816312
 51
40.3563757008241879
  0
ARC
  5
6A39
  8
0
 10
25.3447913448601803
 20
8.149241757940846
 30
0.0
 40
0.9848265662968968
 50
330.4406384136033807
 51
351.7736558165743759
  0
ARC
  5
6A3A
  8
0
 10
27.1897562605911212
 20
7.5665710856465473
 30
0.0
 40
0.0393715937169877
 50
312.7976809963004143
 51
17.8330882711689185
  0
ARC
  5
6A3B
  8
0
 10
26.5462644702441715
 20
8.2079667397442542
 30
0.0
 40
0.947895137885075
 50
278.5401176633754972
 51
314.9981389247041079
  0
ARC
  5
6A3C
  8
0
 10
26.6041169181479695
 20
8.1695128573937392
 30
0.0
 40
0.9027466462812931
 50
258.139168805210204
 51
275.2696928785518935
  0
ARC
  5
6A3D
  8
0
 10
26.6041169181483497
 20
8.1695128574001732
 30
0.0
 40
0.9027466462876658
 50
240.8256820845460027
 51
240.8258113207880058
  0
ARC
  5
6A3E
  8
0
 10
26.1842995912592293
 20
7.4150554710088086
 30
0.0
 40
0.0393703053609601
 50
287.5301028061073794
 51
288.0299647974517825
  0
ARC
  5
6A3F
  8
0
 10
26.1842995912592293
 20
7.4150554710088086
 30
0.0
 40
0.0393703053609601
 50
173.1623886427310026
 51
242.7546283272870085
  0
LINE
  5
6A40
  8
0
 10
26.2014378595981192
 20
7.6634021604690448
 30
0.0
 11
26.1452093044853093
 21
7.4197427329118826
 31
0.0
  0
ARC
  5
6A41
  8
0
 10
26.384258496328961
 20
9.8961379890096666
 30
0.0
 40
2.5255097382132701
 50
265.0485048870193054
 51
276.2071997592482262
  0
ARC
  5
6A42
  8
0
 10
26.4428159438213299
 20
9.2763025889668516
 30
0.0
 40
1.9029970832759311
 50
276.4723064925619838
 51
293.9891636679327007
  0
ARC
  5
6A43
  8
0
 10
26.6611413227524885
 20
8.3225444804831703
 30
0.0
 40
1.064510137163637
 50
242.2977829392704052
 51
256.8282594125943774
  0
LINE
  5
6A44
  8
0
 62
     4
 10
17.9031473532159602
 20
10.9287685970686006
 30
0.0
 11
24.6329820359843588
 21
20.0952817181593808
 31
0.0
  0
LINE
  5
6A45
  8
0
 62
     4
 10
17.9031473532159602
 20
-0.0000000300842942
 30
0.0
 11
22.3963351323106608
 21
4.993614497796286
 31
0.0
  0
ENDBLK
  5
6A49
  8
0
  0
ENDSEC
  0
SECTION
  2
ENTITIES
  0
ATTDEF
  5
3930
  8
DEFPOINTS
 10
4024.4929142136002156
 20
-68.6408620850197195
 30
0.0
 40
0.001
  1
K-45918M
  3

  2
MODELNUMBER
 70
     0
1001
ACDBATTR
1070
     0
1070
     1
  0
ATTDEF
  5
3931
  8
DEFPOINTS
 10
4024.4929142136002156
 20
-68.6425287516863847
 30
0.0
 40
0.001
  1
PURIST
  3

  2
TRADENAME
 70
     0
1001
ACDBATTR
1070
     0
1070
     1
  0
ATTDEF
  5
3932
  8
DEFPOINTS
 10
4024.4929142136002156
 20
-68.6441954183530498
 30
0.0
 40
0.001
  1
SHOWER ARM
  3

  2
PRODUCT
 70
     0
1001
ACDBATTR
1070
     0
1070
     1
  0
LINE
  5
962A
  8
0
 10
4019.7572058610871863
 20
-70.7017559690897457
 30
0.0
 11
4019.7584652516588903
 21
-70.7017559690897457
 31
0.0
  0
LINE
  5
962B
  8
0
 10
4024.4471445893627788
 20
-67.5249502792897545
 30
0.0
 11
4024.3660545166321754
 21
-67.5249502792897545
 31
0.0
  0
LINE
  5
962C
  8
0
 10
4024.1195120613770086
 20
-68.0349502792897454
 30
0.0
 11
4023.8621445843477886
 21
-68.0349502792897454
 31
0.0
  0
LINE
  5
962D
  8
0
 10
4024.4471445843078072
 20
-69.7649502792897493
 30
0.0
 11
4024.3660545166540032
 21
-69.7649502792897493
 31
0.0
  0
LINE
  5
962E
  8
0
 10
4024.118084589962109
 20
-69.2549502792897442
 30
0.0
 11
4024.1016446315238682
 21
-69.2549502792897442
 31
0.0
  0
LINE
  5
962F
  8
0
 10
4023.8826445373479146
 20
-69.2549502792897442
 30
0.0
 11
4023.8621445843477886
 21
-69.2549502792897442
 31
0.0
  0
LINE
  5
9630
  8
0
 10
4024.4921445843478978
 20
-67.5699510471897469
 30
0.0
 11
4024.4921445843478978
 21
-69.7199495113897569
 31
0.0
  0
ARC
  5
9631
  8
0
 10
4024.4471438164409847
 20
-69.7199495113897569
 30
0.0
 40
0.0450007679065507
 50
270.0009777123041772
 51
359.9999999999984084
  0
ARC
  5
9632
  8
0
 10
4024.4471445893627788
 20
-67.5699502742813394
 30
0.0
 40
0.0449999949915879
 50
359.9990159023348042
 51
90.0
  0
LINE
  5
9633
  8
0
 10
4024.3227977403312252
 20
-69.7323539603017366
 30
0.0
 11
4024.3227977403489604
 21
-67.557546598289747
 31
0.0
  0
ARC
  5
9634
  8
0
 10
4024.3660545166321754
 20
-67.5699502792405866
 30
0.0
 40
0.0449999999508348
 50
89.9999999790516938
 51
164.0000000627626946
  0
ARC
  5
9635
  8
0
 10
4024.3660545166540032
 20
-69.7199502792704635
 30
0.0
 40
0.0450000000192772
 50
196.0000001353654113
 51
270.0
  0
LINE
  5
9636
  8
0
 10
4024.3227977403312252
 20
-69.7323539603017366
 30
0.0
 11
4024.2045981211481376
 21
-69.3201429011039778
 31
0.0
  0
ARC
  5
9637
  8
0
 10
4024.118084589962109
 20
-69.3449502569771568
 30
0.0
 40
0.0899999776874089
 50
15.9999999998873506
 51
90.0
  0
ARC
  5
9638
  8
0
 10
4023.9921445844361187
 20
-69.961786487854269
 30
0.0
 40
0.715267562559801
 50
81.193982122743094
 51
98.8060178772569344
  0
LINE
  5
9639
  8
0
 10
4023.8021445843478432
 20
-68.0949502844897552
 30
0.0
 11
4023.8021445843478432
 21
-69.1949502792897562
 31
0.0
  0
ARC
  5
963A
  8
0
 10
4023.8621445843477886
 20
-69.1949502792897562
 30
0.0
 40
0.0600000000000005
 50
180.0
 51
270.0
  0
ARC
  5
963B
  8
0
 10
4023.8621445843477886
 20
-68.0949502792897334
 30
0.0
 40
0.0600000000000005
 50
90.0
 51
180.0000049656329963
  0
ARC
  5
963C
  8
0
 10
4024.1180692383568385
 20
-67.944945893584304
 30
0.0
 40
0.090015949611633
 50
270.918406240110528
 51
344.0000005848427804
  0
LINE
  5
963D
  8
0
 10
4024.2045981229948666
 20
-67.9697576510333761
 30
0.0
 11
4024.3227977403489604
 21
-67.5575465982897754
 31
0.0
  0
LINE
  5
963E
  8
0
 10
4024.2045981211481376
 20
-67.969757657475526
 30
0.0
 11
4024.2045981211481376
 21
-69.3201429011039778
 31
0.0
  0
LINE
  5
963F
  8
0
 10
4023.8021445843478432
 20
-68.2389502792897531
 30
0.0
 11
4022.1092311985480592
 21
-68.2389502793897549
 31
0.0
  0
LINE
  5
9640
  8
0
 10
4023.8021445843478432
 20
-69.0509502792897507
 30
0.0
 11
4022.1092311985480592
 21
-69.0509502793897525
 31
0.0
  0
LINE
  5
9641
  8
0
 10
4019.4669791647479542
 20
-69.8487277167897531
 30
0.0
 11
4020.0411498710977867
 21
-70.4228984231397561
 31
0.0
  0
LINE
  5
9642
  8
0
 10
4020.0411498710977867
 20
-70.4228984231397561
 30
0.0
 11
4020.9208575201701024
 21
-69.5431907741118067
 31
0.0
  0
ARC
  5
9643
  8
0
 10
4022.1218459583838012
 20
-70.762019176872343
 30
0.0
 40
1.711115397657492
 50
90.4224022834287098
 51
134.577597717548997
  0
ARC
  5
9644
  8
0
 10
4022.1092311989200425
 20
-70.7315644531466177
 30
0.0
 40
2.4926141738568708
 50
90.0000000085460812
 51
134.999999996992301
  0
LINE
  5
9645
  8
0
 10
4020.3466868137970778
 20
-68.969020067838315
 30
0.0
 11
4019.4669791647970669
 21
-69.84872771683834
 31
0.0
  0
LINE
  5
9646
  8
0
 10
4020.0110171002479547
 20
-70.3927656522897536
 30
0.0
 11
4019.9602958392479195
 21
-70.4434869132897461
 31
0.0
  0
ARC
  5
9647
  8
0
 10
4019.9669552987411407
 20
-70.4501463727829531
 30
0.0
 40
0.0094178979333802
 50
135.0000000000046043
 51
197.3595016460311058
  0
LINE
  5
9648
  8
0
 10
4019.9579663722988698
 20
-70.4529563555053642
 30
0.0
 11
4019.9691671193199909
 21
-70.4887867149839593
 31
0.0
  0
ARC
  5
9649
  8
0
 10
4019.9589858832341633
 20
-70.4907086913137562
 30
0.0
 40
0.0103610598519865
 50
250.5346989445912982
 51
10.6902833407382492
  0
LINE
  5
964A
  8
0
 10
4019.9555332058789645
 20
-70.5004775489920235
 30
0.0
 11
4019.9208035068481877
 21
-70.4895684734897543
 31
0.0
  0
ARC
  5
964B
  8
0
 10
4019.9183797445762139
 20
-70.4985119071586155
 30
0.0
 40
0.0092660471259641
 50
74.8364880445153346
 51
133.6846769939629098
  0
LINE
  5
964C
  8
0
 10
4019.9119797873981952
 20
-70.4918111476897451
 30
0.0
 11
4019.9099075213480319
 21
-70.4938752310897456
 31
0.0
  0
ARC
  5
964D
  8
0
 10
4019.9164697444239209
 20
-70.5004634688005041
 30
0.0
 40
0.0092987981933049
 50
134.8866559258788129
 51
196.8079634438886103
  0
LINE
  5
964E
  8
0
 10
4019.9075681972490202
 20
-70.5031523543887602
 30
0.0
 11
4019.9184346353481487
 21
-70.5377008671897556
 31
0.0
  0
ARC
  5
964F
  8
0
 10
4019.9086441230701894
 20
-70.5411034320391934
 30
0.0
 40
0.0103649205600499
 50
250.6138357724088905
 51
19.164228690669681
  0
LINE
  5
9650
  8
0
 10
4019.9053178311478405
 20
-70.5509154852397558
 30
0.0
 11
4019.8704004929481926
 21
-70.5399343948897553
 31
0.0
  0
ARC
  5
9651
  8
0
 10
4019.8677764771441616
 20
-70.5482781607952063
 30
0.0
 40
0.008746650125853
 50
72.5422542773449948
 51
138.0049373337548104
  0
LINE
  5
9652
  8
0
 10
4019.8612759450479643
 20
-70.5424260696397454
 30
0.0
 11
4019.8595192045318072
 21
-70.5442635479606537
 31
0.0
  0
ARC
  5
9653
  8
0
 10
4019.8665634025810505
 20
-70.5509982277519043
 30
0.0
 40
0.0097455958281128
 50
136.286832505923087
 51
196.2707199837323913
  0
LINE
  5
9654
  8
0
 10
4019.8572081315442119
 20
-70.553728711567004
 30
0.0
 11
4019.8680896772980304
 21
-70.5882450166897542
 31
0.0
  0
ARC
  5
9655
  8
0
 10
4019.8581360976841097
 20
-70.5913829635701831
 30
0.0
 40
0.0104364964308454
 50
251.5669794516470006
 51
17.4978809625822684
  0
LINE
  5
9656
  8
0
 10
4019.8548361209482209
 20
-70.6012840044897558
 30
0.0
 11
4019.8200271515479471
 21
-70.59034543298975
 31
0.0
  0
ARC
  5
9657
  8
0
 10
4019.8174233984282182
 20
-70.5986311550054921
 30
0.0
 40
0.0086852011856297
 50
72.5548943382590181
 51
137.4169804121144978
  0
LINE
  5
9658
  8
0
 10
4019.8110285051479877
 20
-70.5927542459897523
 30
0.0
 11
4019.8091308856478463
 21
-70.594651866889734
 31
0.0
  0
ARC
  5
9659
  8
0
 10
4019.8157719835248827
 20
-70.6012877229121187
 30
0.0
 40
0.0093882248672282
 50
135.0226208599351025
 51
197.54780023704879
  0
LINE
  5
965A
  8
0
 10
4019.8068206326729523
 20
-70.6041182854180107
 30
0.0
 11
4019.8177310894488983
 21
-70.638731387389754
 31
0.0
  0
ARC
  5
965B
  8
0
 10
4019.8078292325858456
 20
-70.6418525691135528
 30
0.0
 40
0.0103821262113509
 50
250.7947924327372107
 51
17.4954643623383284
  0
LINE
  5
965C
  8
0
 10
4019.8044140081719888
 20
-70.6516568939725005
 30
0.0
 11
4019.7696387046480595
 21
-70.6407333927897554
 31
0.0
  0
ARC
  5
965D
  8
0
 10
4019.7672205258581926
 20
-70.6499306607234985
 30
0.0
 40
0.0095098541579118
 50
75.2689925823942048
 51
135.3202964106442039
  0
LINE
  5
965E
  8
0
 10
4019.7604585573808436
 20
-70.6432438746189746
 30
0.0
 11
4019.7573297196349813
 21
-70.6467221763776365
 31
0.0
  0
ARC
  5
965F
  8
0
 10
4019.7646556148679338
 20
-70.6514638938501633
 30
0.0
 40
0.0087265471713918
 50
147.0868616059063072
 51
199.1240884205624013
  0
LINE
  5
9660
  8
0
 10
4019.7564110658481695
 20
-70.6543227231897504
 30
0.0
 11
4019.7673275724478117
 21
-70.6890039216897463
 31
0.0
  0
ARC
  5
9661
  8
0
 10
4019.7579632203128313
 20
-70.6919515133622696
 30
0.0
 40
0.0098173004224888
 50
272.9312364401558852
 51
17.472296386384869
  0
ARC
  5
9662
  8
0
 10
4019.7577511990539278
 20
-70.6924216246098212
 30
0.0
 40
0.0093482883234202
 50
252.7653693804591057
 51
262.1419845957099142
  0
ARC
  5
9663
  8
0
 10
4019.7578444622640745
 20
-70.6917458760433277
 30
0.0
 40
0.0100304423761726
 50
262.1419845957099142
 51
266.3497207321731253
  0
LINE
  5
9664
  8
0
 10
4019.754981438447885
 20
-70.70135016988975
 30
0.0
 11
4019.7178995439999198
 21
-70.689674650364168
 31
0.0
  0
ARC
  5
9665
  8
0
 10
4019.7157678980101991
 20
-70.6964448391695157
 30
0.0
 40
0.0070978427064351
 50
72.5229908589984262
 51
101.8480412190489943
  0
LINE
  5
9666
  8
0
 10
4019.7142550030480379
 20
-70.6895277895897465
 30
0.0
 11
4019.6953245451481962
 21
-70.6895277895897465
 31
0.0
  0
LINE
  5
9667
  8
0
 10
4019.6953245451481962
 20
-70.6895277895897465
 30
0.0
 11
4019.2003497983491798
 21
-70.1945530427897495
 31
0.0
  0
LINE
  5
9668
  8
0
 10
4019.2003497983491798
 20
-70.1945530427897495
 30
0.0
 11
4019.2003497983491798
 21
-70.1756226249897566
 31
0.0
  0
LINE
  5
9669
  8
0
 10
4019.2003497983491798
 20
-70.1756226249897566
 30
0.0
 11
4019.2218128466729468
 21
-70.1541475289791947
 31
0.0
  0
ARC
  5
966A
  8
0
 10
4019.2156631745701816
 20
-70.1480013068868971
 30
0.0
 40
0.0086945105086433
 50
315.0160761841802923
 51
19.091389342895031
  0
LINE
  5
966B
  8
0
 10
4019.2238794703021085
 20
-70.1451575422266274
 30
0.0
 11
4019.2129726081420813
 21
-70.1104672662238357
 31
0.0
  0
ARC
  5
966C
  8
0
 10
4019.2229679464171568
 20
-70.1073246628963318
 30
0.0
 40
0.0104777260368656
 50
66.7489212990859215
 51
197.4535074791834006
  0
LINE
  5
966D
  8
0
 10
4019.227104145641988
 20
-70.0976978981813517
 30
0.0
 11
4019.2613400291488688
 21
-70.1084393845897438
 31
0.0
  0
ARC
  5
966E
  8
0
 10
4019.2634569085880685
 20
-70.0994365651560543
 30
0.0
 40
0.0092483477616978
 50
256.7681099003557961
 51
315.3082166784325864
  0
LINE
  5
966F
  8
0
 10
4019.2700315621491427
 20
-70.105940861189751
 30
0.0
 11
4019.2719292335541468
 21
-70.1040431887615796
 31
0.0
  0
ARC
  5
9670
  8
0
 10
4019.2653388052249284
 20
-70.0974527639806979
 30
0.0
 40
0.00932027061604
 50
315.000015424653327
 51
16.4447196439295809
  0
LINE
  5
9671
  8
0
 10
4019.2742778144520344
 20
-70.0948142874522091
 30
0.0
 11
4019.2632885118450758
 21
-70.0598931604501587
 31
0.0
  0
ARC
  5
9672
  8
0
 10
4019.2731885027501448
 20
-70.0568196541463664
 30
0.0
 40
0.0103661111765682
 50
70.8944380011442092
 51
197.247241498299104
  0
LINE
  5
9673
  8
0
 10
4019.2765814307481378
 20
-70.0470245379897563
 30
0.0
 11
4019.3115702427480755
 21
-70.0580054396897509
 31
0.0
  0
ARC
  5
9674
  8
0
 10
4019.3138470812668857
 20
-70.049029441028722
 30
0.0
 40
0.0092602670374866
 50
255.7666397948547115
 51
315.217425395302314
  0
LINE
  5
9675
  8
0
 10
4019.3204198799489859
 20
-70.0555525432897355
 30
0.0
 11
4019.322317565762205
 21
-70.0536548567022663
 31
0.0
  0
ARC
  5
9676
  8
0
 10
4019.3157254308698612
 20
-70.0470586703380604
 30
0.0
 40
0.0093255518336085
 50
314.9823986557324247
 51
17.8671790770817402
  0
LINE
  5
9677
  8
0
 10
4019.3246012142458312
 20
-70.0441974841407671
 30
0.0
 11
4019.3137726762188322
 21
-70.0097665728820004
 31
0.0
  0
ARC
  5
9678
  8
0
 10
4019.3237770902801458
 20
-70.0066201798834555
 30
0.0
 40
0.010487520661783
 50
71.7136902405097345
 51
197.4583865825206885
  0
LINE
  5
9679
  8
0
 10
4019.3270677134019024
 20
-69.9966622740323317
 30
0.0
 11
4019.3618316370479988
 21
-70.007584036089753
 31
0.0
  0
ARC
  5
967A
  8
0
 10
4019.3644155160768605
 20
-69.9993595597831302
 30
0.0
 40
0.008620814425189
 50
252.5588754647504004
 51
316.1570700300218277
  0
LINE
  5
967B
  8
0
 10
4019.3706332045480849
 20
-70.0053310580397437
 30
0.0
 11
4019.3728762768491833
 21
-70.0030879216897546
 31
0.0
  0
ARC
  5
967C
  8
0
 10
4019.3665218396918135
 20
-69.9967336659766346
 30
0.0
 40
0.0089864029088672
 50
315.0008180169191974
 51
19.0356733083253893
  0
LINE
  5
967D
  8
0
 10
4019.375016827341824
 20
-69.9938026896775796
 30
0.0
 11
4019.3641246701481577
 21
-69.9592665039897526
 31
0.0
  0
ARC
  5
967E
  8
0
 10
4019.3740563956898768
 20
-69.956134197579587
 30
0.0
 40
0.0104139577344303
 50
73.1970213017465454
 51
197.5044358395213067
  0
LINE
  5
967F
  8
0
 10
4019.3770668788979492
 20
-69.9461648692897455
 30
0.0
 11
4019.4121974466479514
 21
-69.9571856633897511
 31
0.0
  0
ARC
  5
9680
  8
0
 10
4019.4146260195248033
 20
-69.9482471047786447
 30
0.0
 40
0.009262602024417
 50
254.7998791076815905
 51
315.0860454654344949
  0
LINE
  5
9681
  8
0
 10
4019.4211854969480555
 20
-69.9547869099897497
 30
0.0
 11
4019.4971119356450799
 21
-69.8788604876923785
 31
0.0
  0
LINE
  5
9682
  8
0
 10
4019.4211854969480555
 20
-69.9547869099896502
 30
0.0
 11
4019.9607140579669249
 21
-70.4430686945709965
 31
0.0
  0
LINE
  5
9683
  8
0
 10
4019.7588941385079124
 20
-70.6449830254983056
 30
0.0
 11
4019.2241366758239565
 21
-70.1499492004854943
 31
0.0
  0
LINE
  5
9684
  8
0
 10
4019.2719292335541468
 20
-70.1040431887615796
 30
0.0
 11
4019.8110285051479877
 21
-70.5927542459897239
 31
0.0
  0
LINE
  5
9685
  8
0
 10
4019.8570959331677841
 20
-70.5486865917634134
 30
0.0
 11
4019.3225658926608048
 21
-70.0533969665981715
 31
0.0
  0
LINE
  5
9686
  8
0
 10
4019.3717547406981794
 20
-70.0042094898647491
 30
0.0
 11
4019.910943654372204
 21
-70.4928431893897454
 31
0.0
  0
ENDSEC
  0
EOF
