  0
SECTION
  2
HEADER
  9
$ACADVER
  1
AC1009
  9
$INSBASE
 10
4242.8863974698888342
 20
214.7587904399790091
 30
0.0
  9
$EXTMIN
 10
4241.7663974698889433
 20
209.4789050703479916
 30
0.0
  9
$EXTMAX
 10
4244.006397469888725
 20
214.7632787734933117
 30
0.0
  9
$LIMMIN
 10
0.0
 20
0.0
  9
$LIMMAX
 10
11.6929133858000007
 20
8.2677165353999982
  9
$ORTHOMODE
 70
     0
  9
$REGENMODE
 70
     1
  9
$FILLMODE
 70
     1
  9
$QTEXTMODE
 70
     0
  9
$MIRRTEXT
 70
     0
  9
$DRAGMODE
 70
     2
  9
$LTSCALE
 40
0.6431102362
  9
$OSMODE
 70
  3839
  9
$ATTMODE
 70
     1
  9
$TEXTSIZE
 40
0.2
  9
$TRACEWID
 40
0.05
  9
$TEXTSTYLE
  7
STANDARD
  9
$CLAYER
  8
0
  9
$CELTYPE
  6
BYLAYER
  9
$CECOLOR
 62
   256
  9
$DIMSCALE
 40
1.0
  9
$DIMASZ
 40
0.1875
  9
$DIMEXO
 40
0.0625
  9
$DIMDLI
 40
0.4443307087
  9
$DIMRND
 40
0.0
  9
$DIMDLE
 40
0.0
  9
$DIMEXE
 40
0.125
  9
$DIMTP
 40
0.01
  9
$DIMTM
 40
0.01
  9
$DIMTXT
 40
2.0
  9
$DIMCEN
 40
0.1052362205
  9
$DIMTSZ
 40
0.0
  9
$DIMTOL
 70
     1
  9
$DIMLIM
 70
     0
  9
$DIMTIH
 70
     1
  9
$DIMTOH
 70
     1
  9
$DIMSE1
 70
     0
  9
$DIMSE2
 70
     0
  9
$DIMTAD
 70
     0
  9
$DIMZIN
 70
     0
  9
$DIMBLK
  1

  9
$DIMASO
 70
     1
  9
$DIMSHO
 70
     1
  9
$DIMPOST
  1
\X
  9
$DIMAPOST
  1

  9
$DIMALT
 70
     1
  9
$DIMALTD
 70
     2
  9
$DIMALTF
 40
25.3999999999999986
  9
$DIMLFAC
 40
1.0
  9
$DIMTOFL
 70
     0
  9
$DIMTVP
 40
0.0
  9
$DIMTIX
 70
     0
  9
$DIMSOXD
 70
     0
  9
$DIMSAH
 70
     0
  9
$DIMBLK1
  1

  9
$DIMBLK2
  1

  9
$DIMSTYLE
  2
STANDARD
  9
$DIMCLRD
 70
     0
  9
$DIMCLRE
 70
     0
  9
$DIMCLRT
 70
     0
  9
$DIMTFAC
 40
1.0
  9
$DIMGAP
 40
0.09
  9
$LUNITS
 70
     2
  9
$LUPREC
 70
     4
  9
$SKETCHINC
 40
0.1
  9
$FILLETRAD
 40
0.0
  9
$AUNITS
 70
     0
  9
$AUPREC
 70
     0
  9
$MENU
  1
.
  9
$ELEVATION
 40
0.0
  9
$PELEVATION
 40
0.0
  9
$THICKNESS
 40
0.0
  9
$LIMCHECK
 70
     0
  9
$BLIPMODE
 70
     0
  9
$CHAMFERA
 40
0.0
  9
$CHAMFERB
 40
0.0
  9
$SKPOLY
 70
     0
  9
$TDCREATE
 40
2458060.468368056230247
  9
$TDUPDATE
 40
2459099.7431944450363517
  9
$TDINDWG
 40
0.5580741898
  9
$TDUSRTIMER
 40
0.5580741898
  9
$USRTIMER
 70
     1
  9
$ANGBASE
 50
0.0
  9
$ANGDIR
 70
     0
  9
$PDMODE
 70
     0
  9
$PDSIZE
 40
0.3125
  9
$PLINEWID
 40
0.0
  9
$COORDS
 70
     1
  9
$SPLFRAME
 70
     0
  9
$SPLINETYPE
 70
     6
  9
$SPLINESEGS
 70
     8
  9
$ATTDIA
 70
     1
  9
$ATTREQ
 70
     1
  9
$HANDLING
 70
     1
  9
$HANDSEED
  5
99BA
  9
$SURFTAB1
 70
     6
  9
$SURFTAB2
 70
     6
  9
$SURFTYPE
 70
     6
  9
$SURFU
 70
     6
  9
$SURFV
 70
     6
  9
$UCSNAME
  2

  9
$UCSORG
 10
0.0
 20
0.0
 30
0.0
  9
$UCSXDIR
 10
1.0
 20
0.0
 30
0.0
  9
$UCSYDIR
 10
0.0
 20
1.0
 30
0.0
  9
$PUCSNAME
  2

  9
$PUCSORG
 10
0.0
 20
0.0
 30
0.0
  9
$PUCSXDIR
 10
1.0
 20
0.0
 30
0.0
  9
$PUCSYDIR
 10
0.0
 20
1.0
 30
0.0
  9
$USERI1
 70
     0
  9
$USERI2
 70
     0
  9
$USERI3
 70
     0
  9
$USERI4
 70
     0
  9
$USERI5
 70
     0
  9
$USERR1
 40
0.0
  9
$USERR2
 40
0.0
  9
$USERR3
 40
0.0
  9
$USERR4
 40
0.0
  9
$USERR5
 40
0.0
  9
$WORLDVIEW
 70
     1
  9
$SHADEDGE
 70
     3
  9
$SHADEDIF
 70
    70
  9
$TILEMODE
 70
     1
  9
$MAXACTVP
 70
    64
  9
$PLIMCHECK
 70
     0
  9
$PEXTMIN
 10
1.0000000000000000E+20
 20
1.0000000000000000E+20
 30
1.0000000000000000E+20
  9
$PEXTMAX
 10
-1.0000000000000000E+20
 20
-1.0000000000000000E+20
 30
-1.0000000000000000E+20
  9
$PLIMMIN
 10
0.0
 20
0.0
  9
$PLIMMAX
 10
12.0
 20
9.0
  9
$UNITMODE
 70
     0
  9
$VISRETAIN
 70
     1
  9
$PLINEGEN
 70
     0
  9
$PSLTSCALE
 70
     1
  0
ENDSEC
  0
SECTION
  2
TABLES
  0
TABLE
  2
VPORT
 70
     1
  0
VPORT
  2
*ACTIVE
 70
     0
 10
0.0
 20
0.0
 11
1.0
 21
1.0
 12
0.0
 22
0.0
 13
0.0
 23
0.0
 14
1.0
 24
1.0
 15
0.0
 25
0.0
 16
0.0
 26
0.0
 36
23.8209615264637193
 17
4242.886474609375
 27
212.1219500556919115
 37
0.0
 40
5.7378508299184752
 41
3.3143418467583499
 42
50.0
 43
0.0
 44
0.0
 50
0.0
 51
0.0
 71
     0
 72
   100
 73
     1
 74
     1
 75
     0
 76
     0
 77
     0
 78
     0
  0
ENDTAB
  0
TABLE
  2
LTYPE
 70
     2
  0
LTYPE
  2
CONTINUOUS
 70
     0
  3
Solid line
 72
    65
 73
     0
 40
0.0
  0
LTYPE
  2
PHANTOM2
 70
     0
  3
___ _ _ ___ _ _ ___ _ _ ___ _ _
 72
    65
 73
     6
 40
1.25
 49
0.625
 49
-0.125
 49
0.125
 49
-0.125
 49
0.125
 49
-0.125
  0
ENDTAB
  0
TABLE
  2
LAYER
 70
     2
  0
LAYER
  2
0
 70
     0
 62
   255
  6
CONTINUOUS
  0
LAYER
  2
DEFPOINTS
 70
     0
 62
     7
  6
CONTINUOUS
  0
ENDTAB
  0
TABLE
  2
STYLE
 70
     1
  0
STYLE
  2
STANDARD
 70
     0
 40
0.0
 41
0.8
 50
0.0
 71
     0
 42
0.2
  3
txt
  4

  0
ENDTAB
  0
TABLE
  2
VIEW
 70
     0
  0
ENDTAB
  0
TABLE
  2
UCS
 70
     0
  0
ENDTAB
  0
TABLE
  2
APPID
 70
     9
  0
APPID
  2
ACAD
 70
     0
  0
APPID
  2
ACAD_MLEADERVER
 70
     0
  0
APPID
  2
ACAD_EXEMPT_FROM_CAD_STANDARDS
 70
     0
  0
APPID
  2
ACAD_NAV_VCDISPLAY
 70
     0
  0
APPID
  2
ACAECLAYERSTANDARD
 70
     0
  0
APPID
  2
ACCMTRANSPARENCY
 70
     0
  0
APPID
  2
ACAD_DSTYLE_DIMJAG
 70
     0
  0
APPID
  2
ACAD_DSTYLE_DIMTALN
 70
     0
  0
APPID
  2
ACDBATTR
 70
     0
  0
ENDTAB
  0
TABLE
  2
DIMSTYLE
 70
     1
  0
DIMSTYLE
  2
STANDARD
 70
     0
  3

  4

  5

  6

  7

 40
1.0
 41
0.1875
 42
0.0625
 43
0.38
 44
0.125
 45
0.0
 46
0.0
 47
0.01
 48
0.01
140
0.15625
141
0.09
142
0.0
143
25.3999999999999986
144
1.0
145
0.0
146
1.0
147
0.09
 71
     1
 72
     0
 73
     1
 74
     1
 75
     0
 76
     0
 77
     0
 78
     4
170
     0
171
     2
172
     0
173
     0
174
     0
175
     0
176
     0
177
     0
178
     0
  0
ENDTAB
  0
ENDSEC
  0
SECTION
  2
BLOCKS
  0
BLOCK
  8
0
  2
$MODEL_SPACE
 70
     0
 10
0.0
 20
0.0
 30
0.0
  3
$MODEL_SPACE
  1

  0
ENDBLK
  5
21
  8
0
  0
BLOCK
 67
     1
  8
0
  2
$PAPER_SPACE
 70
     0
 10
0.0
 20
0.0
 30
0.0
  3
$PAPER_SPACE
  1

  0
ENDBLK
  5
1D
 67
     1
  8
0
  0
BLOCK
  8
0
  2
_FILLED
 70
     0
 10
0.0
 20
0.0
 30
0.0
  3
_FILLED
  1

  0
SOLID
  5
6F59
  8
0
  6
BYBLOCK
 62
     0
 10
0.0
 20
0.0
 30
0.0
 11
-1.0
 21
0.1666666667
 31
0.0
 12
-1.0
 22
-0.1666666667
 32
0.0
 13
-1.0
 23
-0.1666666667
 33
0.0
  0
ENDBLK
  5
6F5A
  8
0
  6
BYBLOCK
 62
     0
  0
ENDSEC
  0
SECTION
  2
ENTITIES
  0
ATTDEF
  5
3930
  8
DEFPOINTS
 10
4242.8866907381261626
 20
214.7622787734931933
 30
0.0
 40
0.001
  1
K-45918T
  3

  2
MODELNUMBER
 70
     0
1001
ACDBATTR
1070
     0
1070
     1
  0
ATTDEF
  5
3931
  8
DEFPOINTS
 10
4242.8866907381261626
 20
214.7606121068266134
 30
0.0
 40
0.001
  1
PURIST
  3

  2
TRADENAME
 70
     0
1001
ACDBATTR
1070
     0
1070
     1
  0
ATTDEF
  5
3932
  8
DEFPOINTS
 10
4242.8866907381261626
 20
214.7589454401598914
 30
0.0
 40
0.001
  1
SHOWER ARM
  3

  2
PRODUCT
 70
     0
1001
ACDBATTR
1070
     0
1070
     1
  0
LINE
  5
9777
  8
0
 10
4244.0063974698878155
 20
214.7137904399789932
 30
0.0
 11
4244.0063974698878155
 21
214.6327003722790039
 31
0.0
  0
LINE
  5
9778
  8
0
 10
4243.4963974698894162
 20
214.3847304287789939
 30
0.0
 11
4243.4963974698894162
 21
214.1287904399790136
 31
0.0
  0
LINE
  5
9779
  8
0
 10
4243.2923974698887832
 20
209.9231841468790094
 30
0.0
 11
4243.2923974698887832
 21
209.9455327861917908
 31
0.0
  0
LINE
  5
977A
  8
0
 10
4243.2923974698887832
 20
210.0207103735789929
 30
0.0
 11
4243.2923974698887832
 21
214.0687904399790114
 31
0.0
  0
LINE
  5
977B
  8
0
 10
4243.2923974698887832
 20
209.891504590551591
 30
0.0
 11
4243.2923974698887832
 21
209.8720359789120096
 31
0.0
  0
LINE
  5
977C
  8
0
 10
4243.9613974698886523
 20
214.7587904399790091
 30
0.0
 11
4241.8113974698890161
 21
214.7587904399790091
 31
0.0
  0
LINE
  5
977D
  8
0
 10
4243.9738011518093117
 20
214.589443596242603
 30
0.0
 11
4241.7989937879701756
 21
214.589443596242603
 31
0.0
  0
LINE
  5
977E
  8
0
 10
4243.4363974698881066
 20
214.0687904399790114
 30
0.0
 11
4242.3363974698886523
 21
214.0687904399790114
 31
0.0
  0
ARC
  5
977F
  8
0
 10
4243.9613974698886523
 20
214.7137904399789932
 30
0.0
 40
0.0449999999999982
 50
359.9999999999984084
 51
90.0
  0
ARC
  5
9780
  8
0
 10
4243.9613974699386745
 20
214.6327003722626046
 30
0.0
 40
0.0449999999508408
 50
286.000001154559186
 51
0.0000000209434182
  0
ARC
  5
9781
  8
0
 10
4227.0655381609976757
 20
272.777688958963779
 30
0.0
 40
60.5950596646183897
 50
285.7972624028028008
 51
286.2027376128211813
  0
ARC
  5
9782
  8
0
 10
4243.5863974697904268
 20
214.3847304288119062
 30
0.0
 40
0.0899999999016698
 50
105.9999999372654003
 51
180.0000000209450093
  0
ARC
  5
9783
  8
0
 10
4243.4363974698881066
 20
214.1287904399790136
 30
0.0
 40
0.0600000000000032
 50
270.0
 51
359.9999999999984084
  0
LINE
  5
9784
  8
0
 10
4241.7663974698889433
 20
214.7137904399789932
 30
0.0
 11
4241.7663974698889433
 21
214.6327003722790039
 31
0.0
  0
LINE
  5
9785
  8
0
 10
4242.2763974698891616
 20
214.3847304287789939
 30
0.0
 11
4242.2763974698891616
 21
214.1287904399790136
 31
0.0
  0
ARC
  5
9786
  8
0
 10
4241.8113974698890161
 20
214.7137904399789932
 30
0.0
 40
0.0449999999999982
 50
90.0
 51
180.0000000000015916
  0
ARC
  5
9787
  8
0
 10
4241.8113974698399034
 20
214.6327003722626046
 30
0.0
 40
0.0449999999508408
 50
179.9999999790566108
 51
253.999998845440814
  0
ARC
  5
9788
  8
0
 10
4258.7072567787790831
 20
272.777688958963779
 30
0.0
 40
60.5950596646183897
 50
253.7972623871787903
 51
254.2027375971971992
  0
ARC
  5
9789
  8
0
 10
4242.1863974699872415
 20
214.3847304288119062
 30
0.0
 40
0.0899999999016698
 50
359.9999999790533138
 51
74.0000000627345713
  0
ARC
  5
978A
  8
0
 10
4242.3363974698886523
 20
214.1287904399790136
 30
0.0
 40
0.0600000000000032
 50
180.0000000000015916
 51
270.0
  0
LINE
  5
978B
  8
0
 10
4242.4803974698888851
 20
209.9427268375935114
 30
0.0
 11
4242.4803974698888851
 21
214.0687904399790114
 31
0.0
  0
ARC
  5
978C
  8
0
 10
4243.0273057242684445
 20
210.0378698803882003
 30
0.0
 40
0.2656465363410649
 50
297.1905067891995031
 51
356.2963856485973224
  0
ARC
  5
978D
  8
0
 10
4243.084985239955131
 20
209.9337613578802859
 30
0.0
 40
0.2077459979178114
 50
3.248267575864761
 51
13.4531864980345599
  0
ARC
  5
978E
  8
0
 10
4243.0230010861232586
 20
209.9463136954815923
 30
0.0
 40
0.2703874767892886
 50
304.6538718076791952
 51
355.0927938855019761
  0
ARC
  5
978F
  8
0
 10
4242.8754803988604181
 20
210.1624318784228933
 30
0.0
 40
0.5320518046158325
 50
240.9230927020477964
 51
304.4882747354444064
  0
ARC
  5
9790
  8
0
 10
4242.7336974354229824
 20
209.9244210819711043
 30
0.0
 40
0.2552669859641221
 50
189.3870456795505959
 51
242.7739405410636095
  0
ARC
  5
9791
  8
0
 10
4242.8955888251375654
 20
210.0720055063870859
 30
0.0
 40
0.3949705899352005
 50
268.6665503199403133
 51
330.7301647902878017
  0
ARC
  5
9792
  8
0
 10
4242.8734766547831896
 20
210.1621522525217927
 30
0.0
 40
0.4851824522145543
 50
227.8186307657958025
 51
271.5260150127352858
  0
ARC
  5
9793
  8
0
 10
4242.7108032939586337
 20
209.9671729271177867
 30
0.0
 40
0.2316990614107673
 50
186.0564316521713977
 51
225.2509609863188871
  0
ARC
  5
9794
  8
0
 10
4243.1995898303630383
 20
209.891511467926307
 30
0.0
 40
0.0928076397802032
 50
359.9957541798557941
 51
10.7348005121214793
  0
ARC
  5
9795
  8
0
 10
4243.01650008566412
 20
209.8996878791676011
 30
0.0
 40
0.277279631797813
 50
304.7651570299796049
 51
354.2766257754204844
  0
ARC
  5
9796
  8
0
 10
4242.8737601855618777
 20
210.1158473770861121
 30
0.0
 40
0.5362796561254041
 50
250.1215795098223111
 51
304.1244365974732204
  0
ARC
  5
9797
  8
0
 10
4242.7875024842533094
 20
209.9197692983138097
 30
0.0
 40
0.3228781913770935
 50
204.2013497998254081
 51
252.6860352970032011
  0
ARC
  5
9798
  8
0
 10
4242.6854496305813882
 20
209.8588611014247931
 30
0.0
 40
0.205284661772116
 50
184.4821149510570137
 51
200.3694668701421904
  0
ARC
  5
9799
  8
0
 10
4242.7292879901306151
 20
209.8562511838865987
 30
0.0
 40
0.248858007447451
 50
173.879056794799709
 51
183.0941670643858004
  0
ARC
  5
979A
  8
0
 10
4242.7008717941616851
 20
209.8073978718169883
 30
0.0
 40
0.2204775624344591
 50
173.4769690294089912
 51
187.1437462549963016
  0
ARC
  5
979B
  8
0
 10
4242.7040336182599276
 20
209.7567254442398053
 30
0.0
 40
0.223638212861218
 50
173.4729265108086054
 51
186.0351304921721862
  0
ARC
  5
979C
  8
0
 10
4242.7542802394009414
 20
209.7859030394486979
 30
0.0
 40
0.277690070712844
 50
190.9379488889555887
 51
247.2253621753781943
  0
ARC
  5
979D
  8
0
 10
4242.8737531962251524
 20
210.0098469194207098
 30
0.0
 40
0.530941849072664
 50
244.6920398372556065
 51
306.8008087279387723
  0
ARC
  5
979E
  8
0
 10
4243.0281434639327927
 20
209.7932879950762128
 30
0.0
 40
0.2651232394669083
 50
308.1197425450600917
 51
355.3591162480252024
  0
ARC
  5
979F
  8
0
 10
4244.1994714198599468
 20
209.822308184204303
 30
0.0
 40
0.9084770267954821
 50
180.9469902129430068
 51
183.1847642648664021
  0
ARC
  5
97A0
  8
0
 10
4243.0579688122015796
 20
209.8305365129608049
 30
0.0
 40
0.234305368582898
 50
354.3069077005295071
 51
6.7595792788158553
  0
ARC
  5
97A1
  8
0
 10
4242.9695386752146078
 20
209.8764184818695071
 30
0.0
 40
0.3289252753848379
 50
284.1291281966180122
 51
347.8686142050980266
  0
ARC
  5
97A2
  8
0
 10
4242.880737842158851
 20
210.0499286760554014
 30
0.0
 40
0.5207054264160403
 50
231.761478333683101
 51
288.9498538898325251
  0
ARC
  5
97A3
  8
0
 10
4242.7181999296726644
 20
209.8191470737876045
 30
0.0
 40
0.2393210557832956
 50
189.4194751457391988
 51
228.1259369673495883
  0
ARC
  5
97A4
  8
0
 10
4242.7454892155092239
 20
210.0378698803882003
 30
0.0
 40
0.2656465363410649
 50
183.7036143514025923
 51
242.8094932108004116
  0
ARC
  5
97A5
  8
0
 10
4242.8863974698888342
 20
210.2738167365816082
 30
0.0
 40
0.5401917162026013
 50
240.9508196351175116
 51
299.0491803648826021
  0
ARC
  5
97A6
  8
0
 10
4242.5089164719429391
 20
209.8887375116042904
 30
0.0
 40
0.0277142654752944
 50
141.2504271477613997
 51
192.3999641656068036
  0
LINE
  5
97A7
  8
0
 10
4243.4963974698894162
 20
214.3847304288119062
 30
0.0
 11
4242.2763974698891616
 21
214.3847304288119062
 31
0.0
  0
ENDSEC
  0
EOF
