  0
SECTION
  2
HEADER
  9
$ACADVER
  1
AC1009
  9
$INSBASE
 10
4086.0638293312531459
 20
150.1225207066700875
 30
0.0
  9
$EXTMIN
 10
4084.0953253942029733
 20
147.7147018433701078
 30
0.0
  9
$EXTMAX
 10
4088.0323332683019544
 20
152.0910246436700959
 30
0.0
  9
$LIMMIN
 10
0.0
 20
0.0
  9
$LIMMAX
 10
11.6929133858000007
 20
8.2677165353999982
  9
$ORTHOMODE
 70
     0
  9
$REGENMODE
 70
     1
  9
$FILLMODE
 70
     1
  9
$QTEXTMODE
 70
     0
  9
$MIRRTEXT
 70
     0
  9
$DRAGMODE
 70
     2
  9
$LTSCALE
 40
0.6431102362
  9
$OSMODE
 70
  4095
  9
$ATTMODE
 70
     1
  9
$TEXTSIZE
 40
0.2
  9
$TRACEWID
 40
0.05
  9
$TEXTSTYLE
  7
STANDARD
  9
$CLAYER
  8
0
  9
$CELTYPE
  6
BYLAYER
  9
$CECOLOR
 62
   256
  9
$DIMSCALE
 40
1.0
  9
$DIMASZ
 40
0.1875
  9
$DIMEXO
 40
0.0625
  9
$DIMDLI
 40
0.4443307087
  9
$DIMRND
 40
0.0
  9
$DIMDLE
 40
0.0
  9
$DIMEXE
 40
0.125
  9
$DIMTP
 40
0.01
  9
$DIMTM
 40
0.01
  9
$DIMTXT
 40
2.0
  9
$DIMCEN
 40
0.1052362205
  9
$DIMTSZ
 40
0.0
  9
$DIMTOL
 70
     1
  9
$DIMLIM
 70
     0
  9
$DIMTIH
 70
     1
  9
$DIMTOH
 70
     1
  9
$DIMSE1
 70
     0
  9
$DIMSE2
 70
     0
  9
$DIMTAD
 70
     0
  9
$DIMZIN
 70
     0
  9
$DIMBLK
  1

  9
$DIMASO
 70
     1
  9
$DIMSHO
 70
     1
  9
$DIMPOST
  1
\X
  9
$DIMAPOST
  1

  9
$DIMALT
 70
     1
  9
$DIMALTD
 70
     2
  9
$DIMALTF
 40
25.3999999999999986
  9
$DIMLFAC
 40
1.0
  9
$DIMTOFL
 70
     0
  9
$DIMTVP
 40
0.0
  9
$DIMTIX
 70
     0
  9
$DIMSOXD
 70
     0
  9
$DIMSAH
 70
     0
  9
$DIMBLK1
  1

  9
$DIMBLK2
  1

  9
$DIMSTYLE
  2
STANDARD
  9
$DIMCLRD
 70
     0
  9
$DIMCLRE
 70
     0
  9
$DIMCLRT
 70
     0
  9
$DIMTFAC
 40
1.0
  9
$DIMGAP
 40
0.09
  9
$LUNITS
 70
     2
  9
$LUPREC
 70
     4
  9
$SKETCHINC
 40
0.1
  9
$FILLETRAD
 40
0.0
  9
$AUNITS
 70
     0
  9
$AUPREC
 70
     0
  9
$MENU
  1
.
  9
$ELEVATION
 40
0.0
  9
$PELEVATION
 40
0.0
  9
$THICKNESS
 40
0.0
  9
$LIMCHECK
 70
     0
  9
$BLIPMODE
 70
     0
  9
$CHAMFERA
 40
0.0
  9
$CHAMFERB
 40
0.0
  9
$SKPOLY
 70
     0
  9
$TDCREATE
 40
2458060.468368056230247
  9
$TDUPDATE
 40
2460517.6133912038058043
  9
$TDINDWG
 40
0.4167894676
  9
$TDUSRTIMER
 40
0.4167894676
  9
$USRTIMER
 70
     1
  9
$ANGBASE
 50
0.0
  9
$ANGDIR
 70
     0
  9
$PDMODE
 70
     0
  9
$PDSIZE
 40
0.3125
  9
$PLINEWID
 40
0.0
  9
$COORDS
 70
     1
  9
$SPLFRAME
 70
     0
  9
$SPLINETYPE
 70
     6
  9
$SPLINESEGS
 70
     8
  9
$ATTDIA
 70
     1
  9
$ATTREQ
 70
     1
  9
$HANDLING
 70
     1
  9
$HANDSEED
  5
1548A
  9
$SURFTAB1
 70
     6
  9
$SURFTAB2
 70
     6
  9
$SURFTYPE
 70
     6
  9
$SURFU
 70
     6
  9
$SURFV
 70
     6
  9
$UCSNAME
  2

  9
$UCSORG
 10
0.0
 20
0.0
 30
0.0
  9
$UCSXDIR
 10
1.0
 20
0.0
 30
0.0
  9
$UCSYDIR
 10
0.0
 20
1.0
 30
0.0
  9
$PUCSNAME
  2

  9
$PUCSORG
 10
0.0
 20
0.0
 30
0.0
  9
$PUCSXDIR
 10
1.0
 20
0.0
 30
0.0
  9
$PUCSYDIR
 10
0.0
 20
1.0
 30
0.0
  9
$USERI1
 70
     0
  9
$USERI2
 70
     0
  9
$USERI3
 70
     0
  9
$USERI4
 70
     0
  9
$USERI5
 70
     0
  9
$USERR1
 40
0.0
  9
$USERR2
 40
0.0
  9
$USERR3
 40
0.0
  9
$USERR4
 40
0.0
  9
$USERR5
 40
0.0
  9
$WORLDVIEW
 70
     1
  9
$SHADEDGE
 70
     3
  9
$SHADEDIF
 70
    70
  9
$TILEMODE
 70
     1
  9
$MAXACTVP
 70
    64
  9
$PLIMCHECK
 70
     0
  9
$PEXTMIN
 10
1.0000000000000000E+20
 20
1.0000000000000000E+20
 30
1.0000000000000000E+20
  9
$PEXTMAX
 10
-1.0000000000000000E+20
 20
-1.0000000000000000E+20
 30
-1.0000000000000000E+20
  9
$PLIMMIN
 10
0.0
 20
0.0
  9
$PLIMMAX
 10
12.0
 20
9.0
  9
$UNITMODE
 70
     0
  9
$VISRETAIN
 70
     1
  9
$PLINEGEN
 70
     0
  9
$PSLTSCALE
 70
     1
  0
ENDSEC
  0
SECTION
  2
TABLES
  0
TABLE
  2
VPORT
 70
     1
  0
VPORT
  2
*ACTIVE
 70
     0
 10
0.0
 20
0.0
 11
1.0
 21
1.0
 12
174.6984728859403901
 22
17.3232581409810784
 13
0.0
 23
0.0
 14
1.0
 24
1.0
 15
0.0
 25
0.0
 16
0.0
 26
0.0
 36
60.4960186965801583
 17
3911.3653564453120453
 27
132.5796051025390057
 37
0.0
 40
4.4061274958752721
 41
2.1579545454545448
 42
50.0
 43
0.0
 44
0.0
 50
0.0
 51
0.0
 71
     0
 72
   100
 73
     1
 74
     1
 75
     0
 76
     0
 77
     0
 78
     0
  0
ENDTAB
  0
TABLE
  2
LTYPE
 70
     2
  0
LTYPE
  2
CONTINUOUS
 70
     0
  3
Solid line
 72
    65
 73
     0
 40
0.0
  0
LTYPE
  2
PHANTOM2
 70
     0
  3
___ _ _ ___ _ _ ___ _ _ ___ _ _
 72
    65
 73
     6
 40
1.25
 49
0.625
 49
-0.125
 49
0.125
 49
-0.125
 49
0.125
 49
-0.125
  0
ENDTAB
  0
TABLE
  2
LAYER
 70
     2
  0
LAYER
  2
0
 70
     0
 62
   255
  6
CONTINUOUS
  0
LAYER
  2
DEFPOINTS
 70
     0
 62
     7
  6
CONTINUOUS
  0
ENDTAB
  0
TABLE
  2
STYLE
 70
     1
  0
STYLE
  2
STANDARD
 70
     0
 40
0.0
 41
0.8
 50
0.0
 71
     0
 42
0.2
  3
txt
  4

  0
ENDTAB
  0
TABLE
  2
VIEW
 70
     0
  0
ENDTAB
  0
TABLE
  2
UCS
 70
     0
  0
ENDTAB
  0
TABLE
  2
APPID
 70
    10
  0
APPID
  2
ACAD
 70
     0
  0
APPID
  2
ACAD_MLEADERVER
 70
     0
  0
APPID
  2
ACAD_EXEMPT_FROM_CAD_STANDARDS
 70
     0
  0
APPID
  2
ACAD_NAV_VCDISPLAY
 70
     0
  0
APPID
  2
ACAECLAYERSTANDARD
 70
     0
  0
APPID
  2
ACCMTRANSPARENCY
 70
     0
  0
APPID
  2
ACAD_DSTYLE_DIMJAG
 70
     0
  0
APPID
  2
ACAD_DSTYLE_DIMTALN
 70
     0
  0
APPID
  2
ACDBATTR
 70
     0
  0
APPID
  2
ACADANNOTATIVE
 70
     0
  0
ENDTAB
  0
TABLE
  2
DIMSTYLE
 70
     1
  0
DIMSTYLE
  2
STANDARD
 70
     0
  3

  4

  5

  6

  7

 40
1.0
 41
0.1875
 42
0.0625
 43
0.38
 44
0.125
 45
0.0
 46
0.0
 47
0.01
 48
0.01
140
0.15625
141
0.09
142
0.0
143
25.3999999999999986
144
1.0
145
0.0
146
1.0
147
0.09
 71
     1
 72
     0
 73
     1
 74
     1
 75
     0
 76
     0
 77
     0
 78
     4
170
     0
171
     2
172
     0
173
     0
174
     0
175
     0
176
     0
177
     0
178
     0
  0
ENDTAB
  0
ENDSEC
  0
SECTION
  2
BLOCKS
  0
BLOCK
  8
0
  2
$MODEL_SPACE
 70
     0
 10
0.0
 20
0.0
 30
0.0
  3
$MODEL_SPACE
  1

  0
ENDBLK
  5
21
  8
0
  0
BLOCK
 67
     1
  8
0
  2
$PAPER_SPACE
 70
     0
 10
0.0
 20
0.0
 30
0.0
  3
$PAPER_SPACE
  1

  0
ENDBLK
  5
1D
 67
     1
  8
0
  0
ENDSEC
  0
SECTION
  2
ENTITIES
  0
ATTDEF
  5
14D1C
  8
DEFPOINTS
 10
4086.0592751540621066
 20
150.1210815357279102
 30
0.0
 40
0.001
  1
K-45966T-B
  3

  2
MODELNUMBER
 70
     0
1001
ACDBATTR
1070
     0
1070
     1
  0
ATTDEF
  5
14D1D
  8
DEFPOINTS
 10
4086.0591493444048865
 20
150.119414695348695
 30
0.0
 40
0.001
  1
KOHLER
  3

  2
TRADENAME
 70
     0
1001
ACDBATTR
1070
     0
1070
     1
  0
ATTDEF
  5
14D1E
  8
DEFPOINTS
 10
4086.0592751540621066
 20
150.1177482023946084
 30
0.0
 40
0.001
  1
DRAIN
  3

  2
PRODUCT
 70
     0
1001
ACDBATTR
1070
     0
1070
     1
  0
LINE
  5
1532C
  8
0
 10
4084.0953253942029733
 20
152.0910246436700959
 30
0.0
 11
4084.0953253942029733
 21
148.1540167696701076
 31
0.0
  0
LINE
  5
1532D
  8
0
 10
4084.0953253942029733
 20
148.1540167696701076
 30
0.0
 11
4085.1828712640967751
 21
148.1540167696701076
 31
0.0
  0
LINE
  5
1532E
  8
0
 10
4086.94499740350102
 20
148.1540167696701076
 30
0.0
 11
4088.0323332683019544
 21
148.1540167696701076
 31
0.0
  0
LINE
  5
1532F
  8
0
 10
4085.1189468394281903
 20
149.7143230209819933
 30
0.0
 11
4085.1189468394281903
 21
148.4058970872819998
 31
0.0
  0
LINE
  5
15330
  8
0
 10
4087.0097536319281062
 20
149.7328188834684966
 30
0.0
 11
4087.0097536319281062
 21
148.9348352306820118
 31
0.0
  0
LINE
  5
15331
  8
0
 10
4088.0323332683019544
 20
148.1540167696701076
 30
0.0
 11
4088.0323332683019544
 21
152.0910246436700959
 31
0.0
  0
LINE
  5
15332
  8
0
 10
4088.0323332683019544
 20
152.0910246436700959
 30
0.0
 11
4084.0953253942029733
 21
152.0910246436700959
 31
0.0
  0
ARC
  5
15333
  8
0
 10
4086.0638293313031681
 20
150.1225207066700875
 30
0.0
 40
1.6673228346
 50
303.4785241970715788
 51
235.4791554654395895
  0
ARC
  5
15334
  8
0
 10
4086.3944773546709257
 20
149.6833432889677056
 30
0.0
 40
0.6172622876920567
 50
4.5973760954886878
 51
47.6872952277045812
  0
ARC
  5
15335
  8
0
 10
4086.0650058499941224
 20
149.2698532464748951
 30
0.0
 40
1.1438186456722139
 50
66.545987295079243
 51
111.096577561767603
  0
ARC
  5
15336
  8
0
 10
4086.2055824498947914
 20
149.4871624920000102
 30
0.0
 40
0.8895266752128556
 50
47.1964701328896226
 51
69.2826022375812443
  0
ARC
  5
15337
  8
0
 10
4085.9441243945830138
 20
149.4595532567126952
 30
0.0
 40
0.9243947279418742
 50
108.3374044962426979
 51
132.6541327830587136
  0
ARC
  5
15338
  8
0
 10
4085.7603001685570234
 20
149.6565306468145025
 30
0.0
 40
0.6549745713613891
 50
132.5029124898721022
 51
149.9119704325011924
  0
ARC
  5
15339
  8
0
 10
4085.6660879356390979
 20
149.7089766895043113
 30
0.0
 40
0.547167216143794
 50
149.7180245901865021
 51
179.4401581548148954
  0
ARC
  5
1533A
  8
0
 10
4086.0663277204789665
 20
147.8620526927219885
 30
0.0
 40
1.094858229625806
 50
56.0512303573983601
 51
90.1307450395258201
  0
ARC
  5
1533B
  8
0
 10
4086.0486439866708679
 20
147.9014648803546095
 30
0.0
 40
1.05555242645526
 50
89.1757053961780883
 51
124.078900439755202
  0
ARC
  5
1533C
  8
0
 10
4085.822644037030841
 20
148.2595715422646094
 30
0.0
 40
0.632452612172627
 50
125.2993804299275951
 51
148.7545968517324866
  0
ARC
  5
1533D
  8
0
 10
4085.7441543425848067
 20
148.3340620677957986
 30
0.0
 40
0.5272097477100389
 50
151.2520293749853124
 51
177.6904038079624968
  0
ARC
  5
1533E
  8
0
 10
4085.5891301107772051
 20
148.3455723556575947
 30
0.0
 40
0.3718847040813977
 50
178.499844946204604
 51
205.4570586773808998
  0
ARC
  5
1533F
  8
0
 10
4085.8302797184978772
 20
148.4562520280611011
 30
0.0
 40
0.6372053457073585
 50
205.1224836528535889
 51
240.9165855058620878
  0
ARC
  5
15340
  8
0
 10
4086.0517631091088333
 20
148.840153571195799
 30
0.0
 40
1.08038341720435
 50
240.5480360007865954
 51
270.6399190932978058
  0
ARC
  5
15341
  8
0
 10
4086.0727193177231129
 20
148.8613878966469883
 30
0.0
 40
1.101586232405189
 50
269.537608388054025
 51
296.2122108687461264
  0
ARC
  5
15342
  8
0
 10
4086.2166381704041669
 20
148.5592052979731932
 30
0.0
 40
0.7669226324200437
 50
296.5375179029427954
 51
315.4873408388903044
  0
ARC
  5
15343
  8
0
 10
4085.6609445337849138
 20
148.4093982641782929
 30
0.0
 40
0.542009002625072
 50
180.3701120343463913
 51
212.7157959698434979
  0
ARC
  5
15344
  8
0
 10
4085.8511257718378147
 20
148.5378706978972048
 30
0.0
 40
0.7714742586105606
 50
213.1097241341990127
 51
240.6864321294291926
  0
ARC
  5
15345
  8
0
 10
4086.0297743103019457
 20
148.842762553835513
 30
0.0
 40
1.124808876689193
 50
240.3552548090673895
 51
261.2518438986601836
  0
ARC
  5
15346
  8
0
 10
4086.0667662431669669
 20
149.0475237549740086
 30
0.0
 40
1.332825147385382
 50
261.0188845339952763
 51
269.8737472848760035
  0
ARC
  5
15347
  8
0
 10
4086.0630195266649025
 20
149.0200510802347935
 30
0.0
 40
1.3053494880555001
 50
270.0355448011944759
 51
279.3374498786700997
  0
ARC
  5
15348
  8
0
 10
4086.1140792984101608
 20
148.7890896509024969
 30
0.0
 40
1.0692418786990341
 50
278.6456450078770217
 51
306.7387829290244099
  0
LINE
  5
1534A
  8
0
 10
4086.9835652671531534
 20
148.2470174055700909
 30
0.0
 11
4086.9835652671531534
 21
148.9429886468701056
 31
0.0
  0
LINE
  5
1534B
  8
0
 10
4086.8821210513528968
 20
148.2052591310701075
 30
0.0
 11
4086.8821210513528968
 21
148.5114864772700969
 31
0.0
  0
ARC
  5
1534C
  8
0
 10
4086.3229687005577944
 20
148.2759212200604964
 30
0.0
 40
0.6084905662513167
 50
29.4691628304180817
 51
54.3342191304378872
  0
ARC
  5
1534D
  8
0
 10
4086.4821426493172112
 20
148.3658644500887931
 30
0.0
 40
0.4256624212864577
 50
20.0052864262542407
 51
29.4691628304180817
  0
ARC
  5
1534E
  8
0
 10
4086.3787301518427739
 20
148.4000722582445917
 30
0.0
 40
0.5397726857006222
 50
315.470330961209072
 51
338.8434784671985085
  0
ARC
  5
1534F
  8
0
 10
4086.3654272287731146
 20
148.4605809002295871
 30
0.0
 40
0.655654751816808
 50
306.3088697388153037
 51
340.1247148357065271
  0
LINE
  5
15350
  8
0
 10
4086.8821210513528968
 20
148.2052591310701075
 30
0.0
 11
4086.9227830410518436
 21
148.2052591310701075
 31
0.0
  0
ARC
  5
15351
  8
0
 10
4086.9267252452791581
 20
148.272324105659095
 30
0.0
 40
0.0671807397308219
 50
266.6359183539879041
 51
315.6663685162462798
  0
ARC
  5
15352
  8
0
 10
4086.9512233523669238
 20
148.2475441387520902
 30
0.0
 40
0.0323462037929847
 50
316.7372692566789283
 51
359.0669408246596959
  0
LINE
  5
15353
  8
0
 10
4086.8821210513528968
 20
148.5114864772700969
 30
0.0
 11
4086.9227830410518436
 21
148.5114864772700969
 31
0.0
  0
ARC
  5
15354
  8
0
 10
4086.9250802780770755
 20
148.5760070100465953
 30
0.0
 40
0.0645614160912218
 50
267.9608598426847266
 51
333.6967964651483953
  0
ARC
  5
15355
  8
0
 10
4086.3922267836401261
 20
148.3425937621755111
 30
0.0
 40
0.6277380357278016
 50
19.6072938517563209
 51
52.6840631056538911
  0
ARC
  5
15356
  8
0
 10
4086.1251851789461398
 20
147.9922537454073961
 30
0.0
 40
1.068248360222573
 50
52.6840631056538911
 51
75.1099089100403745
  0
ARC
  5
15357
  8
0
 10
4086.0657804037991809
 20
147.7688387013189981
 30
0.0
 40
1.2994262338078151
 50
75.1099089100403745
 51
90.0860289438027877
  0
ARC
  5
15358
  8
0
 10
4086.0657972032008729
 20
147.7576502099726952
 30
0.0
 40
1.3106147377661419
 50
90.0860289438027877
 51
109.3783300781078935
  0
ARC
  5
15359
  8
0
 10
4085.9385438457479722
 20
148.1194423942170033
 30
0.0
 40
0.9270955054407005
 50
109.3783300781078935
 51
137.2238834513181018
  0
ARC
  5
1535A
  8
0
 10
4085.6422952384477867
 20
148.3935423194579073
 30
0.0
 40
0.5234942091792107
 50
137.2238834513181018
 51
178.6476607185402088
  0
ARC
  5
1535B
  8
0
 10
4087.1906907417701404
 20
148.9498585642573119
 30
0.0
 40
0.2072393736725612
 50
168.1531562841906009
 51
181.8996843680797895
  0
ARC
  5
1535C
  8
0
 10
4087.0237473573570242
 20
148.9848773246764893
 30
0.0
 40
0.036662683645926
 50
149.3700014283006965
 51
168.1531562841921925
  0
ARC
  5
1535D
  8
0
 10
4086.9981016115521015
 20
149.0000623057975986
 30
0.0
 40
0.0068585240447436
 50
121.7041611167486934
 51
149.3700014282993038
  0
ARC
  5
1535E
  8
0
 10
4086.9962727779029592
 20
149.0030229588620045
 30
0.0
 40
0.0033785672798161
 50
40.3004161307810307
 51
121.7041611167478976
  0
ARC
  5
1535F
  8
0
 10
4086.9827259097301067
 20
148.9915342100260034
 30
0.0
 40
0.0211411399281128
 50
19.510919554115091
 51
40.3004161307797872
  0
ARC
  5
15360
  8
0
 10
4086.9332156394698359
 20
148.9739910840584116
 30
0.0
 40
0.073667591644803
 50
6.494229966658315
 51
19.510919554115091
  0
ARC
  5
15361
  8
0
 10
4086.4091655332968003
 20
148.9164159583079936
 30
0.0
 40
0.6008704800641321
 50
1.7566380047834711
 51
6.2972231565669388
  0
ARC
  5
15362
  8
0
 10
4086.0628496091148918
 20
148.6482476090025102
 30
0.0
 40
0.0878021172958856
 50
242.0012518662186949
 51
270.6383870261245761
  0
ARC
  5
15363
  8
0
 10
4085.9628911640670594
 20
148.4602432064127981
 30
0.0
 40
0.1251235648788351
 50
62.0012518662187588
 51
85.7205974111422933
  0
ARC
  5
15364
  8
0
 10
4086.0469476578341528
 20
149.5835596792784941
 30
0.0
 40
1.001333443779687
 50
233.8459640461715026
 51
265.7205974111421938
  0
LINE
  5
15365
  8
0
 10
4086.3189766028531267
 20
148.3444533793700941
 30
0.0
 11
4086.3189766028531267
 21
148.0939037324700962
 31
0.0
  0
LINE
  5
15366
  8
0
 10
4086.5551672829528798
 20
148.3444533793700941
 30
0.0
 11
4086.5551672829528798
 21
148.1495430292700917
 31
0.0
  0
ARC
  5
15367
  8
0
 10
4086.3521332576551686
 20
148.3309601025605957
 30
0.0
 40
0.035797098719239
 50
114.1894687107465955
 51
157.8558734403351878
  0
ARC
  5
15368
  8
0
 10
4086.555500883645891
 20
147.9810835738630885
 30
0.0
 40
0.4403057177155267
 50
107.8766794008868004
 51
119.6823834618652
  0
ARC
  5
15369
  8
0
 10
4086.1792300482688916
 20
149.1881451231087965
 30
0.0
 40
0.8240754891918015
 50
287.0126621222341896
 51
319.205132685581475
  0
ARC
  5
1536A
  8
0
 10
4086.2303821669847821
 20
149.1735540078067004
 30
0.0
 40
0.8636269797705615
 50
296.4205703239538252
 51
316.122821819701187
  0
ARC
  5
1536B
  8
0
 10
4086.6945071813238428
 20
148.2389925323838042
 30
0.0
 40
0.179837133661821
 50
116.3596225326378004
 51
135.0865607857529938
  0
ARC
  5
1536C
  8
0
 10
4086.5991910284001278
 20
148.3340211178326058
 30
0.0
 40
0.0452429247944558
 50
135.0865607857529938
 51
166.6685862955754089
  0
ARC
  5
1536D
  8
0
 10
4086.1399415295318249
 20
148.9645522536930002
 30
0.0
 40
0.9146870843071475
 50
287.8515519459122061
 51
305.9174793646266153
  0
ARC
  5
1536E
  8
0
 10
4086.3032898395499615
 20
148.7390402869006891
 30
0.0
 40
0.6362300543145685
 50
305.9174793646257058
 51
318.8405372255895145
  0
ARC
  5
1536F
  8
0
 10
4086.5876145726128925
 20
148.4904879084791958
 30
0.0
 40
0.2585809597163975
 50
318.8405372255895145
 51
332.4322447670151064
  0
ARC
  5
15370
  8
0
 10
4086.7322895076381428
 20
148.404429115407396
 30
0.0
 40
0.0909839784462522
 50
338.3198389498612073
 51
357.2923689164475149
  0
LINE
  5
15371
  8
0
 10
4086.8231719108530342
 20
148.400131078670114
 30
0.0
 11
4086.8231719108530342
 21
148.4279699283700893
 31
0.0
  0
ARC
  5
15372
  8
0
 10
4086.9534467675898668
 20
148.4162912343062999
 30
0.0
 40
0.1307972866419503
 50
149.0046960475189906
 51
174.8773234149807934
  0
ARC
  5
15373
  8
0
 10
4086.3461118540940333
 20
148.7811471200955964
 30
0.0
 40
0.5777050171974806
 50
329.0046960475190758
 51
335.2650947681626121
  0
ARC
  5
15374
  8
0
 10
4086.3499716597239058
 20
148.3024694255529141
 30
0.0
 40
0.2201168554573521
 50
270.7706830018270239
 51
288.6441069892887867
  0
ARC
  5
15375
  8
0
 10
4086.3517694053530249
 20
148.1688255995694874
 30
0.0
 40
0.0864609385930332
 50
252.1949939147156954
 51
270.7706830018270239
  0
ARC
  5
15376
  8
0
 10
4086.3281826590459787
 20
148.0953835334580901
 30
0.0
 40
0.0093242308851533
 50
189.1317310997822005
 51
252.1949939147156954
  0
ARC
  5
15377
  8
0
 10
4086.0628496091148918
 20
148.6482476090025102
 30
0.0
 40
0.0878021172958714
 50
270.6383870261245761
 51
297.9987481337819872
  0
ARC
  5
15378
  8
0
 10
4086.1628080541631789
 20
148.4602432064127981
 30
0.0
 40
0.1251235648788351
 50
94.2794025888577067
 51
117.9987481337812056
  0
ARC
  5
15379
  8
0
 10
4086.0787515603951761
 20
149.5835596792784941
 30
0.0
 40
1.001333443779687
 50
274.2794025888576925
 51
306.1913865892059903
  0
ARC
  5
1537A
  8
0
 10
4086.0638293312531459
 20
150.1225207066700875
 30
0.0
 40
0.7874015747999984
 50
358.2830979502729178
 51
181.7579733492162006
  0
ARC
  5
1537B
  8
0
 10
4086.0638293312531459
 20
150.1225207066700875
 30
0.0
 40
0.629921259799996
 50
90.0050851344937968
 51
143.1636796027258924
  0
ARC
  5
1537C
  8
0
 10
4086.0638293312531459
 20
150.1225207066700875
 30
0.0
 40
0.6299212597999961
 50
143.1636796027258924
 51
169.5051071437565042
  0
ARC
  5
1537D
  8
0
 10
4086.0638293312531459
 20
150.1225207066700875
 30
0.0
 40
0.6889763779999957
 50
5.7131728835066822
 51
174.3395099670894126
  0
ARC
  5
1537E
  8
0
 10
4086.0638293312531459
 20
150.1225207066700875
 30
0.0
 40
0.7283464566999968
 50
2.6790626695241229
 51
177.3677842485936083
  0
ARC
  5
1537F
  8
0
 10
4086.0637175172819298
 20
150.1225207066700875
 30
0.0
 40
0.629921259799996
 50
36.8363203972741218
 51
89.9949148655062174
  0
ARC
  5
15380
  8
0
 10
4086.0637175172819298
 20
150.1225207066700875
 30
0.0
 40
0.6299212597999961
 50
10.5360146133444097
 51
36.8363203972741218
  0
LINE
  5
15381
  8
0
 10
4087.0489382110508814
 20
151.0870876358700912
 30
0.0
 11
4086.2803647642522265
 21
151.0870876358700912
 31
0.0
  0
LINE
  5
15382
  8
0
 10
4087.0912465535279807
 20
150.8902372421700875
 30
0.0
 11
4086.5212683091531289
 21
150.8902372421700875
 31
0.0
  0
LINE
  5
15383
  8
0
 10
4087.1356553893401724
 20
150.988332950931806
 30
0.0
 11
4087.0489382110508814
 21
151.0870876358700912
 31
0.0
  0
ARC
  5
15384
  8
0
 10
4086.0180855243929727
 20
150.0040398661959955
 30
0.0
 40
1.011786651515993
 50
62.0064144712920324
 51
75.7680436237153856
  0
ARC
  5
15385
  8
0
 10
4086.5226318609929876
 20
150.9546399477113141
 30
0.0
 40
0.0644171386716263
 50
242.6034662816682896
 51
268.7870991699376191
  0
ARC
  5
15386
  8
0
 10
4086.2803647643117984
 20
151.0422566426979074
 30
0.0
 40
0.0590551181631491
 50
186.9169731024678072
 51
256.7519863106447815
  0
ARC
  5
15387
  8
0
 10
4086.2803647642522265
 20
151.0280325177701002
 30
0.0
 40
0.0590551180999999
 50
90.0
 51
173.0830269202045031
  0
ARC
  5
15388
  8
0
 10
4087.0912465535279807
 20
150.9493372421700883
 30
0.0
 40
0.0591
 50
270.0
 51
41.2865938006678022
  0
LINE
  5
15389
  8
0
 10
4086.8821948046188481
 20
150.6540167696701076
 30
0.0
 11
4087.2951436816620117
 21
150.6540167696701076
 31
0.0
  0
ARC
  5
1538A
  8
0
 10
4086.8821948046188481
 20
150.5949167696701068
 30
0.0
 40
0.0591
 50
90.0
 51
207.3555306758302095
  0
LINE
  5
1538B
  8
0
 10
4087.3509634073961934
 20
150.6143324390893952
 30
0.0
 11
4087.3783202247891495
 21
150.5356820453893931
 31
0.0
  0
ARC
  5
1538C
  8
0
 10
4087.2951436816620117
 20
150.5949167696701068
 30
0.0
 40
0.0591
 50
19.1791111682160391
 51
90.0
  0
LINE
  5
1538D
  8
0
 10
4087.3225004990540583
 20
150.4571663759701039
 30
0.0
 11
4086.9228858825399584
 21
150.4571663759701039
 31
0.0
  0
ARC
  5
1538E
  8
0
 10
4087.3225004990540583
 20
150.5162663759701047
 30
0.0
 40
0.0591
 50
270.0
 51
19.1791111682160391
  0
LINE
  5
1538F
  8
0
 10
4086.8703948998831947
 20
150.4891093006534959
 30
0.0
 11
4086.829703821962994
 21
150.5677596943534979
 31
0.0
  0
ARC
  5
15390
  8
0
 10
4086.9228858825399584
 20
150.5162663759701047
 30
0.0
 40
0.0591
 50
207.3555306758302095
 51
270.0
  0
LINE
  5
15391
  8
0
 10
4087.520522244652966
 20
150.2209459035701116
 30
0.0
 11
4087.520522244652966
 21
150.0240955098701079
 31
0.0
  0
LINE
  5
15392
  8
0
 10
4087.520522244652966
 20
150.0240955098701079
 30
0.0
 11
4087.0079884595938893
 21
150.0240955098701079
 31
0.0
  0
LINE
  5
15393
  8
0
 10
4087.0079355801858583
 20
150.2209459035701116
 30
0.0
 11
4087.520522244652966
 21
150.2209459035701116
 31
0.0
  0
LINE
  5
15394
  8
0
 10
4086.9488355935450272
 20
150.1618061685836949
 30
0.0
 11
4086.9488884729521487
 21
150.0831557748836929
 31
0.0
  0
ARC
  5
15395
  8
0
 10
4087.0079884595938893
 20
150.0831955098701087
 30
0.0
 40
0.0591
 50
180.0385219491267037
 51
270.0
  0
ARC
  5
15396
  8
0
 10
4087.0079355801858583
 20
150.161845903570196
 30
0.0
 40
0.0591
 50
90.0
 51
180.0385219491267037
  0
LINE
  5
15397
  8
0
 10
4087.4417820871531148
 20
150.2209459035701116
 30
0.0
 11
4087.4417820871531148
 21
150.0240955098701079
 31
0.0
  0
LINE
  5
15398
  8
0
 10
4087.322500499151829
 20
149.7878750374700871
 30
0.0
 11
4087.0028241680611245
 21
149.7878750374700871
 31
0.0
  0
ARC
  5
15399
  8
0
 10
4087.322500499151829
 20
149.7287750374700863
 30
0.0
 40
0.0591
 50
340.8208887912978753
 51
90.0
  0
LINE
  5
1539A
  8
0
 10
4087.2951436816638306
 20
149.5910246436700959
 30
0.0
 11
4087.0097536319281062
 21
149.5910246436700959
 31
0.0
  0
ARC
  5
1539B
  8
0
 10
4087.2951436816638306
 20
149.6501246436700967
 30
0.0
 40
0.0591
 50
270.0
 51
340.8208887912978753
  0
LINE
  5
1539C
  8
0
 10
4087.3509634073830057
 20
149.6307089742113874
 30
0.0
 11
4087.378320224872823
 21
149.7093593680114054
 31
0.0
  0
LINE
  5
1539D
  8
0
 10
4087.0912583870608614
 20
149.3548041712701036
 30
0.0
 11
4087.0097536319281062
 21
149.3548041712701036
 31
0.0
  0
ARC
  5
1539E
  8
0
 10
4087.0912583870608614
 20
149.2957041712701027
 30
0.0
 40
0.0591
 50
318.9108825558075182
 51
90.0
  0
LINE
  5
1539F
  8
0
 10
4087.1358013619387748
 20
149.256861753876592
 30
0.0
 11
4087.0672165530299935
 21
149.17821136017659
 31
0.0
  0
LINE
  5
153A0
  8
0
 10
4087.0226735781520802
 20
149.1579537775700999
 30
0.0
 11
4087.0097536319281062
 21
149.1579537775700999
 31
0.0
  0
ARC
  5
153A1
  8
0
 10
4087.0226735781520802
 20
149.2170537775701007
 30
0.0
 40
0.0591
 50
270.0
 51
318.9108825558075182
  0
ARC
  5
153A2
  8
0
 10
4086.4591243419117745
 20
148.9586908466083912
 30
0.0
 40
0.5511458114106755
 50
342.0910915745046168
 51
357.5192531118511852
  0
LINE
  5
153A3
  8
0
 10
4085.0787204514549558
 20
151.0870876358700912
 30
0.0
 11
4085.8472938982531559
 21
151.0870876358700912
 31
0.0
  0
LINE
  5
153A4
  8
0
 10
4085.0364121089778564
 20
150.8902372421700875
 30
0.0
 11
4085.6063903533531629
 21
150.8902372421700875
 31
0.0
  0
LINE
  5
153A5
  8
0
 10
4084.9920032731661195
 20
150.988332950931806
 30
0.0
 11
4085.0787204514549558
 21
151.0870876358700912
 31
0.0
  0
ARC
  5
153A6
  8
0
 10
4086.1095731381128644
 20
150.0040398661959955
 30
0.0
 40
1.011786651515993
 50
104.2319563762846002
 51
117.993585528707996
  0
ARC
  5
153A7
  8
0
 10
4085.6050268015128495
 20
150.9546399477113141
 30
0.0
 40
0.0644171386716263
 50
271.2129008300624946
 51
297.3965337183316819
  0
ARC
  5
153A8
  8
0
 10
4085.8472938981931293
 20
151.0422566426979074
 30
0.0
 40
0.0590551181631491
 50
283.2480136893551048
 51
353.0830268975321928
  0
ARC
  5
153A9
  8
0
 10
4085.8472938982531559
 20
151.0280325177701002
 30
0.0
 40
0.0590551180999999
 50
6.9169730797954294
 51
90.0
  0
ARC
  5
153AA
  8
0
 10
4085.0364121089778564
 20
150.9493372421700883
 30
0.0
 40
0.0591
 50
138.7134061993322121
 51
270.0
  0
LINE
  5
153AB
  8
0
 10
4085.2454638578860795
 20
150.6540167696701076
 30
0.0
 11
4084.8325149808438255
 21
150.6540167696701076
 31
0.0
  0
ARC
  5
153AC
  8
0
 10
4085.2454638578860795
 20
150.5949167696701068
 30
0.0
 40
0.0591
 50
332.6444693241699042
 51
90.0
  0
LINE
  5
153AD
  8
0
 10
4084.776695255111008
 20
150.6143324390893952
 30
0.0
 11
4084.7493384377180519
 21
150.5356820453893931
 31
0.0
  0
ARC
  5
153AE
  8
0
 10
4084.8325149808438255
 20
150.5949167696701068
 30
0.0
 40
0.0591
 50
90.0
 51
160.8208888317840035
  0
LINE
  5
153AF
  8
0
 10
4084.8051581634517788
 20
150.4571663759701039
 30
0.0
 11
4085.2047727799658787
 21
150.4571663759701039
 31
0.0
  0
ARC
  5
153B0
  8
0
 10
4084.8051581634517788
 20
150.5162663759701047
 30
0.0
 40
0.0591
 50
160.8208888317840035
 51
270.0
  0
LINE
  5
153B1
  8
0
 10
4085.2572637626230971
 20
150.4891093006534959
 30
0.0
 11
4085.2979548405442074
 21
150.5677596943534979
 31
0.0
  0
ARC
  5
153B2
  8
0
 10
4085.2047727799658787
 20
150.5162663759701047
 30
0.0
 40
0.0591
 50
270.0
 51
332.6444693241699042
  0
LINE
  5
153B3
  8
0
 10
4084.6071364178528711
 20
150.2209459035701116
 30
0.0
 11
4084.6071364178528711
 21
150.0240955098701079
 31
0.0
  0
LINE
  5
153B4
  8
0
 10
4084.6071364178528711
 20
150.0240955098701079
 30
0.0
 11
4085.1196702029110384
 21
150.0240955098701079
 31
0.0
  0
LINE
  5
153B5
  8
0
 10
4085.1197230823199789
 20
150.2209459035701116
 30
0.0
 11
4084.6071364178528711
 21
150.2209459035701116
 31
0.0
  0
LINE
  5
153B6
  8
0
 10
4085.1788230689621741
 20
150.1618061685836949
 30
0.0
 11
4085.1787701895527789
 21
150.0831557748836929
 31
0.0
  0
ARC
  5
153B7
  8
0
 10
4085.1196702029110384
 20
150.0831955098701087
 30
0.0
 40
0.0591
 50
270.0
 51
359.9614780508733247
  0
ARC
  5
153B8
  8
0
 10
4085.1197230823199789
 20
150.161845903570196
 30
0.0
 40
0.0591
 50
359.9614780508733247
 51
90.0
  0
LINE
  5
153B9
  8
0
 10
4084.685876575353177
 20
150.2209459035701116
 30
0.0
 11
4084.685876575353177
 21
150.0240955098701079
 31
0.0
  0
LINE
  5
153BA
  8
0
 10
4084.8051581633530986
 20
149.7878750374700871
 30
0.0
 11
4085.1248344944451674
 21
149.7878750374700871
 31
0.0
  0
ARC
  5
153BB
  8
0
 10
4084.8051581633530986
 20
149.7287750374700863
 30
0.0
 40
0.0591
 50
90.0
 51
199.1791112087020963
  0
LINE
  5
153BC
  8
0
 10
4084.8325149808420065
 20
149.5910246436700959
 30
0.0
 11
4085.1179050305768214
 21
149.5910246436700959
 31
0.0
  0
ARC
  5
153BD
  8
0
 10
4084.8325149808420065
 20
149.6501246436700967
 30
0.0
 40
0.0591
 50
199.1791112087020963
 51
270.0
  0
LINE
  5
153BE
  8
0
 10
4084.7766952551219219
 20
149.6307089742113874
 30
0.0
 11
4084.7493384376321046
 21
149.7093593680114054
 31
0.0
  0
LINE
  5
153BF
  8
0
 10
4085.0364002754449757
 20
149.3548041712701036
 30
0.0
 11
4085.1179050305768214
 21
149.3548041712701036
 31
0.0
  0
ARC
  5
153C0
  8
0
 10
4085.0364002754449757
 20
149.2957041712701027
 30
0.0
 40
0.0591
 50
90.0
 51
221.0891174441925102
  0
LINE
  5
153C1
  8
0
 10
4084.9918573005670623
 20
149.256861753876592
 30
0.0
 11
4085.0604421094749341
 21
149.17821136017659
 31
0.0
  0
LINE
  5
153C2
  8
0
 10
4085.1049850843542117
 20
149.1579537775700999
 30
0.0
 11
4085.1179050305768214
 21
149.1579537775700999
 31
0.0
  0
ARC
  5
153C3
  8
0
 10
4085.1049850843542117
 20
149.2170537775701007
 30
0.0
 40
0.0591
 50
221.0891174441925102
 51
270.0
  0
ARC
  5
153C4
  8
0
 10
4086.0652620581968222
 20
149.5984817008992991
 30
0.0
 40
0.9617289437712265
 50
234.9600671707354138
 51
304.8712580371596914
  0
ENDSEC
  0
EOF
